Oops, an error
Loading. Please wait.

Bones Exposed Tab

ver1
ver1

Solo

Whole song

Interactive

More versions @911Tabs.com
2,532 views 273 this week
no commentswrite comment
1 2 3 4 5
excellent!
x 3
Autoscroll
+/-
esc
set tempo
stop
Contributor
Difficulty
Tuning
intermediate
C F A# D# G C
Hey! There's an official Ultimate Guitar app which is ideal
for learning songs when you're away from computer. Get the app
WARNING: You are trying to view
                                    content from Ultimate-Guitar.com
                                    in an unauthorized application,
                                    which is prohibited.

                                    Please use an official Ultimate
                                    Guitar Tabs application for iPhone,
                                    iPad or Android to access legitimate
                                    chords, guitar, bass, and drum tabs
                                    from Ultimate-Guitar.com database.

                                    Type "ultimate guitar tabs" in Apple
                                    App Store's or Android Market's
                                    search to find the application.
-------------------------------------------------------------------------------
                             Bones Exposed - Of Mice and Men
-------------------------------------------------------------------------------
Tabbed by: ac10nate10

Tuning: Drop C

(_x's) = (_ times)
Ex: (7x's) = (7 times)

Intro
e|---------------|      |-------------|---------------|      |-------------|
B|---------------|      |-------------|---------------|      |-------------|
G|---------------|      |-------------|---------------|      |-------------|
D|-0--4-3--1-3-1-|(7x's)|-0--4-3--1-0-|-0--4-3--1-3-1-|(3x's)|-0--4-3--1-0-|
A|-0--4-3--1-3-1-|      |-0--4-3--1-0-|-0--4-3--1-3-1-|      |-0--4-3--1-0-|
E|-0--4-3--1-3-1-|      |-0--4-3--1-0-|-0--4-3--1-3-1-|      |-0--4-3--1-0-|

e|---------------|      |------------------------|
B|---------------|      |------------------------|
G|---------------|      |------------------------|
D|-0--4-3--1-3-1-|(2x's)|-0--4-3--1-3-1-0~~~~~~~-|
A|-0--4-3--1-3-1-|      |-0--4-3--1-3-1-0~~~~~~~-|
E|-0--4-3--1-3-1-|      |-0--4-3--1-3-1-0~~~~~~~-|

Verse 
e|-------------------------------------------|-------------------------------------------------|
B|-------------------------------------------|-------------------------------------------------|
G|-------------------------------------------|-------------------------------------------------|
D|-0-0-0----------------------0-0-0-10-10-10-|-0-0-0----------------------10-10-10-------------|
A|-0-0-0-13-10----------------0-0-0-10-10-10-|-0-0-0-13-10----------------10-10-10-------------|
E|-0-0-0-------13-12-10-13-12-0-0-0-10-10-10-|-0-0-0-------13-12-10-13-12-10-10-10-13b-13b-13b-|

e|-------------------------------------------|-------------------------------------------------|
B|-------------------------------------------|-------------------------------------------------|
G|-------------------------------------------|-------------------------------------------------|
D|-0-0-0----------------------0-0-0-10-10-10-|-0-0-0----------------------10-10-10-------------|
A|-0-0-0-13-10----------------0-0-0-10-10-10-|-0-0-0-13-10----------------10-10-10-------------|
E|-0-0-0-------13-12-10-13-12-0-0-0-10-10-10-|-0-0-0-------13-12-10-13-12-10-10-10-13b-13b-13b-|

e|-------------------------------------------|-------------------------------------------------|
B|-------------------------------------------|-------------------------------------------------|
G|-------------------------------------------|-------------------------------------------------|
D|-0-0-0----------------------0-0-0----------|-0-0-0----------------------10-10-10-------------|
A|-0-0-0-13-10----------------0-0-0----------|-0-0-0-13-10----------------10-10-10-------------|
E|-0-0-0-------13-12-10-13-12-0-0-0----------|-0-0-0-------13-12-10-13-12-10-10-10-13b-13b-13b-|

e|-------------------------------------------|-------------------------------------------------|
B|-------------------------------------------|-------------------------------------------------|
G|-------------------------------------------|----------------------------10--------12---------|
D|-0-0-0----------------------0-0-0----------|-0-0-0-------------------------(4x's)----(4x's)--|
A|-0-0-0-13-10----------------0-0-0----------|-0-0-0-13-10----------------8---------10---------|
E|-0-0-0-------13-12-10-13-12-0-0-0----------|-0-0-0-------13-12-10-13-12----------------------|

Chorus
e|-------------------------------------------------------------------|
B|-------------------------------------------------------------------|
G|------------------12--------14--------12--------10--------7--------|
D|-0000000000000000----(3x's)----(3x's)----(3x's)----(3x's)---(4x's)-|
A|-0000000000000000-10--------12--------10--------8---------5--------|
E|-0000000000000000--------------------------------------------------|

e|--------------------------------------------------|
B|--------------------------------------------------|
G|------------------7-7-7-7-7-7-7-7-7-7-7-7-7-7-7-7-|
D|-8888888888888888---------------------------------|
A|-8888888888888888-5-5-5-5-5-5-5-5-5-5-5-5-5-5-5-5-|
E|-8888888888888888---------------------------------|

e|-------------------------------------------------------------------|
B|-------------------------------------------------------------------|
G|------------------12--------14--------12--------10--------7--------|
D|-0000000000000000----(3x's)----(3x's)----(3x's)----(3x's)---(4x's)-|
A|-0000000000000000-10--------12--------10--------8---------5--------|
E|-0000000000000000--------------------------------------------------|

e|--------------------------------------------------|-------5+-|
B|--------------------------------------------------|-------5+-|
G|------------------7-7-7-7-7-7-7-7-7-7-7-7-7-7-7-7-|-------5+-|
D|-8888888888888888---------------------------------|-0-0-0-5+-|
A|-8888888888888888-5-5-5-5-5-5-5-5-5-5-5-5-5-5-5-5-|-0-0-0----|
E|-8888888888888888---------------------------------|-0-0-0----|

Verse 
e|-------------------------------------------|-------------------------------------------------|
B|-------------------------------------------|-------------------------------------------------|
G|-------------------------------------------|-------------------------------------------------|
D|-0-0-0----------------------0-0-0-10-10-10-|-0-0-0----------------------10-10-10-------------|
A|-0-0-0-13-10----------------0-0-0-10-10-10-|-0-0-0-13-10----------------10-10-10-------------|
E|-0-0-0-------13-12-10-13-12-0-0-0-10-10-10-|-0-0-0-------13-12-10-13-12-10-10-10-13b-13b-13b-|

e|-------------------------------------------|-------------------------------------------------|
B|-------------------------------------------|-------------------------------------------------|
G|-------------------------------------------|-------------------------------------------------|
D|-0-0-0----------------------0-0-0-10-10-10-|-0-0-0----------------------10-10-10-------------|
A|-0-0-0-13-10----------------0-0-0-10-10-10-|-0-0-0-13-10----------------10-10-10-------------|
E|-0-0-0-------13-12-10-13-12-0-0-0-10-10-10-|-0-0-0-------13-12-10-13-12-10-10-10-13b-13b-13b-|

e|---------------------------------------------------------|
B|---------------------------------------------------------|
G|---------------------------------------------------------|
D|-0-0----0-0----0-0----1--3-4-0-0----0-0----0-0----4--3-1-|
A|-0-0----0-0----0-0----1--3-4-0-0----0-0----0-0----4--3-1-|
E|-0-0-00-0-0-00-0-0-00-1--3-4-0-0-00-0-0-00-0-0-00-4--3-1-|

e|-------------------------------------------------|
B|-------------------------------------------------|
G|-------------------------------------------------|
D|-0-0----0~~~~~~~~~~~~-1--3-4-0-0----0-0----0-0-0-|
A|-0-0----0~~~~~~~~~~~~-1--3-4-0-0----0-0----0-0-0-|
E|-0-0-00-0~~~~~~~~~~~~-1--3-4-0-0-00-0-0-00-0-0-0-|

e|---------------------------------------------------------|
B|---------------------------------------------------------|
G|---------------------------------------------------------|
D|-0-0----0-0----0-0----1--3-4-0-0----0-0----0-0----4--3-1-|
A|-0-0----0-0----0-0----1--3-4-0-0----0-0----0-0----4--3-1-|
E|-0-0-00-0-0-00-0-0-00-1--3-4-0-0-00-0-0-00-0-0-00-4--3-1-|

e|---------------------------------------------|
B|---------------------------------------------|
G|---------------------------------------------|
D|-0-0----0-0----0-0----1--3-4-0-0----0-0----0-|
A|-0-0----0-0----0-0----1--3-4-0-0----0-0----0-|
E|-0-0-00-0-0-00-0-0-00-1--3-4-0-0-00-0-0-00-0-|

Chorus
e|-------------------------------------------------------------------|
B|-------------------------------------------------------------------|
G|------------------12--------14--------12--------10--------7--------|
D|-0000000000000000----(3x's)----(3x's)----(3x's)----(3x's)---(4x's)-|
A|-0000000000000000-10--------12--------10--------8---------5--------|
E|-0000000000000000--------------------------------------------------|

e|--------------------------------------------------|
B|--------------------------------------------------|
G|------------------7-7-7-7-7-7-7-7-7-7-7-7-7-7-7-7-|
D|-8888888888888888---------------------------------|
A|-8888888888888888-5-5-5-5-5-5-5-5-5-5-5-5-5-5-5-5-|
E|-8888888888888888---------------------------------|

e|-------------------------------------------------------------------|
B|-------------------------------------------------------------------|
G|------------------12--------14--------12--------10--------7--------|
D|-0000000000000000----(3x's)----(3x's)----(3x's)----(3x's)---(4x's)-|
A|-0000000000000000-10--------12--------10--------8---------5--------|
E|-0000000000000000--------------------------------------------------|

e|--------------------------------------------------|
B|--------------------------------------------------|
G|------------------7-7-7-7-7-7-7-7-7-7-7-7-7-7-7-7-|
D|-8888888888888888---------------------------------|
A|-8888888888888888-5-5-5-5-5-5-5-5-5-5-5-5-5-5-5-5-|
E|-8888888888888888---------------------------------|

Intro (again)
e|---------------|      |-------------|---------------|      |-------------|
B|---------------|      |-------------|---------------|      |-------------|
G|---------------|      |-------------|---------------|      |-------------|
D|-0--4-3--1-3-1-|(7x's)|-0--4-3--1-0-|-0--4-3--1-3-1-|(3x's)|-0--4-3--1-0-|
A|-0--4-3--1-3-1-|      |-0--4-3--1-0-|-0--4-3--1-3-1-|      |-0--4-3--1-0-|
E|-0--4-3--1-3-1-|      |-0--4-3--1-0-|-0--4-3--1-3-1-|      |-0--4-3--1-0-|

e|---------------|      |--------------|
B|---------------|      |--------------|
G|---------------|      |--------------|
D|-0--4-3--1-3-1-|(3x's)|-0--4-3--0-00-|
A|-0--4-3--1-3-1-|      |-0--4-3--0-00-|
E|-0--4-3--1-3-1-|      |-0--4-3--0-00-|

Solo Part (Rhythm)
e|-------------|      |------------------|
B|-------------|      |------------------|
G|-------------|      |------------------|
D|-0--4-3--1-0-|(7x's)|-0---0---0~~~~~~~-|
A|-0--4-3--1-0-|      |-0---0---0~~~~~~~-|
E|-0--4-3--1-0-|      |-0---0---0~~~~~~~-|

Chorus (Soft)
e|-------------------------------------------------------------------|
B|-------------------------------------------------------------------|
G|------------------12--------14--------12--------10--------7--------|
D|-0000000000000000----(3x's)----(3x's)----(3x's)----(3x's)---(4x's)-|
A|-0000000000000000-10--------12--------10--------8---------5--------|
E|-0000000000000000--------------------------------------------------|

e|--------------------------------------------------|
B|--------------------------------------------------|
G|------------------7-7-7-7-7-7-7-7-7-7-7-7-7-7-7-7-|
D|-8888888888888888---------------------------------|
A|-8888888888888888-5-5-5-5-5-5-5-5-5-5-5-5-5-5-5-5-|
E|-8888888888888888---------------------------------|

Chorus
e|-------------------------------------------------------------------|
B|-------------------------------------------------------------------|
G|------------------12--------14--------12--------10--------7--------|
D|-0000000000000000----(3x's)----(3x's)----(3x's)----(3x's)---(4x's)-|
A|-0000000000000000-10--------12--------10--------8---------5--------|
E|-0000000000000000--------------------------------------------------|

e|------------------------------------------------------------------|
B|------------------------------------------------------------------|
G|----------------------------------7-7-7-7-7-7-7-7-7-7-7-7-7-7-7-7-|
D|-8888888888888888-(Normal Volume)---------------------------------|
A|-8888888888888888-----------------5-5-5-5-5-5-5-5-5-5-5-5-5-5-5-5-|
E|-8888888888888888-------------------------------------------------|

Chorus 2
e|---------------------------------------------------------------------------|
B|---------------------------------------------------------------------------|
G|-/14\-/14\-/14\-/15\-/14\---/14\-/14\-/14\-/15\-/17\-------------7---------|
D|-------------------------------------------------------8-(16x's)---(16x's)-|  (2 times)
A|-/12\-/12\-/12\-/13\-/12\---/12\-/12\-/12\-/13\-/15\---8---------5---------|
E|-------------------------------------------------------8-------------------|

Ending
e|-------------|
B|-------------|
G|-------------|
D|-0--4-3--1-0-|
A|-0--4-3--1-0-|
E|-0--4-3--1-0-|


************************************

| /   slide up
| \   slide down
| h   hammer-on
| p   pull-off
| ~   vibrato
| +   harmonic
| x   Mute note
| b   Bend
| pb  Pre-bend
| br  Bend release
| pbr Pre-bend release
| brb Bend release bend

************************************
comments
We did not receive enough feedback on this tab! Please rate:
print report bad tab
1 2 3 4 5
I want to post or [tab]
guest
You may want to rate the tab now too:
select rating
Please do not post tabs as comments. Select "correction" instead!