Oops, an error
Loading. Please wait.

Break Free Tab

ver2
ver2

Whole song

More versions @911Tabs.com
124 views 30 this week
2 commentsread comments
1 2 3 4 5
excellent!
x 1
Autoscroll
+/-
esc
set tempo
stop
Contributor
Difficulty
Tuning
intermediate
C G C F A D
WARNING: You are trying to view
                                    content from Ultimate-Guitar.com
                                    in an unauthorized application,
                                    which is prohibited.

                                    Please use an official Ultimate
                                    Guitar Tabs application for iPhone,
                                    iPad or Android to access legitimate
                                    chords, guitar, bass, and drum tabs
                                    from Ultimate-Guitar.com database.

                                    Type "ultimate guitar tabs" in Apple
                                    App Store's or Android Market's
                                    search to find the application.
-------------------------------------------------------------------------------
BREAK FREE – Of Mice And Men
-------------------------------------------------------------------------------
Tabbed by: 1039idiot
E-mail: 1039idiot@gmail.com

Tuning: Drop C

OBS! x underneath note = palm mute

INTRO (RIFF 1)

D|-121212121212-----------------------|--------------------------|
A|-------------12h13-1212121212121212-|-888-101010-1212-55555555-|
F|------------------------------------|--------------------------|
C|------------------------------------|--------------------------|
G|------------------------------------|--------------------------|
C|------------------------------------|--------------------------| x2

CHORUS 1

D|----------------------------------------------|
A|----------------------------------------------|
F|----------------------------------------------|
C|-2-2-2--2-2-5-5-5--5-5-5-5-5--5-5-3-3-3-3-3-3-|
G|-2-2-2--2-2-5-5-5--5-5-5-5-5--5-5-3-3-3-3-3-3-|
C|-2-2-2--2-2-5-5-5--5-5-0-0-0--0-0-3-3-3-3-3-3-| x2

VERSE 1

D|---------------|----------------------|---------------|--------------|
A|---------------|----------------------|---------------|--------------|
F|---------------|----------------------|---------------|--------------|
C|---------------|----------------------|---------------|--------------|
G|----22------22-|-----22------22--5-55-|----22------22-|-----22--5-77-|
C|-0h222---0h222-|--0h222---0h222--5-55-|-0h222---0h222-|--0h222--5-77-|

PRE CHORUS

D|---------------------------|
A|---------------------------|
F|---------------------------|
C|-10-10-1010-10-10-7-7-7-7\-|
G|-10-10-1010-10-10-7-7-7-7\-|
C|-10-10-1010-10-10-7-7-7-7\-|

CHORUS 2

D|----------------------------------------------|
A|----------------------------------------------|
F|----------------------------------------------|
C|-2-2-2--2-2-5-5-5--5-5-5-5-5--5-5-3-3-3-3-3-3-|
G|-2-2-2--2-2-5-5-5--5-5-5-5-5--5-5-3-3-3-3-3-3-|
C|-2-2-2--2-2-5-5-5--5-5-0-0-0--0-0-3-3-3-3-3-3-| x2

D|---------------|
A|---------------|
F|---------------|
C|-7-7-7-7--7-3~-|
G|-7-7-7-7--7-3~-|
C|-7-7-7-7--7-3~-|

VERSE 

D|---------------|----------------------|
A|---------------|----------------------|
F|---------------|----------------------|
C|---------------|----------------------|
G|----22------22-|-----22------22--5-55-|
C|-0h222---0h222-|--0h222---0h222--5-55-| x2

D|---------------|--------------|
A|---------------|--------------|
F|---------------|--------------|
C|---------------|--------------|
G|----22------22-|-----22--5-77-|
C|-0h222---0h222-|--0h222--5-77-|

PRE CHORUS

D|---------------------------|
A|---------------------------|
F|---------------------------|
C|-10-10-1010-10-10-7-7-7-7\-|
G|-10-10-1010-10-10-7-7-7-7\-|
C|-10-10-1010-10-10-7-7-7-7\-|

CHORUS 3

D|----------------------------------------------|
A|----------------------------------------------|
F|----------------------------------------------|
C|-2-2-2--2-2-5-5-5--5-5-5-5-5--5-5-3-3-3-3-3-3-|
G|-2-2-2--2-2-5-5-5--5-5-5-5-5--5-5-3-3-3-3-3-3-|
C|-2-2-2--2-2-5-5-5--5-5-0-0-0--0-0-3-3-3-3-3-3-| x2

D|---------------------|-----------------------------|
A|---------------------|-----------------------------|
F|---------------------|-----------------------------|
C|-2222-2222-5555-5555-|-11111111-11111111-7777-9999-|
G|-2222-2222-5555-5555-|-9-9-9-9--9-9-9-9--7777-9999-|
C|-2222-2222-5555-5555-|-------------------7777-9999-|

D|---------------------|--------------|
A|---------------------|--------------|
F|---------------------|--------------|
C|-2222-2222-5555-5555-|-7777-7777-3~-|
G|-2222-2222-5555-5555-|-7777-7777-3~-|
C|-2222-2222-5555-5555-|-7777-7777-3~-|

BRIDGE

D|-------------|---------------|---------------|-------------------|
A|-------------|---------------|---------------|-------------------|
F|-------------|---------------|---------------|-------------------|
C|---------5---|-----------4---|-----------5---|-------------------|
G|-------------|---------------|---------------|-------------------|
C|-0h2-2-0---2-|-2-0h2-2-0---2-|-2-0h2-2-0---2-|-2-0h2-2-0-8-7-5---| x2
   x x x x x x   x x x x x x x   x x x x x x x   x x x x x  
D|-------------|---------------|---------------|-------------------|
A|-------------|---------------|---------------|-------------------|
F|-------------|---------------|---------------|-------------------|
C|---------5---|-----------4---|-----------5---|-----------8-7-5---|
G|-------------|---------------|---------------|-----------8-7-5---|
C|-0h2-2-0---2-|-2-0h2-2-0---2-|-2-0h2-2-0---2-|-2-0h2-2-0-8-7-5---| 
   x x x x x x   x x x x x x x   x x x x x x x   x x x x x  
D|--------------|----------------|----------------|-----------------|
A|--------------|----------------|----------------|-----------------|
F|---------5+---|-----------5+---|-----------5+---|-----------------|
C|--------------|----------------|----------------|-----------8-7-5-|
G|--------------|----------------|----------------|-----------8-7-5-|
C|-0h2-2-0----2-|-0-0h2-2-0----2-|-0-0h2-2-0----2-|-0-0h2-2-0-8-7-5-|
         x                x                x                x
   
D|--------------|----------------|----------------|---------------|
A|--------------|----------------|----------------|---------------|
F|---------5+---|-----------5+---|-----------5+---|---------------|
C|--------------|----------------|----------------|-----------10~-|
G|--------------|----------------|----------------|-----------10~-|
C|-0h2-2-0----2-|-0-0h2-2-0----2-|-0-0h2-2-0----2-|-0-0h2-2-0-10~-|
         x                x                x                x
RIFF 1

D|-121212121212-----------------------|--------------------------|
A|-------------12h13-1212121212121212-|-888-101010-1212-55555555-|
F|------------------------------------|--------------------------|
C|------------------------------------|--------------------------|
G|------------------------------------|--------------------------|
C|------------------------------------|--------------------------|

CHORUS 3

D|----------------------------------------------|
A|----------------------------------------------|
F|----------------------------------------------|
C|-2-2-2--2-2-5-5-5--5-5-5-5-5--5-5-3-3-3-3-3-3-|
G|-2-2-2--2-2-5-5-5--5-5-5-5-5--5-5-3-3-3-3-3-3-|
C|-2-2-2--2-2-5-5-5--5-5-0-0-0--0-0-3-3-3-3-3-3-| x2

D|---------------------|-----------------------------|
A|---------------------|-----------------------------|
F|---------------------|-----------------------------|
C|-2222-2222-5555-5555-|-11111111-11111111-7777-9999-|
G|-2222-2222-5555-5555-|-9-9-9-9--9-9-9-9--7777-9999-|
C|-2222-2222-5555-5555-|-------------------7777-9999-|

D|---------------------|--------------|
A|---------------------|--------------|
F|---------------------|--------------|
C|-2222-2222-5555-5555-|-7777-7777-3~-|
G|-2222-2222-5555-5555-|-7777-7777-3~-|
C|-2222-2222-5555-5555-|-7777-7777-3~-|

OUTRO (RIFF 1)

D|-121212121212-----------------------|--------------------------|
A|-------------12h13-1212121212121212-|-888-101010-1212-55555555-|
F|------------------------------------|--------------------------|
C|------------------------------------|--------------------------|
G|------------------------------------|--------------------------|
C|------------------------------------|--------------------------| 
Play until it fades out^


ORDER:
INTRO (RIFF 1) x2
CHORUS 1
VERSE 1
PRE CHORUS
CHORUS 2
VERSE 2
PRE CHORUS
CHORUS 3
BRIDGE
RIFF 1
CHORUS 3
OUTRO

************************************

| /   slide up
| \   slide down
| h   hammer-on
| p   pull-off
| ~   vibrato
| +   harmonic
| x   Mute note
| b   Bend
| pb  Pre-bend
| br  Bend release
| pbr Pre-bend release
| brb Bend release bend

************************************
comments
We did not receive enough feedback on this tab! Please rate:
print report bad tab
1 2 3 4 5
2 comments total.
0 reply
Sam_Guitarist wrote on August 18 2014, 09:56 am

Ill have to give this a go looks to be good ill let you know what I think once ive learnt it :)

0 reply
1039idiot wrote on August 24 2014, 09:24 am

I appreciate it! :)

I want to post or [tab]
guest
You may want to rate the tab now too:
select rating
Please do not post tabs as comments. Select "correction" instead!