Oops, an error
Loading. Please wait.

Farewell To Shady Glade Tab

6,090 views 27 this week
no commentswrite comment
1 2 3 4 5
excellent!
x 6
Autoscroll
+/-
esc
set tempo
stop
Contributor
Difficulty
Tuning
novice
C# G# C# F# A# D#
WARNING: You are trying to view
                                    content from Ultimate-Guitar.com
                                    in an unauthorized application,
                                    which is prohibited.

                                    Please use an official Ultimate
                                    Guitar Tabs application for iPhone,
                                    iPad or Android to access legitimate
                                    chords, guitar, bass, and drum tabs
                                    from Ultimate-Guitar.com database.

                                    Type "ultimate guitar tabs" in Apple
                                    App Store's or Android Market's
                                    search to find the application.
Artist: Of Mice & Men
Title: Farewell To Shady Glade
Tabbed By: Flipp, sunpoison_n_skincancer@yahoo.com
Corrections Email Me


I couldn't find the tabs on here so I tried to figure it out by ear..
This is what i came up with..enjoy


Tune to Drop C#


It's a pretty easy song, didn't get too technical 

x don't play
\ slide down
p pull off
b bend
h hammer on
Guitar 1 Lead
Guitar 2 Rhythm


-------------------------Intro----------------------------------------------


Guitar 1 (0:00-0:15)

D#|-------------10p5---------------------------|
A#|-------------------8p6p5--------------------|
F#|-----5h7------------------7p5h7-----5h7-----| x3
C#|--0-------0----------------------0-------0--|
G#|--------------------------------------------|
C#|--------------------------------------------|

D#|-------------10p5---------------------------|
A#|-------------------8p6p5--------------------|
F#|-----5h7------------------7p5h7-----5h7\4---|
C#|--0-------0----------------------0----------|
G#|--------------------------------------------|
C#|--------------------------------------------|


Guitar 2 (0:00-0:15)

D#|-------------------------------------------------------------------------------|
A#|-------------------------------------------------------------------------------|
F#|-------------------------------------------------------------------------------|
C#|-------------------------------------------------------------------------------|
G#|-------------------------------------------------------------------------------|
C#|--0-0-0-0-0-0-0-0-0-10-10-10-10-10-10-10-10p8-8-8-8-8-8-8-8-8-8-8-8-8-3-3-3-3--|

D#|-----------------------------------------------------------|
A#|-----------------------------------------------------------|
F#|-----------------------------------------------------------|
C#|------------------------------------------8-8-8-8-8-8-8-8--|
G#|------------------------------------------8-8-8-8-8-8-8-8--|
C#|--0-0-0-0-0-0-0-0-10-10-10-10-10-10-10-10-8-8-8-8-8-8-8-8--|



--------------------------Verse----------------------------------------------


Guitar 1 (0:15-0:28)

D#|--5--8--10--------12b-----------------------|
A#|------------8-10----------------------------|
F#|--------------------------------------------| x2
C#|--------------------------------------------|
G#|--------------------------------------------|
C#|--------------------------------------------|


Guitar 2 (0:15- 0:28)

D#|--------------------------------------------|
A#|--------------------------------------------|
F#|--------------------------------------------| x4
C#|--------------------------------------------|
G#|--0-0--0----0-0-0-0-0-0--0-0--0-------------|
C#|--0-0--0----0-0-0-0-0-0--0-0--0-------------|


Guitar 1 (0:28-0:42)

D#|-------------------------------------------------------------------|
A#|-------------------------------------------------------------------|
F#|-------------------------------------------------------------------|
C#|-------------------------------------------------------------------|
G#|--5-5-5-5-5-5-5-5-5-5-5-5-5-5-5-5-5-5-5-5-5-5-5-5-8-8-8-7-7-7-5-5--|
C#|-------------------------------------------------------------------|
                                                                        x2
D#|-------------------------------------------------------------------|
A#|-------------------------------------------------------------------|
F#|-------------------------------------------------------------------|
C#|-------------------------------------------------------------------|
G#|-------------------------------------------------------------------|
C#|--8-8-8-8-8-8-8-8-8-8-8-8-8-8-8-8-5-5-5-5-5-5-5-5-7-7-7-7-8-8-8-8--|


Guitar 2 (0:28-0:42)

D#|--------------------------------------------|
A#|--------------------------------------------|
F#|--------------------------------------------| x4
C#|--------------------------------------------|
G#|--0-0--0----0-0-0-0-0-0--0-0--0-------------|
C#|--0-0--0----0-0-0-0-0-0--0-0--0-------------|

D#|--------------------------------------------|
A#|--------------------------------------------|
F#|--------------------------------------------|
C#|--------------------------------------------|
G#|--0-0--0------------------------------------|
C#|--0-0--0------------------------------------|


Both Guitars (0:42-1:00)

D#|--------------------------------------------|
A#|--------------------------------------------|
F#|--------------------------------------------| x4
C#|--------------------------------------------|
G#|--0-0--0----0-0-0-0-0-0--0-0--0-------------|
C#|--0-0--0----0-0-0-0-0-0--0-0--0-------------|

D#|--------------------------------------------|
A#|--------------------------------------------|
F#|--------------------------------------------|
C#|--0-----------------------------------------|
G#|--0-----------------------------------------|
C#|--0-----------------------------------------|


--------------------------Chorus---------------------------------------------


Guitar 1 (1:00-1:22)

D#|--5--5-5-5-5-5--8--8-8-8-8h10-------------------12-12-12b-12--|
A#|-------------------------------8--8-8-8-8h10p6----------------|
F#|--------------------------------------------------------------| x4
C#|--------------------------------------------------------------|
G#|--------------------------------------------------------------|
C#|--------------------------------------------------------------|


Guitar 2 (1:00-1:22)

D#|---------------------------------------------------------------------------|
A#|---------------------------------------------------------------------------|
F#|---------------------------------------------------------------------------|
C#|--0---0-0-0-0-0-0-0---10-10-10-10-10-10-10---8-8-8-8-8-8-8--8-8-8-3h5-5----|
G#|--0---0-0-0-0-0-0-0---10-10-10-10-10-10-10---8-8-8-8-8-8-8--8-8-8-3h5-5----|
C#|--0---0-0-0-0-0-0-0---10-10-10-10-10-10-10---8-8-8-8-8-8-8--8-8-8-3h5-5----|
                                                                               x2
D#|---------------------------------------------------------------------------|
A#|---------------------------------------------------------------------------|
F#|---------------------------------------------------------------------------| 
C#|--0---0-0-0-0-0-0-0---10-10-10-10-10-10-10---8-8-8-8-8-8-8--8-8-8-8h10-10--|
G#|--0---0-0-0-0-0-0-0---10-10-10-10-10-10-10---8-8-8-8-8-8-8--8-8-8-8h10-10--|
C#|--0---0-0-0-0-0-0-0---10-10-10-10-10-10-10---8-8-8-8-8-8-8--8-8-8-8h10-10--|

--------------------------Verse----------------------------------------------


Guitar 1 (1:22-1:23)

D#|--------------|
A#|--------------|
F#|--------------|
C#|--------------|
G#|--------------|
C#|--0-0-0-------|

Guitar 2 (1:23-1:24)

D#|--------------|
A#|--------------|
F#|--------------|
C#|--------------|
G#|--------------|
C#|--0-0-0-------|

Both Guitars (1:24-1:25)

D#|----------------|
A#|----------------|
F#|----------------|
C#|----------12\7--|
G#|----------12\7--|
C#|--0-0-0---12\7--|

Guitar 1 (1:25-1:36)

D#|--------------------------------------------------------------------|
A#|--------------------------------------------------------------------|
F#|--10-10-10---10-10-10---10\9-9--9-9-9---7--7--7-7-7-7-7-7-----------|
C#|--x--x--x----x--x--x----x\x--x--x-x-x---x--x--x-x-x-x-x-x-----------|
G#|--8--8--8----8--8--8----8\7--7--7-7-7---5--5--5-5-5-5-5-5--0--------|
C#|-----------------------------------------------------------1--------|

D#|--------------------------------------------------------------------|
A#|--------------------------------------------------------------------|
F#|--10-10-10---10-10-10---10\9-9--9-9-9---7--7--7-7-7-7-7-7-----------|
C#|--x--x--x----x--x--x----x\x--x--x-x-x---x--x--x-x-x-x-x-x-----------|
G#|--8--8--8----8--8--8----8\7--7--7-7-7---5--5--5-5-5-5-5-5--0-0-0-0--|
C#|-----------------------------------------------------------1-1-1-1--|

Guitar 2 (1:25-1:36)

D#|--------------------------------------------------------------|
A#|--------------------------------------------------------------|
F#|--------------------------------------------------------------|
C#|--------------------------------------------------------------|
G#|--0-0-0---0-0-0---0-0-0---0-0-0---0-0---0-0-0-0-0-0--0--------|
C#|--0-0-0---0-0-0---0-0-0---0-0-0---0-0---0-0-0-0-0-0--1--------|

D#|--------------------------------------------------------------|
A#|--------------------------------------------------------------|
F#|--------------------------------------------------------------|
C#|--------------------------------------------------------------|
G#|--0-0-0---0-0-0---0-0-0---0-0-0---0-0---0-0-0-0-0-0--0-0-0-0--|
C#|--0-0-0---0-0-0---0-0-0---0-0-0---0-0---0-0-0-0-0-0--1-1-1-1--|

Guitar 2 (1:36-1:46)

D#|-------------------------------------|
A#|-------------------------------------|
F#|-------------------------------------|
C#|-------------------------------------|
G#|--0-0-0---0-0-0---0-0-0---0-0-0---0--|
C#|--0-0-0---0-0-0---0-0-0---0-0-0---1--|
 

Guitar 1 (1:46-1:57)

D#|-------------------------------------------------------------------------|
A#|-------------------------------------------------------------------------|
F#|-------------------------------------------------------------------------|
C#|-------------------------------------------------------------------------|
G#|--5-----------4----------------------------------------------------------|
C#|-----3-0-2-3-----2-1--0-0-0-0-0-0-0-0-0-1-3-0-1-3-0-1---0-0-0-0-0-0-0-0--|

D#|-------------------------------------------------------------------------|
A#|-------------------------------------------------------------------------|
F#|-------------------------------------------------------------------------|
C#|-------------------------------------------------------------------------|
G#|-----4----------3--------------------------------8\3---------------------|
C#|--2-----2\1--1-----1-0--0-0-0-0-0-0-0-0--0-1-3-0-8\3---------------------|


Guitar 2 (1:46- 1:57)

D#|-------------------------------------------------------------------------|
A#|-------------------------------------------------------------------------|
F#|-------------------------------------------------------------------------|
C#|-------------------------------------------------------------------------|
G#|--0-0-0---0-0-0---0-0-0-0-0-0---0-0-0---0-0-0----------------------------|
C#|--0-0-0---0-0-0---1-1-1-1-1-1---0-0-0---0-0-0----------------------------|


--------------------------Chorus---------------------------------------------
 

Guitar 1 (1:57-2:02)

D#|------------------------------------------------------------------|
A#|------------------------------------------------------------------|
F#|--10--10--10--10--10--10--10--10--12--12--12--12--12--12--12--12--|
C#|--x---x---x---x---x---x---x---x---x---x---x---x---x---x---x---x---|
G#|--8---8---8---8---8---8---8---8---10--10--10--10--10--10--10--10--|
C#|------------------------------------------------------------------|

D#|------------------------------------------------------------------|
A#|------------------------------------------------------------------|
F#|--14--14--14--14--14--14--14--14--14--14--14--14------------------|
C#|--x---x---x---x---x---x---x---x---x---x---x---x-------------------|
G#|--12--12--12--12--12--12--12--12--12--12--12--12------------------|
C#|------------------------------------------------------------------|


Guitar 2 (1:57-2:02)

D#|------------------------------------------------------------------|
A#|------------------------------------------------------------------|
F#|------------------------------------------------------------------|
C#|--10-10-10-10-10-10-10-10--8-8-8-8-8-8-8-8-8-8-8-8----------------|
G#|--10-10-10-10-10-10-10-10--8-8-8-8-8-8-8-8-8-8-8-8----------------|
C#|--10-10-10-10-10-10-10-10--8-8-8-8-8-8-8-8-8-8-8-8----------------|


Guitar 1 (2:02-2:16)

D#|--------------------------------------------------------------------|
A#|--------------------------------------------------------------------|
F#|--10--10--10--10--10--10--10--10----12--12--12--12--12--12--12--12--|
C#|--x---x---x---x---x---x---x---x-----x---x---x---x---x---x---x---x---|
G#|--8---8---8---8---8---8---8---8-----10--10--10--10--10--10--10--10--|
C#|--------------------------------------------------------------------|

D#|--------------------------------------------------------------------------------------|
A#|--------------------------------------------------------------------------------------|
F#|--9-9-9-9-9-9-9-9-9-9-9-9\10-10-10---10-10-10-10-10-10-10-10-10-10-10-10-10-10-10-10--|
C#|--x-x-x-x-x-x-x-x-x-x-x-x-x--x--x----x--x--x--x--x--x--x--x--x--x--x--x--x--x--x--x---|
G#|--7-7-7-7-7-7-7-7-7-7-7-7\8--8--8----8--8--8--8--8--8--8--8--8--8--8--8--8--8--8--8---|
C#|--------------------------------------------------------------------------------------|

D#|---------------------------------------------------------------------|
A#|---------------------------------------------------------------------|
F#|--12-12-12-12-12-12-12-12-12-12-12-12-12-12-12-12---14---12---10--9--|
C#|--x--x--x--x--x--x--x--x--x--x--x--x--x--x--x--x----x----x----x---x--|
G#|--10-10-10-10-10-10-10-10-10-10-10-10-10-10-10-10---12---10---8---7--|
C#|---------------------------------------------------------------------|


Guitar 2 (2:02-2:16)

D#|--------------------------------------------------------------------------|
A#|--------------------------------------------------------------------------|
F#|--------------------------------------------------------------------------|
C#|--0-0-0-0-0-0-0-0---10-10-10-10-10-10-10---8-8-8-8-8-8-8-8-8-8-8-8-8-8-8--|
G#|--0-0-0-0-0-0-0-0---10-10-10-10-10-10-10---8-8-8-8-8-8-8-8-8-8-8-8-8-8-8--|
C#|--0-0-0-0-0-0-0-0---10-10-10-10-10-10-10---8-8-8-8-8-8-8-8-8-8-8-8-8-8-8--|

D#|------------------------------------------------|
A#|------------------------------------------------|
F#|------------------------------------------------|
C#|--10-10-10-10-10-10-10-10-10-10-10-10-10-10-10--|
G#|--10-10-10-10-10-10-10-10-10-10-10-10-10-10-10--|
C#|--10-10-10-10-10-10-10-10-10-10-10-10-10-10-10--|

D#|------------------------------------------------|
A#|------------------------------------------------|
F#|------------------------------------------------|
C#|--8-8-8-8-8-8-8-8-8-8-8-8-8-8-8-0--10--8--7-----|
G#|--8-8-8-8-8-8-8-8-8-8-8-8-8-8-8-0--10--8--7-----|
C#|--8-8-8-8-8-8-8-8-8-8-8-8-8-8-8-0--10--8--7-----|


------------------------Bridge-----------------------------------------------


Guitar 1 (2:16-2:58)

D#|--5---------------------------------------5--------------|
A#|------8---6p5-----5---------------------------8----------|
F#|----------------7---7p5--------5---5h7------------5\7----|
C#|------------------------7p5-5h7--7-----7--------------7--|
G#|---------------------------------------------------------|
C#|---------------------------------------------------------|

D#|--5-5-5-5-5-5-5-5-5-5-5-5-5-5-5-5-----------------------------------------------------------|
A#|-----------------------------------8-8-8-8-8-8-8-8-10-10-10-10-10-10-10-10------------------|
F#|--------------------------------------------------------------------------------------------|
C#|--------------------------------------------------------------------------------------------|
G#|--------------------------------------------------------------------------------------------|
C#|--------------------------------------------------------------------------------------------|
                                                                                                x2
D#|-----------------------------------12-12-12-12-12-12-12-12-12b-12b-12b-12b-12b-12b-12b-12b--|
A#|--8-8-8-8-8-8-8-8-8-8-8-8-8-8-8-8-----------------------------------------------------------|
F#|--------------------------------------------------------------------------------------------|
C#|--------------------------------------------------------------------------------------------|
G#|--------------------------------------------------------------------------------------------|
C#|--------------------------------------------------------------------------------------------|


Guitar 2 (2:16-2:58)

D#|----------------|
A#|----------------|
F#|-------12---10--| x2
C#|--0----10----8--|
G#|--0----10----8--|
C#|--0----10----8--|

D#|------------------------------------------------------------------------------------|
A#|------------------------------------------------------------------------------------|
F#|-----------------------------------12-12-12-12-12-12-12-12-12-12-12-12-12-12-12-12--|
C#|--0-0-0-0-0-0-0-0-0-0-0-0-0-0-0-0--10-10-10-10-10-10-10-10-10-10-10-10-10-10-10-10--|
G#|--0-0-0-0-0-0-0-0-0-0-0-0-0-0-0-0--10-10-10-10-10-10-10-10-10-10-10-10-10-10-10-10--|
C#|--0-0-0-0-0-0-0-0-0-0-0-0-0-0-0-0--10-10-10-10-10-10-10-10-10-10-10-10-10-10-10-10--|
               
D#|---------|
A#|---------|                                                                             x2
F#|--10-----| x32
C#|---8-----|
G#|---8-----|
C#|---8-----|


-----------------------Breakdown---------------------------------------------


Both Guitars (2:58-3:40)


D#|------------|
A#|----6---6b--|
F#|----9---9b--| x4
C#|------------|
G#|--0---0-----|
C#|--0---0-----|

D#|---------------------------------|
A#|---------------------------------|
F#|---------------------------------| x4
C#|---------------------------------|
G#|--0-0--0----0-0-0-0-0-0--0-0--0--|
C#|--0-0--0----0-0-0-0-0-0--0-0--0--|

D#|---------------------------------|
A#|---------------------------------|
F#|---------------------------------| x2 
C#|---------------------------------|
G#|--0-0--0----0-0-0-0-0-0--0-0--0--|
C#|--1-1--1----1-1-1-1-1-1--1-1--1--|

D#|---------------------------------|
A#|---------------------------------|
F#|---------------------------------| x2
C#|---------------------------------|
G#|--0-0--0----0-0-0-0-0-0--0-0--0--|
C#|--0-0--0----0-0-0-0-0-0--0-0--0--|
comments
print report bad tab
I want to post or [tab]
guest
You may want to rate the tab now too:
select rating
Please do not post tabs as comments. Select "correction" instead!