Oops, an error
Loading. Please wait.

Repeating Apologies Tab

ver1
ver1

Whole song

Interactive

More versions @911Tabs.com
14,264 views 45 this week
1 commentread comment
1 2 3 4 5
excellent!
x 8
Autoscroll
+/-
esc
set tempo
stop
Contributor
Hey! There's an official Ultimate Guitar app which is ideal
for learning songs when you're away from computer. Get the app
WARNING: You are trying to view
                                    content from Ultimate-Guitar.com
                                    in an unauthorized application,
                                    which is prohibited.

                                    Please use an official Ultimate
                                    Guitar Tabs application for iPhone,
                                    iPad or Android to access legitimate
                                    chords, guitar, bass, and drum tabs
                                    from Ultimate-Guitar.com database.

                                    Type "ultimate guitar tabs" in Apple
                                    App Store's or Android Market's
                                    search to find the application.
-------------------------------------------------------------
             Repeating Apologies - Of Mice & Men
-------------------------------------------------------------
Tabbed by: Kristyn Lee
Email: spot_the_village_loony_836@hotmail.com

Tuning: Drop C

Intro
D|-----------------------------------------------------|
A|-----------------------------------------------------|
F|---------4~--------2~--------4~--------2~------------|
C|------2~--------0~--------2~--------0~---------------|
G|---3~--------0~--------3~--------0~-----------(3)----|
C|-------------------------------------------5~--------|

0:21     x2
D|--------------------------------------------------------------|
A|--------------------------------------------------------------|
F|--------------0~---------------0~-------------0~--------------|
C|-------5----4~--4~-----5-----4~---4~---5----4~--4~------------|
G|---2-----2----------2-----22---------2----2----------000000---|
C|---2-----2----------2-----22---------2----2----------000000---|
                            ..                               

Chorus x4

       "why do i deny..."
D|---0-------------------------|
A|---5-------------------------|
F|---4-------------------------|
C|---2------7------0-----0-----|
G|---2------5------0-----0-----|
C|---2------5------0-----0-----|

0:56   "sweet surrender..."
D|-------------------------------------------|
A|-------------------------------------------|
F|--------------7~~--------------------------|
C|--------------7~~--------------/7777-------|
G|---2-2-0-2-xx-5~~---2-2-0-2-xx-/5555-\4----|
C|---2-2-0-2-xx-------2-2-0-2-xx-/5555-\4----|

D|------------------------------------------|
A|------------------------------------------|
F|--------------7~~---77777777--------------|
C|--------------7~~---55555555--------------|
G|---2-2-0-2-xx-5~~---55555555-44444400~----|
C|---2-2-0-2-xx-------55555555-44444400~----|

Repeat Verse

1:30
D|-------0------------------------------------------------|
A|-------5------------------------------------------------|
F|-------4------------------------0~------0~-----0~-------|
C|----------------7-----------------4~------4~------4~----|
G|---2~------/5--------0---0---0~-------------------------|
C|---2~------/5----------5-----0~-------0------0----------|

1:47
D|-----------------------------------------------|
A|-----------------------------------------------|
F|-----------------------------------------------|
C|---------------7777----------------------------|
G|---2----2-0-2--5555----2----2-0-2----0----0----|
C|---2----2-0-2--5555----2----2-0-2-00-0-00-0----|
                                    ..   ..
D|---------------------------------------|
A|---------------------------------------|
F|---------------------------------------|
C|---------------77777777777777777700----|
G|---2----2-0-2--55555555555544444400----|
C|---2----2-0-2--55555555555544444400----|
                                    
Repeat Chorus

2:22
D|-------------------------------------------|
A|-------------------------------------------|
F|--------------7~~--------------------------|
C|--------------7~~--------------/7777-------|
G|---2-2-0-2-xx-5~~---2-2-0-2-xx-/5555-\4----|
C|---2-2-0-2-xx-------2-2-0-2-xx-/5555-\4----|

D|------------------------------------------|
A|------------------------------------------|
F|--------------7~~---77777777--------------|
C|--------------7~~---55555555--------------|
G|---2-2-0-2-xx-5~~---55555555-44444400~----|
C|---2-2-0-2-xx-------55555555-44444400~----|

2:39
D|--------------------------------------------------|
A|--------------------------------------------------|
F|---------4~--------2~--------4~--------2~---------|
C|------2~--------0~--------2~--------0~------------|
G|---3~--------0~--------3~--------0~---------------|
C|--------------------------------------------------|

2:56   x2
D|-----------------------------------------|
A|-----------------------------------------|
F|---4--4-----4--4-4-----------------------|
C|---2--2-----2--2-2-----------------------|
G|---3333333333333333-0--0-----0--0-0------|
C|--------------------0000000000000000-----|
      .. ..... .. . .  .. ..... .. . .

play this x2
D|--------------------------------------------------------------|
A|--------------------------------------------------------------|
F|--------------0~---------------0~-------------0~--------------|
C|-------5----4~--4~-----5-----4~---4~---5----4~--4~------------|
G|---2-----2----------2-----22---------2----2----------000000---|
C|---2-----2----------2-----22---------2----2----------000000---|
                            ..                               
D|---------------|
A|---------------|
F|---------------|
C|---------------|
G|---2-0-2~------|
C|---2-0-2~------|

The End

************************************

| .   palm mute
| /   slide up
| \   slide down
| h   hammer-on
| p   pull-off| ~   vibrato
| +   harmonic
| x   Mute note
| b   Bend
| pb  Pre-bend
| br  Bend release
| pbr Pre-bend release
| brb Bend release bend

************************************
comments
print report bad tab
1 comment total.
0 reply
victor.perszel wrote on December 14 2014, 07:38 am

I believe that instead of


D|--------------------------------------------------------------|
A|--------------------------------------------------------------|
F|--------------0~---------------0~-------------0~--------------|
C|-------5----4~--4~-----5-----4~---4~---5----4~--4~------------|
G|---2-----2----------2-----22---------2----2----------000000---|
C|---2-----2----------2-----22---------2----2----------000000---|


It should be


D|--------------------------------------------------------------|
A|--------------------------------------------------------------|
F|--------------0~-------------0~---0~----------0~--------------|
C|-------5----4~--4~-----5-------4~------5----4~--4~------------|
G|---2-----2----------2-----22---------2----2----------000000---|
C|---2-----2----------2-----22---------2----2----------000000---|


But nice that anyway :3

I want to post or [tab]
guest
You may want to rate the tab now too:
select rating
Please do not post tabs as comments. Select "correction" instead!