Oops, an error
Loading. Please wait.

King And Lionheart Tab

5,176 views 93 this week
2 commentsread comments
1 2 3 4 5
accurate
x 9
add to favorites launch autoscroll
font size
0
reset
Autoscroll
+/-
esc
set tempo
stop
Contributor
Difficulty
novice
WARNING: You are trying to view
                                    content from Ultimate-Guitar.com
                                    in an unauthorized application,
                                    which is prohibited.

                                    Please use an official Ultimate
                                    Guitar Tabs application for iPhone,
                                    iPad or Android to access legitimate
                                    chords, guitar, bass, and drum tabs
                                    from Ultimate-Guitar.com database.

                                    Type "ultimate guitar tabs" in Apple
                                    App Store's or Android Market's
                                    search to find the application.
Capo on third fret

Howling ghosts they reappear in
Mountains that are stacked with fear but
You're a king and I'm a lionheart

e--5---7-5-3-0-3--------5---7-5-3-0-3--------5---7-5-3-0-3--------------------|
B----------------3--------------------3--------------------3-0-2--------------|
G-----------------------------------------------------------------------------|
D------------------(0)------------------(0)-----------------------------------|
A--0---0-0-0-0-0-0------0---0-0-0-0-0-0------0---0-0-0-0-0-0-0-0--------------|
E-----------------------------------------------------------------------------|
2 comments total.
0 reply
guitar0428 wrote on July 8 2013, 05:15 pm

The last three notes I think are wrong....this sounds a bit better to me:

e-----------------
b-----3-3-1-5-----

and these notes are still played with the open a plucking. Wht do you think?

+1 reply
hardyharhar33 wrote on July 19 2013, 05:34 pm

The last three notes are
e---------0------
b-----3-1--------

Great job though!

I want to post or [tab]
guest
You may want to rate the tab now too:
select rating
Please do not post tabs as comments. Select "correction" instead!