Oops, an error
Loading. Please wait.

False Priest Tab

10,627 views 9 this week
3 commentsread comments
1 2 3 4 5
excellent!
x 7
add to favorites launch autoscroll
font size
0
reset
Autoscroll
+/-
esc
set tempo
stop
Contributor
WARNING: You are trying to view
                                    content from Ultimate-Guitar.com
                                    in an unauthorized application,
                                    which is prohibited.

                                    Please use an official Ultimate
                                    Guitar Tabs application for iPhone,
                                    iPad or Android to access legitimate
                                    chords, guitar, bass, and drum tabs
                                    from Ultimate-Guitar.com database.

                                    Type "ultimate guitar tabs" in Apple
                                    App Store's or Android Market's
                                    search to find the application.
of Montreal


False Priest (2010)


1. I Feel Ya' Strutter                        
2. Our Riotous Defects [ft. Janelle Monae]              
3. Coquet Coquette*                                
4. Godly Intersex                             
5. Enemy Gene [ft. Janelle Monae]             
6. Hydra Fancies                              
7. Like a Tourist                                       
8. Sex Karma [ft. Solange Knowles]            
9. Girl Named Hello                           
10. Famine Affair                             
11. Casualty of You                           
12. Around the Way                            
13. You Do Mutilate?                          


*all songs tabbed by pixiesrule73, except for Coquet Coquette, tabbed by leatherface74.

-----------------------------------------------------------------------------------

1. I Feel Ya' Strutter

Eb7

         Ab
I see it girlfriend
         C7
I got so lucky wit you
Fm         Ab             Db
I feel you strutter I got so lucky wit you
Bbm                Eb
So freaked out and depressed    but now
Bbm                Eb
I see how I was so blessed
                    Ab           Db
So blessed with you girlfriend

Bb                                    Db
I know there ain't no one person that everybody else in the world
Gb                                  Bb
Hates on, wants to die. Sometimes I do think it's me.
              Db                     Gb                           Bb
Like I'm in a fight simulator and I'm crushing the birth of any potential memory
    Db         Bbm      Ab            Eb
I'm still way erect for you not gonna lie (ah,ah,ah,ah)
             Bbm           Ab/C    Ab            Fm
You cured me of my death anxiety only took you two tries.
Ab                                     Db                         Eb         Eb7
The head scene dropped the vaccine and I've chosen a very powerful pennance


         Ab
I know it girlfriend
         C7
I got so lucky wit you
Ab                        
I feel you strutter I got so lucky wit you
Bbm                             F7
So hammer on guitar for who you are with me being your
         Bbm                  Eb7
Straight up only solid number yeah

         Ab
I see it girlfriend
         C7
I got so lucky wit you
Fm         Ab             Db
I feel you strutter I got so lucky wit you
Bbm                Eb
So freaked out and depressed    but now
Bbm                Eb
I see how I was so blessed
                    Ab           Db
So blessed with you girlfriend



Bb                          Db
I wanna prove to you I've advanced in varna
Gb                                Bb
I can't even pick up that brahmin signal anymore
Db                        Gb                     Bb              
I can't cope with such an abstract blackmail domination spasm

Db          Bbm     Ab        Eb
Although it makes a temporary difference 
           Bbm      Ab/C           Ab        Db
I'm really not your possession I'm just your friend
                   Ab                                              Eb
Still there's an invisible suture that keeps me in my seat next to you till the end, till the end

Abm                 Bbm
I made a wish that I really shouldn't have
      Gb                       Bbm
Cause When it came true didn't know what to do with it
    Dbm                 Eb/G
Are we to blame for our dreams

Ab                       Bbm                Eb
I see your progress as a predator just like everything you know

Db
We spoke of frontal lobe regression
Eb
This is not one of those


         Ab
I know it girlfriend
         C7
I got so lucky wit you
Ab                       
I feel you strutter I got so lucky wit you
Bbm                        F
So Cristal mimosa fizz for what ya is,
        Bbm                       Eb
with me being your one solid lion hearted brother yeah 


         Ab
I see it girlfriend
         C7
I got so lucky wit you
Fm                        Db
I feel you strutter I got so lucky wit you
Bbm                Eb
So freaked out and depressed    but now
Bbm                Eb
I see how I was so blessed
                    Ab           Db
So blessed with you girlfriend

Fm        Db
Bbm       Eb
Bbm       Eb

Ab        Db
Fm


(0:04)
Keyboard
   Ab        C7       Fm          Db      Bm      Eb       Bbm          Eb
e|----------------------------------------------------------------------------|
b|-9---11-13-8---9-11-6-----------6/8\6---------6-8-/-11---------6/9\8--9/13--|
g|----------------------8-6/8\6\5---------6---8------------6---8--------------|
d|----------------------------------------------------------------------------|
a|----------------------------------------------------------------------------|
e|----------------------------------------------------------------------------|

(0:21)
Guitar
   Ab       Db
e|------------------------|
b|------------------------|
g|------------------------|
d|-6----------------------|
a|-----8---6---4---3-4-6--|
e|------------------------|


Outro solo
(3:06)
Guitar
   Ab                     C7     Fm      Ab      Db            (Bbm)
e|------------------6/8\6------------------------------------------|
b|-6/8\6------------------8-(\5)-----------------------------------|
g|-------8---------------------------------------------------------|
d|---------8/10\8-6------------------------------------------------|
a|-----------------------------------------------------------------|
e|-----------------------------------------------------------------|
                                 Bells ****
e|-------------------------------13--11--9---11--9----11-13--9--6--|
b|-------------------------------14--13--11--13--9----11-14--9--6--|
g|-----------------------------------------------------------------|
d|-----------------------------------------------------------------|
a|-----------------------------------------------------------------|
e|-----------------------------------------------------------------|

Flutes
   Bbm         Eb        Bbm                Eb
e|-9-----8-----6---4-3--------------------------------|
b|-11----9-----8---6-4--------------------------------|
g|----------------------------------------------------|
d|----------------------------------------------------|
a|----------------------------------------------------|
e|----------------------------------------------------|
                         Guitar
e|-----------------------11/--15\--11\--9\8-6--4-3----|
b|-----------------------11/--16\--11\--9\--8--6-4----|
g|----------------------------------------------------|
d|----------------------------------------------------|
a|----------------------------------------------------|
e|----------------------------------------------------|

(3:22)
Guitar
   Ab       Db            Fm
e|----------------------------|
b|----------------------------|
g|----------------------------|
d|-6--------------------------|
a|-----8---6---4---3-4-6------|
e|------------------------1---|


   Ab/C
e|-4----|
b|-4----|
g|-5----|
d|------|
a|-3----|
e|------|

   Eb/G
e|------|
b|-3----|
g|-2----|
d|-4----|
a|-5----|
e|-3----|



--------------------------------------------------------------------------------

2. Our Riotous Defects [ft. Janelle Monáe]



(piano)
F/C  C7             Dm
     You are such a crazy girl
              F
You're such a crazy girl
      Bb         Bbaddb5
And I don't know why
  Gm                   F       Am    Dm  Gm
I even try to make you love me
C               C7
I want it babe. You are just a


(full band)
Dm
Crazy girl. You're so
F
Crazy girl
  Bb
I don't know why
  Gm
I even try
   F               Am              Dm
To help you (can't help you, can't help you)
Gm


(spoken word)
F                                    Am
When I first met you at that Al-Anon meeting
                                         F
And you made that reference to 'all your goodies are gone'
                 Bb
And even sang a verse.
                            Am
I was amazed how husky your singing voice was.

I wanted to talk to you so badly, but
                     C                                      C7
I didn't know how to come on, cause you've got that kind of beauty that makes people nervous.


F                            Am
 I know it's fucked but before we got together I even hooked up with one of your cousins
F                                   Bb
 Just to feel somehow closer to you.
                                     Am
Cause I knew you like guys were best friends and you talked every day

And it was thrilling to touch something that had touched you
C                              C7
 In my head you were like this goddess, but in fact you're just a


Dm
Crazy girl. You're just a
F
Crazy girl
  Bb
I don't know why
  Gm
I even try
        F                 Am               Dm
To understand you  (can't stand you, can't stand you)
Gm
         You're ass is


Dm
Crazy girl. You're so
F
Crazy girl
  Bb
I don't know why
  Gm
I even try
   F                    Am                     Dm
To relate to you (can't wait for you, it's too late for you)
Gm
         

F                            Am                                                F
My god I should have realised on our second date when you dragged me in to the bathroom
                                   Bb
At tanika's house and screamed at me for like twenty minutes because I
      Am
Contradicted you in front of your friends. I was like ... oh...
                    C                                                 C7
And then later that night at my apartment as punishment you killed my beta fish

Just threw it out the window

F                                     Am
 I did everything I could to make you happy
                           F
I participated in all your protests
                             Bb
Supported your stupid little blog
               Am
Got a bow-flex. Wore coloured contacts to match your dresses
                   C
Whatever your eyes caught, I bought
                      C7
But still we fought. Like Ike and Tina, but in reverse, cause you're so


Dm
Crazy girl. You're just too
F
Crazy girl
  Bb
I don't know why
  Gm
I even try
        F             Am      Dm
To understand you
Gm
   (well?)    I think you're


Dm
Crazy girl. You're so
F
Crazy girl
  Bb
I don't know why
  Gm
I even try
   F                  Am            Dm
To make sense of you (sense of you, sense of you) Tell me why
Gm
   Someone tell me why my heart's real weird for you still

Dm       
F
Bb     Gm 
       I was like crazy fan over you
F                 Am              Dm
Like i'm all star struck over you, like I'm getting handcuffed over you
Gm                             Gm
     now it's only fucked up

D
D
G
Em
Em

D


D
My frame works in constant confusion
D
I can’t peel away the 
D
flowers of this psychic disturbance

G
and our riotous defects
Em
slow defects
Em
slow defects

D
D
G
Em
Em

D



(0:00)
Piano (mainly just the chords, the rhythm is fairly difficult to transcribe)
   F/C       C7              Dm7           F           F/G
e|-13------------------------5---5-6-5-----5---5-6-5---5---|
b|-13-----13-17--17--17--17--6---6-8-6-----6---6-8-6---6---|
g|-14--14-14-15--15--15--15--5---5---5-----5---5---5---5---|
d|-----15--------------------0-------0---2-3-------3---5---|
a|-15--15----15--15--15--15--------------------------------|
e|---------------------------------------------------------|
   Bb      Bbaddb5 Gm          F     Am      Dm        Gm
e|-10--10--12--12--6--6--6--6--5--5--8---8---13---13---18---18---|
b|-11--11--11--11--8--8--8--8--6--6--10--10--15---15---20---20---|
g|-10--10--10--10--7--7--7--7--5--5--9---9---14---14---19---19---|
d|-8---8---8---8---5--5--5--5--3--3--7---7---12---12---17---17---|
a|---------------------------------------------------------------|
e|---------------------------------------------------------------|
   C       Csus4    C7
e|-12--12--13-13----12--12--12--12---|
b|-13--13--13-13----11--11--11--11---|
g|-12--12--12-12----12--12--12--12---|
d|-10--10--10-10-10-10--10--10--10---|
a|-----------------------------------|
e|-----------------------------------|

(0:30)
Keyboard
   Dm7              F               Bb        Gm
e|--------------------------5-------10--------6-------|
b|-6--------6-------6-------6---6---11---11---8---8---|
g|-5---7----5---7---5---5---5---5---10---10---7---7---|
d|-7---7----7---7---7---7-------7--------12-------8---|
a|-----8--------8-------8-----------------------------|
e|----------------------------------------------------|
   F    Am   Dm       Gm
e|-----------13-------18-------18-------|
b|-10---13---15-------20-------20-------|
g|-10---14---14-------19-------19-------|
d|-10---14------------------------------|
a|--------------------------------------|
e|--------------------------------------|

(0:46)
Guitar 1
      Gm
e|-17-15--17-------------------------15--17---------------------|
b|-------------------------------18-----------------------------|
g|--------------------------------------------------------------|
d|--------------------------------------------------------------|
a|--------------------------------------------------------------|
e|--------------------------------------------------------------|
Guitar 2
e|--------------------------------------------------------------|
b|----1515151515--1515--15---15------1515151515--1515--15---15--|
g|----1515151515--1515--15---15------1515151515--1515--15---15--|
d|----------------------17---17------------------------17---17--|
a|--------------------------------------------------------------|
e|--------------------------------------------------------------|


(0:50)
Keyboard
   F       Am    F       Bb     Am
e|-----------------------------------------------|
b|-6---6-5---------6---6-5----------------5------|
g|---------7---------------7-------------5-------|
d|-----------7---------------8--8--10-7----------|
a|-----------------------------------------------|
e|-----------------------------------------------|
   C             C7
e|------------------------------------|
b|-5-5--5--6-5---5-5--5--6-5----------|
g|------------------------------------|
d|------------------------------------|
a|------------------------------------|
e|------------------------------------|

x2


(4:40)
Keyboard
   D               D                     G              Em   Em
e|-----------------------------------------------------------------------------------|
b|----5---5-3-5-3-----5/7\5/7\5/7\(5/7)-----3h5p3-5-3-5----------------5-------------|
g|------------------------------------------------------4--------4-6-7---7-6-4-6-----|
d|-------------------------------------------------------------------------------7---|
a|-----------------------------------------------------------------------------------|
e|----------------------------------------------------------------------------------|



------------------------------------------------------------

3. Coquet Coquette  (tab by leatherface74)


Gm           F
Gm           F
            (single notes)
Gm          A Bb

  Gm
Coquet Coquette, you know I won't forget how you
Cm
kissed me strange to prove you were mythical
   D
Oh my Coquette use my voice as your ugly
Gm           F
vehicle

  Gm
Coquet Coquette, you know I won't forget how you
Cm
hurt me twice to prove you weren't cynical
   D
Oh my Coquette you are the death you are the
Gm               F    Bb
pinnacle
Gm      F    Bb
Gm      F    Bb

G
With you I can only see my black light
       Cm
constellations.   And all the
Bb                           F           D
shit. I don't think I have a language to say

        G
I don't wanna catch you with some other guy's face under your
Cm
eyelids.   Something must be
Bb                                  F           D
wrong. You give me emotional artifacts that can find no purchase


Gm           F
Gm           F
            (single notes)
Gm          A Bb

  Gm
Coquet Coquette, you know I won't forget how you
Cm
sold me out to prove you were typical
   D
Oh my Coquette you're Herculean you are so
Gm           F
miserable

  Gm
Coquet Coquette, you know I won't forget how you
Cm
made me cry to prove I was dutiful
   D
Oh my Coquette my teenage lust for you is so
Gm               F    Bb
beautiful.
Gm      F    Bb
Gm      F    Bb

G
With you I can only see my black light
       Cm
constellations.   And all the
Bb                           F           D
shit. I don't think I have a language to say

        G
I don't wanna catch you with some other guy's face under your
Cm
eyelids.   Something must be
Bb                                  F           D
wrong. You give me emotional artifacts that can find no purchase


G
Cm
Bb      F
D              


G
Cm
Bb      F
D         


G
Cm
Bb      F
D         


G
Cm
Bb      F
D         

G



This tab is a slightly condensed version of leatherface74's tab for this song.

(0:00)
Guitar
e|------------------------------------------------------------------------------|
b|------------------------------------------------------------------------------|
g|--7-7-7-8-8-8-10-10-8-8-7-7-8-8-7-7-5-5-7-7-5-5-3-3-5-5-3-3-2-3-2-0---/////12-|
d|------------------------------------------------------------------------------|
a|------------------------------------------------------------------------------|
e|------------------------------------------------------------------------------|


Intro riff:

Guitar 1 (Doubled by Guitar 2 the 2nd time)
    Gm                          F
e|--3-----3-3---3----3---3--3-/-1--1---|
b|--3-----3-3---3----3---3--3-/-1--1---|
g|--3-----3-3---3----3---3--3-/-2--2---|
d|--5-----5-5---5----5---5--5-/-3--3---|    x2
a|--5-----5-5---5----5---5--5-/-3--3---|
e|--3-----3-3---3----3---3--3-/-1--1---|

Guitar 1 & 2                         Guitar 1
    Gm                                  A  Bb
e|--3-----3-3---3----3------------------------|
b|--3-----3-3---3----3------------------------|
g|--3-----3-3---3----3------------------------|
d|--5-----5-5---5----5------------------------|
a|--5-----5-5---5----5------------------------|
e|--3-----3-3---3----3------------------5--6--|


1st Verse:

Guitar 1
   Gm
e|-------------------------------|-------------------------------|
b|-------------------------------|-------------------------------|
g|-------------------------------|-------------------------------|
d|-------------------------------|-------------------------------|
a|-------------------------------|-------------------------------|
e|-3-----------------------------|-------------------------------|
Bass
g|-------------------------------|-------------------------------|
d|------12-12-10----10-12-10-----|-------12-12--10-----10--------|
a|-10------------------------13--|---10------------13----13--10--|
e|-------------------------------|-------------------------------|

Bass
    Cm
g|-----10-10----------|-----10-10------12/15-----|
d|-----------10-----8-|------------10------------|
a|--------------------|--------------------------|
e|--8-----------------|-8------------------------|
    D                                                           Gm
g|----------------------------------|---------------------10/11/12----------|
d|---------------10-----10-----12---|---------------10-10-------------------|
a|---------12-12-----12-----12------|---------12-12-------------------------|
e|--10------------------------------|--10-----------------------------------|

Guitar 1
    Gm                          F
e|--3-----3-3---3----3---3--3-/-1--1--1--|
b|--3-----3-3---3----3---3--3-/-1--1--1--|
g|--3-----3-3---3----3---3--3-/-2--2--2--|
d|--5-----5-5---5----5---5--5-/-3--3--3--|
a|--5-----5-5---5----5---5--5-/-3--3--3--|
e|--3-----3-3---3----3---3--3-/-1--1--1--|


Bass
   Gm
g|-------------------------------|-------------------------------|
d|------12-12-10----10-12-10-----|-------12-12--10-----10--------|
a|-10------------------------13--|---10------------13----13--10--|
e|-------------------------------|-------------------------------|
    Cm
g|-----10-10-----12/15---|-----10-10------12/15-15-------|
d|-----------10----------|------------10-----------------|
a|-----------------------|-------------------------------|
e|--8--------------------|-8-----------------------------|
    D                                                    Gm
g|--------------------------------|-------------------10/12---|
d|------------10-------10----12---|------------10-10----------|
a|------12-12-------12----12------|------12-12----------------|
e|--10----------------------------|--10-----------------------|



Prechorus:

Guitar 1 & 2  
    Gm              F            Bb
e|--3---------------1-1-1--------6-6-6-------|
b|--3---------------1-1-1--------6-6-6-------|
g|--3---------------2-2-2--------7-7-7-------|
d|--5---------------3-3-3--------8-8-8-------|
a|--5---------------3-3-3--------8-8-8-------|
e|--3---------------1-1-1--------6-6-6-------|
Bass
g|-------------------------------------------|
d|-----------------------------------8-------|
a|--10------------------8--------------------|
e|-------------------------------------------|

Guitar 1 & 2
    Gm                F                Bb
e|--3------3----------1---1---1--------6-----6------6-------|
b|--3------3----------1---1---1--------6-----6------6-------|
g|--3------3----------2---2---2--------7-----7------7-------|
d|--5------5----------3---3---3--------8-----8------8-------|
a|--5------5----------3---3---3--------8-----8------8-------|
e|--3------3----------1---1---1--------6-----6------6-------|
Guitar 3 w/heavy distortion
e|----------------------------------------------------------|
b|--8------8----------6---6----6-------11----11-----11------|
g|--10b12--10pb12-----8b108b10-8b10----13b15-13pb15-13pb15--|
d|----------------------------------------------------------|
a|----------------------------------------------------------|
e|----------------------------------------------------------|
Bass
g|----------------------------------------------------------|
d|---------------------------------------------------8------|
a|--10-----10------------------8----------------------------|
e|----------------------------------------------------------|

Guitar 1 & 2
    Gm              F                        Bb
e|--3-----3---------1-----1------1-----------6-----6------6-------|
b|--3-----3---------1-----1------1-----------6-----6------6-------|
g|--3-----3---------2-----2------2-----------7-----7------7-------|
d|--5-----5---------3-----3------3-----------8-----8------8-------|
a|--5-----5---------3-----3------3-----------8-----8------8-------|
e|--3-----3---------1-----1------1-----------6-----6------6-------|
Guitar 3
e|-16-----16--------14----14-----14----------19----19-----19------|
b|-19b21--19pb21----17b19-17pb19-17pb19------22b24-22pb24-22pb24--|
g|----------------------------------------------------------------|
d|----------------------------------------------------------------|
a|----------------------------------------------------------------|
e|----------------------------------------------------------------|
Bass
g|----------------------------------------------------------------|
d|--------------------------------------------------------8-------|
a|--10-----10--------------------8--------------------------------|
e|----------------------------------------------------------------|


Chorus


Guitar 1 w/clean tone
    G
e|--3^-------------------------------|---------------------------------|
b|--3^-------------------------------|---------------------------------|
g|--4^-------------------------------|---------------------------------|
d|--5^-------------------------------|---------------------------------|
a|-----------------------------------|---------------------------------|
e|-----------------------------------|---------------------------------|
Bass
g|-----------------------------------|---------------------------------|
d|-----------------------------------|---------------------------------|
a|-----------------------------------|---------------------------------|
e|--3--------3--------3--------3-----|---3--------3--------3-------3---|

Guitar 1
    Cm
e|--3^-------------------------------|-----------------------------------|
b|--4^-------------------------------|-----------------------------------|
g|--5^-------------------------------|-----------------------------------|
d|--5^-------------------------------|-----------------------------------|
a|--3^-------------------------------|-----------------------------------|
e|-----------------------------------|-----------------------------------|
Bass
g|-----------------------------------|-----------------------------------|
d|-----------------------------------|-----------------------------------|
a|-----------------------------------|-----------------------------5-----|
e|--8--------8--------8--------8-----|----8--------8-------8-------------|

Guitar 1
    Bb                                                     F
e|-----------------------------------|---------------------1^-----------|
b|--3^-------------------------------|---------------------1^-----------|
g|--3^-------------------------------|---------------------2^-----------|
d|--3^-------------------------------|---------------------3^-----------|
a|--1^-------------------------------|----------------------------------|
e|-----------------------------------|----------------------------------|
Bass
g|-----------------------------------|---------------------------------|
d|-----------------------------------|---------------------------------|
a|-----------------------------------|---------------------------------|
e|--6--------6--------6--------6-----|---6--------6--------1-------1---|

Guitar 1
   D
e|-2^-------------------------------|--------------------------------|
b|-3^-------------------------------|--------------------------------|
g|-2^-------------------------------|--------------------------------|
d|-0^-------------------------------|--------------------------------|
a|----------------------------------|--------------------------------|
e|----------------------------------|--------------------------------|
Bass
g|----------------------------------|--------------------------------|
d|----------------------------------|--------------------------------|
a|-5--------5--------5--------5-----|---5--------5-------5------5----|
e|----------------------------------|--------------------------------|

play through twice


Then intro riff again

Second verse same as first

Prechorus

Chorus (extended)

THe chorus has another guitar part below when it is repeated for the first time


Guitar 2
    Gm
e|--3--------3--------3--------3-----|---3--------3--------3-------3---|
b|-----------------------------------|---------------------------------|
g|-----------------------------------|---------------------------------|
d|-----------------------------------|---------------------------------|
a|-----------------------------------|---------------------------------|
e|-----------------------------------|---------------------------------|
   Cm
e|--3--------3--------3--------3-----|---3--------3--------3-------3---|
b|-----------------------------------|---------------------------------|
g|-----------------------------------|---------------------------------|
d|-----------------------------------|---------------------------------|
a|-----------------------------------|---------------------------------|
e|-----------------------------------|---------------------------------|
   Bb                                                   F
e|-1--------1--------1--------1-----|---1-------1-------1-------1-----|
b|----------------------------------|---------------------------------|
g|----------------------------------|---------------------------------|
d|----------------------------------|---------------------------------|
a|----------------------------------|---------------------------------|
e|----------------------------------|---------------------------------|
   D
e|-2--------2--------2--------2-----|-2--------2--------2--------2---|
b|----------------------------------|--------------------------------|
g|----------------------------------|--------------------------------|
d|----------------------------------|--------------------------------|
a|----------------------------------|--------------------------------|
e|----------------------------------|--------------------------------|

--------------------------------------------------

4. Godly Intersex


Ebm7     Db6
Db6      Ebm7

Ebm7     Db6
Db6      Ebm7

Ebm7     Db6
Db6      Ebm7

Ebm7     Db6
Db6      Ebm7

Bb
Too hard too fast
Bb
Trying to break our necks
Bb
  Everything about you screamed of
Ab
Godly intersex
Db
Nothing of thirds, berdache.
Db
No human tracks
Bb
The new forms were germinating
  Gb
I saw your aureole wax
F
We danced for victory
F
We danced for mum's misery
Ab            Gb
We danced for miscarriages
Bb
We danced in garbage too

Ebm7     Db
You      Everybody's stoned about
Ebm7     Db
You      Everybody's thrown about
B        Dbsus4      Db7
You      Everybody's stoned about


Ebm7     Db
You      Everybody's told about
Ebm7     Db
You      Everybody's thrown about
B        Dbsus4      Db7
You      Everybody's told about

Ebm
You.
Gb
Ebm
Gb

B
I was running from home to school to home
E                           C#m
Trying to keep my parents together
           F#
Heir to their chaos there was such pressure to
B
score high. So I had to drop it.
E                                 C#m
  As if I stood a chance after my uncle's suicide
          F#                         
Everybody looking at me to
   B                               
succeed him as the family's golden 
E                       C#m
myth while all my identity 

mutations were being dosed by
F#
books and all the drugs 
          B                 
I took to prove that I was brave
          E
But I was so afraid of the 
C#m
Depths without measure
    F#
You are my greatest treasure


B
  Yeah I had like zero pleasure until you
Bb
 excused me from your archetype


Ebm7     Db
You      Everybody's told about
Ebm7     Db
You      Everybody's thrown about
B        Dbsus4      Db7
You      Everybody's told about

Ebm7     Db
You      Everybody's told about
Ebm7     Db
You      Everybody's thrown about
B        Dbsus4      Db7
You      Everybody's told about

Ebm
You.
Gb
Ebm
Gb

Ebm
Gb
Ebm
Gb

Db

(0:00)
Intro
   Keyboard
   Ebm7        Db6                    Ebm7
e|-----9--9-------------------------------9--9----|
b|-----11-11------11-11-------11-11-------11-11---|
g|-----11-11------10-10-------10-10-------11-11---|
d|----------------11-11-------11-11---------------|
a|------------------------------------------------|
e|-11----------9----------9-----------11----------|

(0:12)
   Guitar
   Ebm7          Db6                         Ebm7
e|-------------9------------------11-----9----------|
b|-12--11------------------12-------11\9---9\6-\4---|
g|---------10----------------11\--------------------|
d|-----------------11--13---------------------------|
a|--------------------------------------------------|
e|--------------------------------------------------|



   Dbsus4     Db7
e|-4------|---4----|
b|-7------|---6----|
g|-6------|---4----|
d|-6------|---6----|
a|-4------|---4----|
e|--------|--------|



------------------------------------------------

5. Enemy Gene

(mostly just bass in the intro)

Bbmaj7                 Fmaj7
Aren't you sick of the con
Bbmaj7        Fmaj7
Not quite homoluminous
Cmaj7               Ebmaj7
  They're expecting    so little
Em7       Bm7
Can't feel the miracle
Bbmaj7     Fmaj7
Bbmaj7     Fmaj7
Cmaj7         Ebmaj7
  of zombie's licking your window for
Em7   Bm7      Am7   
Black-body radiation

Bm7       Am7
Oooo
D


G                 Bm
Love breaks the machine
             Em                     Bm/F#
Everything's half apart what can it mean
          G                  Bm7
How can I trust my fractious heart
                   Am7         Bm7  Cm7
Knowing I have the enemy gene       Oooo

G                 Bm
Love breaks the machine
             Em                       Bm/F#
Everything's half in dream how can it be
             G                         Bm7
Everything's born in shame it's not just me
         Am7         
Particle-wave duality

           Cm7         Gm/D
How can we ever evolve
                  Eb            
When our gods are so primitive
Gb               Bbmaj7
They destroy the film

Bbmaj7(carried over from above)     Fmaj7
Bbmaj7                              Fmaj7

C                       Eb
They want to disable my system
Em7         Bm7           Bbmaj7      Fmaj7
Looking for traces of a clean hit

Bbmaj7                           Fmaj7 
If the end of the world has ever happened,   this must be it.

Cmaj7          Ebmaj7
I've grown too strong that's what they said
Emaj7   Bm7    Am7   
 For my animal spirit
Bm7              Am7
    It empties me
            D
And now I'm vacant


G                 Bm
Love breaks the machine
             Em                     Bm/F#
Everything's half apart what can it mean
          G                  Bm7
How can I trust my fractious heart
                   Am7         Bm7  Cm7
Knowing I have the enemy gene       Ooooo

G                 Bm
Love breaks the machine
             Em                       Bm/F#
Everything's half in dream how can it be
             G                         Bm7
Everything's born in shame it's not just me
         Am7         
Particle-wave duality

             Cm7         Gm/D
I know we'll never survive
            Eb            
This little victory



G                 Bm
Love breaks the machine
             Em                     Bm/F#
Everything's half apart what can it mean
          G                  Bm7
How can I trust my fractious heart
                   Am7         Bm7  Cm7
Knowing I have the enemy gene       Ooooo

G                 Bm
Love breaks the machine
             Em                       Bm/F#
Everything's half in dream how can it be
             G                         Bm7
Everything's born in shame it's not just me
         Am7         
Particle-wave duality


           Cm7         Gm/D
How can we ever evolve
                  Eb            
When our gods are so primitive
Gb              
They destroy our

G              Bm
Hope for peace     Hope for
Em      Bm/F#
Love    oooo
G      Bm7
Am7    Bm7  Cm7

G            Bm
Em           Bm/F#
G            Bm7
Am7          

Cm7       Gm/D
Eb        Gb

Bb



(0:00) 
Keyboard(drop D, or alternatively play the last note an octave higher)
   Bb  F   Bb  F   C  Eb   Em Bm  Bb  F   Bb  F   C   Eb  Em Bm  Am  Bm  Am  D  
e|-------------------------------------------------------------------------------|
b|-------------------------------------------------------------------------------|
g|-------------------------------------------------------------------------------|
d|---------------------1---2--------------------------1---2----------------------|
a|-1-------1-------3----------2---1-------1-------3----------2---0---2---0-------|
D|-----3-------3----------------------3-------3------------------------------0---|


(0:12)
Flutes
   Bb        F             Bb             F
e|-15--17--20-------15--------13--------------------------|
b|-17--18--20-------17--------15--------------------------|
g|--------------17-------15------------15-15-17-17--------|
d|---------------------------------15--17-17-19-19--------|
a|--------------------------------------------------------|
e|--------------------------------------------------------|

(0:30)
Heavily distorted guitar
  Am7  D
e|----------------------------------------------|
b|----------------------------------------------|
g|----------------------------------------------|
d|----------------------------------------------|
a|--/7-55555555---------------------------------|
e|----------------------------------------------|

(0:46)
Keyboard
   G Bm      Em  Bm/F#   G    Bm7     Am7   
e|---2-----------2------------5-2---5-3-------------|
b|-----3-----------3---5-3--------3-----------------|
g|-------4-2-4-------4------------------------------|
d|--------------------------------------------------|
a|--------------------------------------------------|
e|--------------------------------------------------|
   Cm7  Eb/D  Eb   Gb    Bbmaj7  Fmaj7
e|------------3----2--6--5-\-----------------/12-\---|
b|-4----3-----------------------------------/--------|
g|-----------------------------------5-99-9/---------|
d|-------------------------------5/7-----------------|
a|---------------------------------------------------|
e|---------------------------------------------------|

(1:38)
Organ
   G   Bm  Em7 Bm  G   Bm7 Am7 Bm7 Cm7
e|-3---2---3---2---3---5---8---10--11---|
b|-3---3---3---3---3---7---8---10--11---|
g|-4---4---4---4---4---7---9---11--12---|
d|-------------------------7---9---10---|
a|--------------------------------------|
e|--------------------------------------|



(0:00) 
Keyboard(drop D, or alternatively play the last note an octave higher)
   Bb  F   Bb  F   C  Eb   Em Bm  Bb  F   Bb  F   C   Eb  Em Bm  Am  Bm  Am  D  
e|-------------------------------------------------------------------------------|
b|-------------------------------------------------------------------------------|
g|-------------------------------------------------------------------------------|
d|---------------------1---2--------------------------1---2----------------------|
a|-1-------1-------3----------2---1-------1-------3----------2---0---2---0-------|
D|-----3-------3----------------------3-------3------------------------------0---|


(3:02)
Strings
   G        Bm      Em          Bm        G     Bm7     Am7        Cm7 Gm/D  Eb  Gb      Bbmaj7
e|----------7-----------------------8---7-------5---8---10------8---------8--6----------------|
b|---8--7-------7---8-----8-10--7---10--8---8---7----------------------8----------------------|
g|---9--7---7-------9----9------7---11------7--------------------5-8---7----------------------|
d|--------------9-----------------------------------------------------------------------------|
a|--------------------------------------------------------------------------------------------|
e|--------------------------------------------------------------------------------------------|
Flute
e|--------------------------------------------------------------------------------------------|
b|-------------------------------------------------------------------------------7---9---6----|
g|--------------------------------------------------------------------------------------------|
d|--------------------------------------------------------------------------------------------|
a|--------------------------------------------------------------------------------------------|
e|--------------------------------------------------------------------------------------------|


   Bm/F#
e|-2----|
b|-3----|
g|-4----|
d|-4----|
a|-2----|
e|-2----|

   Gm/D
e|-3----|
b|-3----|
g|-3----|
d|-5----|
a|-5----|
e|------|

This works best in the song if you follow it with this version of Eb
   Eb
e|-3----|
b|-4----|
g|-3----|
d|-5----|
a|-6----|
e|------|

----------------------------------------------------------------

6. Hydra Fancies

G6     G     

D          Gm
 How about you
   D   Gm
My new favourite thing
  D         Gm
I heart you though
      Em            D
Don't know you very well, I really hope

Am     F               Am             Bb
  This summer you will change your pursuits
Bb/C                     F
I throw my guns down for you


D          Gm
 How about you
   D   Gm
My new favourite thing
      D    Gm
Their flashbulbs
Em         D
Burn my irises, still I

Am        F           Am           Bb
  Love to see you up upon your pedestal
Bb/C                   F
I just love to see you win, oh when they


Dm         C#aug
Torture you it's like standing
G             Gm
On a dragon's tongue
F#m           Dmaj7
Ah         oh oh
     Bm                F#m  
They flash your pretty nightmare
       Bm             A            Dmaj7
On the sky when I was playing your card
    A               Bm7
Ah  ah kissing your deaf son
G#7   C#
     Alone


D          Gm
 How about you
   D   Gm
My new favourite thing
     D        Gm
Will you have me in your
Em        D
orbit evermore? I know it's

Am        F              Am         Bb
  Work to cope with my dementia and stuff
Bb/C                     F
I throw my guns down for you


D          Gm
 How about you
   D   Gm
My new favourite thing
  D     Gm
Today I planted some
Em              D
Flowers in your name

Am              F                  Am         Bb
  I'm trying to build a freak flag empire for three, cause
Bb/C                   F
I just love to see you win, when they ex-

Dm      C#aug
periment  I will be-
G           Gm
come your surrogate
F#m           Dmaj7
Ah         oh oh
  Bm              F#m  
I really can't conceive of any
Bm            A         Dmaj7
Balance in my future anyways
    A              Bm7
Ah  ah the coma is poison
G#7   C#
    

D   Gm
D   Gm
D   Gm
Em  D
Am  F  Am Bb
Bb/C
F

D   Gm
D   Gm
D   Gm
Em  D
Am  F  Am Bb
Bb/C
F

Dm      C#aug
G       Gm
F#m     Dmaj7
       Bm                F#m  
You've rattled me, these uncontrollable
Bm        A              Dmaj7
sensory reactions are on infinite defeat
A                  Bm7
   I've so much to tell you
G#7                             C#
  And it can't wait till you're born again




(0:00)
Vocals
   G6           G
e|---------------------10-\----|
b|-8------------12-----12------|
g|-9------------12-----12------|
d|-12-----------12-----12------|
a|-----------------------------|
e|-----------------------------|

(1:00)
Guitar
   Dmaj7             A          Bm       G#7     C#
e|-----------------9-10----9--------------8---11-9-------|
b|------------9-10------10----------------7---9--9-------|
g|-------9-11-----------------------7--6-8---------------|
d|-11-12-------------------------------------------------|
a|-------------------------------------------------------|
e|-------------------------------------------------------|

(2:18)
Keyboard solo
   D       Gm   D  Gm        D     Gm  Em       D
e|-------------------------------------------------14-12\10-----|
b|---7-7-7/8-10\7--3/5-3------/7--/8---8-8-8/10-7-----------12--|
g|------------------------2-------------------------------------|
d|--------------------------------------------------------------|
a|--------------------------------------------------------------|
e|--------------------------------------------------------------|
   Am       F           Am         Bb          Bb/C                    F
e|----------------------12-12-1215--------------------------------------------------------|
b|----13/15-13/15-13/15------------15\13\11---/13-/13-/13-/13-15\13-----------------13-14-|
g|-14---------------------------------------------------------------12-12/14----1414------|
d|----------------------------------------------------------------------------------------|
a|----------------------------------------------------------------------------------------|
e|----------------------------------------------------------------------------------------|

Solo is repeated an octave higher. Pretty much too high for guitar though.



   C#aug
e|-5----|
b|-6----|
g|-6----|
d|------|
a|-4----|
e|------|

   Bb/C
e|-1----|
b|-3----|
g|-3----|
d|------|
a|-3----|
e|------|


-----------------------------------------------------------

7. Like a Tourist

Ebm         Ebm
Ebm         Ebm Abm
Abm          B

Ebm         Ebm
Ebm         Ebm Abm
Abm          B

Ebm                 Ebm
I saw your movie tonight
Ebm                       Ebm   
I thought you were pretty good
Ab                                              B
I'm so happy that you're doing what you want to

Ebm            Ebm
You go to your favourite dark place
Ebm                          Ebm
Think of the auto de fae, unicorns eating baby meat
Ab
There's a dragon rape if you want one
B
One's the loneliest number


Ebm         Ebm
Smoke hood, Melion
Ebm                  Ebm
Female erection, You fetishize the archetype
Ab         
You fetishize the archetype
B


Ebm         Ebm
Ebm         Ebm
Ab          B

F#                     Esus4
Don't  treat me like a tourist let's stay
A          B        D
High, on a negative wave
Bm                               E
And paint it black just like the good times

F#                     Esus4
Don't  treat me like a tourist let's stay
A      B       D
High
Bm                                  E
They break our hearts like it's our birthdays
Ebm              Abm
Soak us in animal blood
Ebm              Abm

Dbm

Ebm         Ebm
I want somebody to frisk me. I want this
Ebm         Ebm
night to distort me
Ab          
But I didn't come here just to see you dancing
B
     No!

Ebm              Ebm
Or to admire you art.  Or try and
Ebm
Cure your androphobic heart
Ab
Anyways I'm crippled inside
B


Ebm         Ebm
Ebm         Ebm
Ab    Abm      B


F#                     Esus4
Don't  treat me like a tourist let's stay
A          B        D
High, on a negative wave
Bm                               E
And paint it black just like the good times


F#                     Esus4
Don't  treat me like a tourist let's stay
A          B       D
Woke, like Pharoah E. Badu
Bm                        E
And paint it feral in our heads again
     Ebm          Abm
Like when we were passengers
Ebm          Abm


F#                     Esus4
Don't  treat me like a tourist let's stay
A      B       D
High
Bm                                  E
They break our hearts like it's our birthdays
Ebm              Abm
Soak us in animal blood
Ebm              Abm

F#         Esus4
A     B    D
Bm         E
Ebm        Abm
Ebm        Abm

F#         Esus4
A     B    D
Bm         E
Ebm        Abm
Ebm        Abm


(0:00)
Bass
g|----------------------------------------------|
d|-12/14-12/14-12/14-12/14--101010h11-----------|
a|----------------------------------------------|
e|----------------------------------------------|


(0:04)
Guitar
   Ebm
e|-1616161616-14-16-14-11---1616161616-14-16-14-11---|
b|-1616161616-14-16-14-11---1616161616-14-16-14-11---|
g|---------------------------------------------------|
d|---------------------------------------------------|
a|---------------------------------------------------|
e|---------------------------------------------------|
   Ebm                             Ab
e|-1616161616-14-16----18--18--18--16-14-16-----|
b|-1616161616-14-16----19--19--19--16-14-16-----|
g|----------------------------------------------|
d|----------------------------------------------|
a|----------------------------------------------|
e|----------------------------------------------|
   Abm                    B
e|-16-------14-16-14-16-----------------|
b|-16--1616-14-16-14-16---16-14---------|
g|------------------------------15-13---|
d|--------------------------------------|
a|--------------------------------------|
e|--------------------------------------|

(1:22)
Guitar
   D                  Bm
e|----------9------------------|
b|----10-12---12-10-9----------|
g|--------------------11-------|
d|-----------------------------|
a|-----------------------------|
e|-----------------------------|

(1:47)
Guitar
e|--------------------|
b|--------------------|
g|-6br-6br-6br-6br----|
d|--------------------|
a|--------------------|
e|--------------------|


(3:17)
Keyboard 1
   F#    Esus4   A   B   D        Bm     E  Ebm   Abm   Ebm    Abm
e|-------------------9----------7-10-----------------------------------|
b|-----7----10-979-----6-7-9-10--------7-9-----------------------------|
g|-6-8---9---------6---------------------------------------------------|
d|---------------------------------------------------------------------|
a|---------------------------------------------------------------------|
e|---------------------------------------------------------------------|
Keyboard 2
e|-------------------------------------------14-------16-14-------16---|
b|---------------------------------------------------------------------|
g|----------------------------------------------15-16-------15-16------|
d|---------------------------------------------------------------------|
a|---------------------------------------------------------------------|
e|---------------------------------------------------------------------|

Keyboard1
   F#      Esus4     A   B    D        Bm     E  Ebm   Abm   Ebm   Abm
e|-------7------12-9-7-9-11-7-----10-9-12---9-7----------------------------|
b|---7-9---10-----------------7-9------------------------------------------|
g|-------------------------------------------------------------------------|
d|-------------------------------------------------------------------------|
a|-------------------------------------------------------------------------|
e|-------------------------------------------------------------------------|
Keyboard 2
e|-----------------------------------------------14-------16-14-------16---|
b|-------------------------------------------------------------------------|
g|--------------------------------------------------15-16-------15-16------|
d|-------------------------------------------------------------------------|
a|-------------------------------------------------------------------------|
e|-------------------------------------------------------------------------|


   Esus4
e|-0----|
b|-0----|
g|-2----|
d|-2----|
a|-2----|
e|-0----|



---------------------------------------------------------------------

8. Sex Karma 


Bm D Bm
Bm D Bm
Bm D Bm
Bm D Em

D      A/C#
C      Em7

D      A/C#
C      Em7

Dmaj7 
       Ok   
Gmaj7                  Dmaj7
I believe we're moving on up.
Gmaj7                  Dmaj7
Your sex karma must be good, cause I'm funny for

B
you, you, you, you
F#m
you, you, you, you
B
F#m


Gmaj7              Dmaj7
Ain't nobody do me better
Gmaj7                 Dmaj7
When you hit me I'm a cloud, baby I'm a cloud

B
cloud, cloud, cloud, cloud
F#m
Cloud, cloud, cloud, cloud
B
F#m


Em                 F#m
I feel my power is flickering, with you it's
G/B                   A/C#
 Strange electronic reactions, yeah

Bm

D
I know that you want to swing
A/C#
run and touch my everything
      C                           Em7
cause I look like a playground to you, player

D
Close your eyes and count to three
     A/C#
I'll kiss you where I shouldn't be
      C                             Em7
Cause you look like a playground to me, player

D                A/C#
 You are my only luxury item
C                            Em7
Anyone try to steal you I'll fight 'em

D
Let's go do some hide'n'seek
  A/C#
I know you are a little freak
      C                             Em7
Cause you look like a playground to me, player

Dmaj7
Dmaj7

Gmaj7                    Dmaj7
I was afraid to call you up
Gmaj7                         Dmaj7
Cause you were really hard to fly on our first try

B
Try, try, try, try
F#m
try, try, try, try
B
F#m

Gmaj7                    Dmaj7
You took me centuires to master
       Gmaj7                    Dmaj7
In the next life I will have to learn you faster

B      F#m
B      F#m

Em                          F#m
I'm not a diamond so you'll flatter, cause
G/B                 A/C#
We're not slaves to physical matter

G/B       A/C#

D
I know that you want to swing
A/C#
Run and touch my everything
      C                           Em7
Cause I look like a playground to you, player


D
Close your eyes and count to three
  A/C#
I kiss you where I shouldn't be
      C                             Em7
Cause you look like a playground to me, player

D                A/C#
 You are my only luxury item
C                              Em7
Anyone tries to steal you I'll fight 'em

D
Let's go play some hide'n'seek
  A/C#
I know you are a little freak
      C                             Em7
Cause you look like a playground to me, player

Dmaj7     Am                            Gmaj7
          You look like a playground to me
Dmaj7     Am                            Gmaj7
You look like a playground to me        You look like a playground to me


Repeat this last part till the end, with some stopping etc.

It just continutes with drums over no particular chord into the next song.



Intro
(0:00)
Keyboard
   Bm  D Bm  Bm D  Bm  Bm D  Bm  Bm D  Em
e|-7--10-7---7--10-7---7--10-7---7--10-12----|
b|-7--10-7---7--10-7---7--10-7---7--10-12----|
g|-7--11-7---7--11-7---7--11-7---7--11-12----|
d|-------------------------------------------|
a|-------------------------------------------|
e|-------------------------------------------|

(0:07) and throughout choruses
Guitar
   D             A/C#          Cmaj7      Em7
e|-10--10----10--9---9-----9---7--7----7------------------|
b|-10--10----10--10--10----10--8--8----8--8--8----8-------|
g|-11--11----11--9---9-----9---9--9----9--7--7----7-------| x2
d|----------------------------------------9--9----9-------|
a|--------------------------------------------------------|
e|--------------------------------------------------------|

(0:23)
Harpsichord
   Dmaj7
e|--------------------|
b|-7-----7---7--------|
g|-6-----6---6--------|
d|-7-----7---7--------|
a|--------------------|
e|--------------------|

When this comes back at (1:41) it is played twice

(0:41)
Guitar
   Gmaj7    Dmaj7   Gmaj7   Dmaj7
e|--------------9\2------------9\2--------|
b|-----10\5------------10\5---------------|
g|----------------------------------------|
d|----------------------------------------|
a|----------------------------------------|
e|----------------------------------------|

(1:05)
Keyboard
   Bm
e|--------------------------------------|
b|----3---3---3---3---3---3---3---3-----|
g|-444-444-444-444-444-444-444-444------|
d|--------------------------------------|
a|--------------------------------------|
e|--------------------------------------|

(1:53)
Strings
   B          F#m         B           F#m
e|-11---------------9-----------11----------12-----|
b|-12----10---------10-----------------------------|
g|-------11---9-----------11----------9-----14-----|
d|------------11----------13----------11-----------|
a|-------------------------------------------------|
e|-------------------------------------------------|

(2:09)
Guitar
   B          F#m          B           F#m
e|------------10-9---10-12-11----------14-------|
b|-12-------10-------------------12-14-----14---|
g|------11--------------------------------------|
d|----------------------------------------------|
a|----------------------------------------------|
e|----------------------------------------------|

(2:25)
Organ
   G/B             A/C#
e|-3---3---3---3---5---5---5---5----|
b|-3---3---3---3---5---5---5---5----|
g|-4---4---4---4---6---6---6---6----|
d|----------------------------------|
a|-2---2---2---2---4---4---4---4----|
e|----------------------------------|

(3:02)
Harpsichord
   Dmaj7      Am         Gmaj7
e|-----------------------------------|
b|-2----2--2--1----1--1--------------|
g|-2----2--2--2----2--2--4----4--4---|
d|-4----4--4--2----2--2--4----4--4---|
a|-5----5--5--0----0--0--5----5--5---|
e|-----------------------3----3--3---|


----------------------------------------------------------------------

9. Girl Named Hello

Ebm
Who's your reggae woman now, do you even know?
Db
I did a line with a girl named hello
Ebm
(ooo)
Db
(just kidding)

Ebm
Who's your reggae woman now, do you even know?
Db
I did a line with a girl named hello
Ebm
(ooo)
Db
(i'm just kidding you)

Ebm        
     Took an overdose 
Db
Didn't do shit 

Ebm
If I treated someone else the way I treat myself
Db
   I'd be in jail
Ebm
If I treated someone else like the way I treat myself
Db
   I'd be in jail

Ebm        Db

Ebm             Db
I'd be in jail
Ebm        
Anyways, boo hoo, the old breakthrough
                       Db
I love you like, being kissed and thank you for the wonderful birthday 


Ebm
Who's your reggae woman now, do you even know?
Db
I did a line with a girl named hello
Ebm
(girl named hello)
Db
(girl named hello)

Ebm
Who's your reggae woman now, do you even know?
Db
I did a line with a girl named hello
Ebm
(girl named hello)
Db
(girl named hello)

Ebm        Db
Ebm
If I treated someone else the way I treat myself
Db
   I'd be in jail
Ebm
If I treated someone else the way I treat myself
Db
   I'd be in jail

Ebm        Db
Ebm        Db
Ebm        Db
Ebm        Db
Ebm        Db
Ebm        Db


till the end.


These riffs are played throughout. The last bass one cuts out for a few repeats at 
(2:40), but comes back.

Guitar 1
   Ebm              Ebm              Db               Db
e|-14--14----14-14--14--14----14-14--13--13----13-13--13--13----13-13--|
b|-16--16----16-16--16--16----16-16--14--14----14-14--14--14----14-14--|
g|-15--15----15-15--15--15----15-15--16--16----16-16--16--16----16-16--|
d|---------------------------------------------------------------------|
a|---------------------------------------------------------------------|
e|---------------------------------------------------------------------|

Guitar 2
   Ebm         Ebm         Db                  Db                     Ebm
e|---11-9-11-9---11-9-11-9------9---------9---------9-------------------|
b|---------------------------11---11-9-11---11-9-11---11-9-11-----------|
g|------------------------------------------------------------10p8------|
d|-----------------------------------------------------------------11-8-|
a|----------------------------------------------------------------------|
e|----------------------------------------------------------------------|

Bass 1
   Ebm                        Ebm
g|-------------------13-15/18-------------------13-15\18---|
d|---16\-11h13-11h13------------16\-11h13-11h13------------|
a|---------------------------------------------------------|
e|---------------------------------------------------------|
   Db                       Db
g|---13\-----------13-15\20---13\-----------15-13-11-------|
d|-------9h11-9h11----------------9h11-9h11----------------|
a|---------------------------------------------------------|
e|---------------------------------------------------------|

Bass 2
   Ebm         Ebm         Db             Db
g|-----------------------------------------------------|
d|-----------------------------------------------------|
a|-----------------------------------------------------|
e|-11----11-11-11----11-11-9-----9--9-----9-----9--9---|



-----------------------------------------------------------------------------

10. Famine Affair

G       Bm
Em
Am      C
G       C
Bm  Em
Am      C

        G
I don't want you anymore
        Bm
I don't love you anymore
    Em
Go away, go away go away go away
         Am         C
You're a bad thing, terrible thing
      G                C
You destroy my head, uncalibrate my skull
    Bm       Em
Go away, go away
         Am         C
You're a bad thing,   useless thing

    G                   Bm
You marginalise me, you sabotage me
   Em
Go away, go away go away go away
         Am             C
You're a bad thing, you horrible thing
  
    G                       C
You steal all my light, you suffocate my life
    Bm       Em
Go away, go away
         Am         C
You're a bad thing,   miserable thing

D
Like a childish demon
Em                      Am
Takes pleasure from its sting

(single notes)
         C        B  A   D
You're a bad thing
C       B  A   D   E  F#  G
Bad thing
C       B    D  A  B  C
Bad thing

(chords)
    D                              C
You act aloof, say that I'll crawl back you must be

Em7       Em9     F#m7b5    C   D  D7  
Sick

Em      C
D       G
Am      C   D

Em                 
 She was my Annie Hall
C
 Or at least Ali McGraw
D
 Now I feel so wiltered
G                 Am
 It's a famine affair
                            C                 D
The whole attempt was shoddy just to put trash in my body

Em      C
D       Cdim7/Eb  Ebdim7/F#

Em                 
He was nostalgic for the ground
     C
Hope down the drain still
D
Flew to your tragedy in a
G                 
Glass-bottom aeroplane
Am                            C                 D
Looping like a retard are you still playing the race card?

Em                                  C
She said you're not boring I'm just bored with you
    D
The psychology behind it is ruthless
G
Wish it weren't true
Am
Wish we weren't so complicated
C                   D
Wish you weren't so medicated

Em      C
D       Cdim7/Eb  Ebdim7/F#


        G
I don't want you anymore
        Bm
I don't love you anymore
    Em
Go away, go away go away go away
         Am         C
You're a bad thing, terrible thing

      G                
You don't let me sleep and when you do it's just
C
Teeth falling out nightmares
    Bm       Em
Go away
         Am         C
You're a bad thing,   useless thing

    G                   B
You marginalise me, you sabotage me
   Em
Go away, go away go away go away
         Am             C
You're a bad thing, you horrible thing
  
            G                      
You've been trying to make me ugly
                C
So you'd have a reason to leave
             Bm                      Em
So you could say you were just like abandoning the ruins
Am             C
Bad thing, you miserable thing

D
Like some childish demon
      Em           Am
Keeps insects on a string

(single notes)
         C        B  A   D
You're a bad thing
C       B  A   D   E  F#  G
Bad thing
C       B    D  A  B  C
Bad thing

(chords)
    D                              C                Em7
You act aloof, say that I'll crawl back you must be sick



Organ (play throughout the verses)

   G    Bm    Em     Am7  Cmaj7 G    C   (Bm) Em     Am7  Cmaj7
e|------10----15-----8----7-------------------15-----8----7----|
b|-12---12----17-----8----8-----12------------17-----8----8----|
g|-12---11----16-----9----9-----12---9--------16-----9----9----|
d|-12---9-----14-----10---10----12---10-------14-----10---10---|
a|-10---------------------------10---10------------------------|
e|-----------------------------------8-------------------------|

(0:11)
Guitar (play again at 0:52)
   G           C            Bm   Em             Am             C
e|-7----7----7-8----8----10-7---------------7h8-----8-----8--------10----10----|
b|----8----8------8----8-------8-10--8----8-----10----10----10/13----13----13--|
g|-------------------------------------9---------------------------------------|
d|-----------------------------------------------------------------------------|
a|-----------------------------------------------------------------------------|
e|-----------------------------------------------------------------------------|

Verse bass
   G       Bm      Em              Am      C
g|----------------------------------------------------|
d|----------------------------------------------------|
a|---------22222222------------------------33333333---|
e|-33333333--------000000000000000055555555-----------|
   G       C       Bm  Em      Am      C
g|------------------------------------------------|
d|------------------------------------------------|
a|---------333333332222----------------33333333---|
e|-33333333------------0000000055555555-----------|

(1:01)
Pre-chorus
   D               Em      Am
g|------------------------------------|
d|------------------------------------|
a|-5555555555555555-------------------|
e|-----------------0000000055555555---|

(1:08)
Chorus guitar (bad thing)
   C  B  A   D   C  B  A  D   E   F#G C  B  D   A  B C D        C
e|-------------------------------------------------------------------|
b|-------------------------------------------------------------------|
g|-----------------------------------------------------11----11-9----|
d|-----------------------------------------------------12----12-10---|
a|-7--5--3--/9---7--5--3--9---22--2-2-7--5--9---3--5-7-12----12-10---|
e|-8--7--5--/10--8--7--5--10--00--2-3-8--7--10--5--7-8-10----10-8----|


Bridge(1:25)
   Em7              Em9      F#mb5
e|-1010101010101010-77777777-8-8-8-8-7-7-7-7-121212127-7-7-7--|
b|-1212121212121212-77777777-10101010101010101010101010101010-|
g|-1212121212121212-99999999-11111111111111111111111111111111-|
d|------------------------------------------------------------|
a|------------------------------------------------------------|
e|------------------------------------------------------------|
   C                Em       D   D7
e|-1010101012121212-15151515-10108-8------------|
b|-1313131313131313-12121212-10101010-----------|
g|-1212121212121212-12121212-11111111-----------|
d|------------------14141414--------------------|
a|----------------------------------------------|
e|----------------------------------------------|

(1:35)
Middle section keyboard
   Em  C   D   G   Am  C D Em  C   D   G   Am  C D
e|---------------------3-----------------------3----|
b|-8---5---7-----------5-7-8---5---7-----------5-7--|
g|-9---5---7---4---5---5-7-9---5---7---4---5---5-7--|
d|-9---5---7---5---7-----7-9---5---7---5---7-----7--|
a|-------------5---7-------------------5---7--------|
e|--------------------------------------------------|
   Em  C   D   Cdim7 Ebdim7
e|-------------------5---|
b|-8---5---7---7-----7---|
g|-9---5---7---8-----8---|
d|-9---5---7---10--------|
a|-----------------------|
e|-----------------------|

Bass
   Em              C               D               G
g|---9---9---9---9---5---5---5---5---7---7---7---7-----------------|
d|---------------------------------------------------5---5---5---5-|
a|-7---7---7---7---3---3---3---3---5---5---5---5-------------------|
e|-------------------------------------------------3---3---3---3---|
   Am              C       D
g|-------------------5---5---7---7-|
d|---7---7---7---7-----------------|
a|-----------------3---3---5---5---|
e|-5---5---5---5-------------------|
   Em              C               D               G
g|---9---9---9---9---5---5---5---5---7---7---7---7-----------------|
d|---------------------------------------------------5---5---5---5-|
a|-7---7---7---7---3---3---3---3---5---5---5---5-------------------|
e|-------------------------------------------------3---3---3---3---|
   Am              C       D
g|-------------------5---5---7---7-|
d|---7---7---7---7-----------------|
a|-----------------3---3---5---5---|
e|-5---5---5---5-------------------|
   Em              C               D               Cdim7   Ebdim7
g|---9---9---9---9---5---5---5---5---7---7---7---7---8---8---11--11--|
d|-------------------------------------------------------------------|
a|-7---7---7---7---3---3---3---3---5---5---5---5---6---6---9---9-----|
e|-------------------------------------------------------------------|


(2:32)
Guitar
   G           Bm              Em                         Am          C
e|-7----7----7----------------------------/10----10----10-8----8----8-7------------|
b|----8----8---10--8-10--8-10\-8----8----8-----8-----8-------------------8-10--8---|
g|--------------------------------9----9---------------------9----9--------------9-|
d|---------------------------------------------------------------------------------|
a|---------------------------------------------------------------------------------|
e|---------------------------------------------------------------------------------|
   G           C            Bm   Em             Am             C
e|-7----7----7-8----8----10-7---------------7h8-----8-----8--------10----10----|
b|----8----8------8----8-------8-10--8----8-----10----10----10/13----13----13--|
g|-------------------------------------9---------------------------------------|
d|-----------------------------------------------------------------------------|
a|-----------------------------------------------------------------------------|
e|-----------------------------------------------------------------------------|
   G           B               Em                         Am          C
e|-7----7----7----------------------------/10----10----10-8----8----8-7------------|
b|----8----8---10--8-10--8-10\-8----8----8-----8-----8-------------------8-10--8---|
g|--------------------------------9----9---------------------9----9--------------9-|
d|---------------------------------------------------------------------------------|
a|---------------------------------------------------------------------------------|
e|---------------------------------------------------------------------------------|
   G           C            Bm   Em             Am             C
e|-7----7----7-8----8----10-7---------------7h8-----8-----8--------10----10----|
b|----8----8------8----8-------8-10--8----8-----10----10----10/13----13----13--|
g|-------------------------------------9---------------------------------------|
d|-----------------------------------------------------------------------------|
a|-----------------------------------------------------------------------------|
e|-----------------------------------------------------------------------------|

(3:16)
Guitar
   Em
e|-(12)~----------|
b|-(12)~----------|
g|-(12)~----------|
d|----------------|
a|----------------|
e|----------------|

Hit the harmonics, then whammy it down and slowly bring it back up.


---------------------------------------------------------------------------

11. Casualty of You

(bass notes)

Dm
Ab      F  Bb
Dm
Ab      F  Bb
Dm
Ab      F  Bb
Dm
Ab      F  Bb

Dm                               G
How could I tolerate looking you in the eyes
    Am             C    Fmaj7
How you've evolved,  no tears at heart

Dm
It's not fair, it shouldn't be like this
    G
You shouldn't be so composed
Fmaj7
 I don't know, should be more awkward

Gm
Hate you for bringing this up
Gm/F                  B         B/C#  Eb  (Ebaug)
Making me feel what I know just isn't true

Dm                        G
You've ruined me you're a terrorist
      Fmaj7       C6      Fmaj7   C6
I'm a casualty of you

Dm
Ab      F  Bb
Dm
Ab      F  Bb

Dm                       G
Your sister called today, I heard the phone ring
Am                  C                Fmaj7
Really why should I answer, she's so critical

Dm                                         Fmaj7
I wasn't surprised to hear her single-word message
          F
Just said stop.

Gm
You stole something from me
          Gm/F                B        B/C#          Eb
Can't say what just know it's gone now everything is wrong

Eb/Db                                 Eb/B
   Everything is wrong, everything is wrong
      Eb/Bb   Eb/Gb    Eb
I'm a casualty      of you




(0:00)
   Dm              Ab      F   Bb
e|---4-4-4-4-5---4---4-4-4-4-5-------|
b|---3-3-3-3---6-----3-3-3-3---5-6---|
g|-----------------------------------|
d|-0---------------------------------|
a|-----------------------------------|
e|-----------------4-------1---6-----|

(0:08)
   Dm           Ab    F  Bb Dm          Ab    F  Bb Dm
g|----------5/7-7-------------------5/7-7--------------|
d|-----------------6-----8-----------------6-----8-----|
a|-5------------------8-----5-----------------8-----5--|
e|-----------------------------------------------------|

(2:31)
Keyboard 
    A    Eb   Eb   Bm   A    Eb
e|--9----3----11---10---9----3-----|
b|--10---4----11---12---10---4-----|
g|--9----3----12---11---9----3-----|
d|---------------------------------|
a|---------------------------------|
e|---------------------------------|



   Gm/F
e|-6----|
b|-8----|
g|-7----|
d|------|
a|-8----|
e|------|

   B/C#
e|-7----|
b|-7----|
g|-8----|
d|-9----|
a|------|
e|-9----|

   Ebaug
e|-7----|
b|-8----|
g|-8----|
d|------|
a|-6----|
e|------|

   C6
e|-0----|
b|-1----|
g|-2----|
d|-2----|
a|-3----|
e|------|

   Eb/Db
e|------|
b|-4----|
g|-3----|
d|-5----|
a|-4----|
e|------|

   Eb/B
e|------|
b|-4----|
g|-3----|
d|-5----|
a|-2----|
e|------|

   Eb/Bb
e|------|
b|-4----|
g|-3----|
d|-5----|
a|-1----|
e|------|

   Eb/Gb
e|------|
b|-4----|
g|-3----|
d|-5----|
a|------|
e|-2----|


------------------------------------------------------------------------------

12. Around the Way


Am    Am
Dm    Am
Dm    Am

Am
You say you just wanna stand there and dim out
Am
Just gonna root there in space
Dm
Sulk cause there ain't nobody really doped about your inventory
Am
Absorb celestial articles from neutral stations
Dm
    From the pain participants and by far mostly
Am
neo-family break strike pattern strike break deface


Em                        G          D
When you get so quiet and depressed, hate it
        C
I drop away again
D/F#       G       D/F#  C
Can't understand I wanna die again
Em 
I'm out here in the swell
        G                   D
Getting fucked up trying to cure you
        C
It's so draining
       D/F#      G       D/F#      C
Really how can I help if you won't talk to me
Bm                                         C
Thought you were around the way not just a cliche

Dm    Am
Dm    Am

Verse in Norwegian


Em                        G          D
When you get so quiet and depressed, hate it
        C
I drop away again
D/F#       G       D/F#  C
Can't understand I wanna die again
Em 
I'm thrashing in the waves
        G                   D
Getting fucked up trying to cure you
        C
It's so draining
D/F#      G       D/F#      C
How can I help if you won't talk to me
Bm                                     C
Thought you were lover friend I'm your friend


Dm    Am
Dm    Am

Am    Am
Dm    Am
Dm    Am

Am    Am
Dm    Am
Dm    Am

Repeat until the weird sounds fade over it



(0:08)
For intro and verses. (near the end of the song, keyboard 2 doesn't play)

Bass 1
   Am              Am              Dm              Am             Dm              Am
g|----------------------------------------------------------------------------------------------|
d|----------------------------------------------------------------------------------------------|
a|----------------------------------------------------------------------------------------------|
e|-5--5----5--5----5--5----5--5----5--5----5--5----5--5----5--5---5--5----5--5----5--5----5--5--|

Bass 2
   Am                    Am                  Dm  
g|--------------------------9---------9---------10--12---10--12---|
d|----10--12----10--12--------1012------1012------12-------12-----|
a|------12--------12----------------------------------------------|
e|----------------------------------------------------------------|
   Am                    Dm                  Am
g|--------------------------10--12----10--9-----------------------|
d|----10--12----10--12--------12--------12------10--12---10--12---|
a|------12--------12------------------------------12-------12-----|
e|----------------------------------------------------------------|


Keyboard 1
   Am               Am              Dm
e|--------8----------------8-------------------------|
b|----10------10-------10------10---------6----------|
g|------9-------9--------9-------9----7--------7-----|
d|--------------------------------------7--------7---|
a|---------------------------------------------------|
e|---------------------------------------------------|
Keyboard 2
e|---------------------------------------------------|
b|---------------------------------------------------|
g|---------------------------------------------------|
d|-b9-------r7------b9------r7-----------------------|
a|---------------------------------------------------|
e|----------------------------------8------b10-------|

Keyboard 1
   Am               Dm              Am
e|--------8--------------------------------8---------|
b|----10------10----------6------------10-------10---|
g|------9-------9-----7--------7---------9--------9--|
d|----------------------7--------7-------------------|
a|---------------------------------------------------|
e|---------------------------------------------------|
Keyboard 2
e|---------------------------------------------------|
b|---------------------------------------------------|
g|---------------------------------------------------|
d|-b9-------r7----------------------b9-------r7------|
a|---------------------------------------------------|
e|------------------8------b10-----------------------|

Chorus (0:51)

Keyboard 1
   Em       G    D      C           D/F# G  D/F# C 
e|----------15-------17----------------------------------------------|
b|-15------------15-----17--15p13---13---15-17-----------------------|
g|-------------------------------------------------------------------|
d|-----------------------------------------------14------------------|
a|-------------------------------------------------------------------|
e|-------------------------------------------------------------------|
Keyboard 2
e|-------------------------------------------------------------------|
b|-15-----------------------------------------------17-15----17-15---|
g|-------------------------------------------------------------------|
d|-------------------------------------------------------------------|
a|-------------------------------------------------------------------|
e|-------------------------------------------------------------------|

Keyboard 1
   Em       G    D      C           D/F# G  D/F# C                   Bm            C
e|----------15-------17---------------------------------------------------14-15-17-----|
b|-15------------15-----17--15p13---13---15-17-------------------------------------17--|
g|-------------------------------------------------------------------------------------|
d|-------------------------------------------------------------------------------------|
a|-------------------------------------------------------------------------------------|
e|-------------------------------------------------------------------------------------|
Keyboard 2
e|-----------------------------------------------------22-24--22--20-19---14-15-17-----|
b|-15------------------------------------------------------------------------------17--|
g|-------------------------------------------------------------------------------------|
d|-------------------------------------------------------------------------------------|
a|-------------------------------------------------------------------------------------|
e|-------------------------------------------------------------------------------------|
Keyboard 2* (since the keyboard 2 frets are only hypothetical for most guitars)
e|-----------------------------------------------------15-17--15--13-12----------------|
b|-------------------------------------------------------------------------------------|
g|-------------------------------------------------------------------------------------|
d|-------------------------------------------------------------------------------------|
a|-------------------------------------------------------------------------------------|
e|-------------------------------------------------------------------------------------|


   D/F#
e|-2----|
b|-3----|
g|-2----|
d|-0----|
a|-0----|
e|-2----|


------------------------------------------------------------------------------

13. You Do Mutilate?


Bbm7                  Ebm7
                      You do
Bbm7                  Fm7
mutilate. We're gonna celebrate our
Ebm7             Ab7
emotional povity. Give the answers

Bbm7      Ebm7
all away.  I painted my suitcase red
Bbm7              Fm7
for the reading.   Which only ended in
Ebm7                Ab7
conversation rape.  Ohhh.

Bbm7           Ebm7
All they want.   Genetic
Bbm7             Fm7
telephonic pills. Until the Spanish kids
Ebm7             Ab7
got so ill I was home-schooling with a knife in my shoe.

Bbm7    Ebm7
            Never seen
Bbm7                 Fm7
corpses act so cruel. The self brutality was
Ebm7           Ab7
oh so angular.   I made them a potion in a

Bbm7           Ebm7
newspaper cup.     Smiled, gave me a shrug
Bbm7                  Fm7
 Said I was a fuck-up. Now I see your face
Ebm7                   Ab7
Selling Chinese urine. Ah oh.


Bbm7     Ebm7
Bbm7     Fm7
Ebm7     Ab7


Bbm   


Ebm               Fdim
She came over the fence
Abdim7           Ebm    Abm/B
With an argument in her head
     Abm
No empathy
Abm6
Escape strategy
Bbm
I understood her

Ebm                       Fdim
We were trying to share a geniune human moment
Abdim7                 Ebm
Just like the way they do in movies

Bbm7     Ebm7
Bbm7     Fm7
Ebm7     Ab7


Bbm7                   Ebm7
I'm in a war with this suicidal depression.
Bbm7                            Fm7
It's not the star I'm trying to call.
          Ebm7                           Ab7
I've been standing on this train for too long, y'all.

Bbm7     Ebm7
             Go ahead.
Bbm7     Fm7
             Go ahead!
Ebm7     Ab7


Bbm7                          Ebm7
Whatcha want, somebody who'll slap away your blindness
Bbm7                              Fm7
  Whatcha want, somebody who would corrupt your heart with too much kindness
Ebm7     
     Salute to your bust-a-rhymeness

Bbm7     Ebm7
Bbm7     Fm7
Ebm7     Ab7

Bbm7     Ebm7
Bbm7     Fm7
Ebm7     Ab7

Bbm Bbm     Bbm

(a lot of weird scratchy noises)

Gm Fm    Eb
Gm Fm    Eb
Gm Fm    Eb
Gm Fm    Eb
Gm Fm    Eb
Gm Fm                              Eb
   I got a black fang in Chcicago, my superwoman licked
Gm Fm                   Eb
         I don't need a refill of this shit, I need something that works motherfucker!


Em                       
I wondered were you flattered
Bb                       
I tried to get you drunk
C                                   Am
  I know you're collecting disciples
C                         Am
  I know you wanna be the godmother of soul-punk

Em
   Someday
Bb 
   Someday
C            Am   C    Am

Em
There are skyscrapers for you Jane
Bb
Never use your given name
C                       Am
I wanna set ya up for a sequel
C                    Am         
  Make you feel like promised people

Em
 I always knew you were special
Bb
 Your best friend told me he saw you crying
C               Am
           Everybody
C                  Am
wants to crescendo.  Take home a memento


Em
Bb
C     Am
C  Am

Am
We tried to isolate
G
XX infinite pleasure XY, yet

C G               Dm     G
I still was their family secret
        C   G           Dm         Em         
A white symptom of some wilderness hate ceremony
Am                         G
Custodian for experimental post-human relationships in fact

   C     G  Dm G       C        G        Dm     Em
We tried to isolate XX infinite pleasure XY ineffectually
Am                            G
Now I know I'm not allowed to show the pain
Am                        G
Not allowed to expose the pain

C G               Dm     G
I still was their family secret
        C   G           Dm         Em         
A white symptom of some wilderness hate ceremony
Am                         G
Custodian for experimental post-human relationships in fact

   C     G  Dm G       C        G        Dm     Em
We tried to isolate XX infinite pleasure XY ineffectually
Am                            G
Now I know I'm not allowed to show the pain
Am                        G
Not allowed to expose the pain


E (just bass for the rest of the song)


All the white people from my neighbourhood are dead.
All the black people have turned pink for the winter.
Everybody's searching for a cause, a reason to blow themselves up.
Could be anything.
When will certain people realise that afterlife is nothing to live for.
Nothing to die for. Nothing to fight for.
If those in this life are not sacred then nothing like a part of it is sacred, even.
If you think God is more important than your neighbour, you're capable of terrible evil.
If you think some prophet's words are more important than your brother, and your 
sister, you're ill.
And you're wrong. You're wrong.





This riff is played at irregular intervals over the first section.
Guitar
   Bbm              Ebm Bbm               Fm
e|----------------------------------------------|
b|------------------6---------------------6-----|
g|---6-6-6-6-6-6-6-b8r-----6-6-6-6-6-6-6-b8r----|
d|----------------------------------------------|
a|----------------------------------------------|
e|----------------------------------------------|



Bridge(1:14)

Guitar
   Ebm   Fdim  Abdim  Ebm Abm/B Abm   Abm6  Bbm   Ebm   Fdim  Abdim Ebm
e|-6-----4-----4------11--7-----4-----4-----6-----6-----4-----4-----6----|
b|-7-----6-----6------11--9-----4-----6-----6-----7-----6-----6-----7----|
g|-8-----7-----4------11--8-----4-----4-----6-----8-----7-----4-----8----|
d|-----------------------------------------------------------------------|
a|-----------------------------------------------------------------------|
e|-----------------------------------------------------------------------|
(there is another guitar strumming these chords, or inversions of them)


Solo (1:36)
Keyboard
   Bbm        Ebm
e|----9-11-13-13p11-9-11-----------------------------------------------------|
b|-11------------------------------------------------------------------------|
g|---------------------------------------------------------------------------|
d|---------------------------------------------------------------------------|
a|---------------------------------------------------------------------------|
e|---------------------------------------------------------------------------|
Guitar
e|---------------------------------------------------------------------------|
b|-------------------------------------9-119----------------------------11---|
g|--------------------66666\10-10--1011------11--8-10--8----81011------------|
d|---------------------------------------------11----------------108-6-------|
a|---------------------------------------------------------------------------|
e|---------------------------------------------------------------------------|


(2:21)
Guitar
   Ebm
e|-------------------------|
b|-13--11--11----11--------|
g|-13--11--11----13b15r----|
d|-------------------------|
a|-------------------------|
e|-------------------------|


(2:24)
Keyboard                                          (vocals)
   Bbm        Ebm          Bbm        Fm           Bbm        Ebm
e|----9-11-13-13p11-9-11------9-11-13-16--------------9-11-13-13\11-9-11----11----|
b|-11----------------------11-----------16-14-16---11---------------------9-------|
g|--------------------------------------------------------------------------------|
d|--------------------------------------------------------------------------------|
a|--------------------------------------------------------------------------------|
e|--------------------------------------------------------------------------------|

****************************************************************

Bass(2:50)
g|---------------------------------------------------------|
d|---------------------------------------------------------|
a|-----------------------------/6--------------------------|
e|-3------1------------------------------------------------|

Weird scratches

These sounds are played irregularly throughout this section

Orchestra hit      Strings (Ebaug)
e|--------|-15---|-7--------------|
b|-10--8--|------|-8--------------|
g|-10--8--|-12---|-8--------------|
d|--------|------|----------------|
a|--------|------|----------------|
e|--------|------|----------------|

(3:01)
Bass 1
g|---------------------------------------------------------|
d|---------------------------------------------------------|
a|-----------------------------/6--------------------------|
e|-3------1------------------------------------------------|
Bass 2
g|---------------------------------13\12-15\13-12\10-8-----|
d|---------------13-15-13-15\17----------------------------|
a|--13-13-13-15--------------------------------------------|
e|---------------------------------------------------------|
Bass 3
g|---------------------------------------------------------|
d|---------------------------------------------------------|
a|---------------------------------------------------------|
e|---------------------------------------------------------|

Bass 1
g|------------------------------------------------------------------|
d|------------------------------------------------------------------|
a|--------------------------------/6--------------------------------|
e|-3----1-----------------------------------------------------------|
Bass 2
g|-------------------------------------------------------15\17/15---|
d|------15-15-15-13------13-------------------13--13--17---------17-|
a|------------------15------15-13--15--13--13-----------------------|
e|------------------------------------------------------------------|
Bass 3
g|--------------------------------------------15--17--20------------|
d|-----------------------------17--17---------17--17--20------------|
a|------------------------------------------------------------------|
e|------------------------------------------------------------------|

Bass 1
g|---------------------------------------------------------|
d|---------------------------------------------------------|
a|-----------------------------/6--------------------------|
e|-3------1------------------------------------------------|
Bass 2
g|---------------------------------------------------------|
d|---------------------------------------------------------|
a|---------------------------------------------------------|
e|---------------------------------------------------------|
Bass 3
g|---------------------------------------------------------|
d|---------------------------------------------------------|
a|---------------------------------------------------------|
e|---------------------------------------------------------|

Bass 1
g|---------------------------------------------------------|
d|---------------------------------------------------------|
a|-----------------------------/6--------------------------|
e|-3------1------------------------------------------------|
Bass 2
g|---------------------------------13\12-15\13-12\10-8-----|
d|---------------13-15-13-15\17----------------------------|
a|--13-13-13-15--------------------------------------------|
e|---------------------------------------------------------|
Bass 3
g|---------------------------------------------------------|
d|---------------------------------------------------------|
a|---------------------------------------------------------|
e|---------------------------------------------------------|

Bass 1
g|------------------------------------------------------------------|
d|------------------------------------------------------------------|
a|--------------------------------/6--------------------------------|
e|-3----1-----------------------------------------------------------|
Bass 2
g|-------------------------------------------------------15\17/15---|
d|------15-15-15-13------13-------------------13--13--17------------|
a|------------------15------15-13--15--13--13-----------------------|
e|------------------------------------------------------------------|
Bass 3
g|--------------------------------------------15--17--20------------|
d|-----------------------------17--17---------17--17--20------------|
a|------------------------------------------------------------------|
e|------------------------------------------------------------------|

Bass 1
g|---------------------------------------------------------|
d|---------------------------------------------------------|
a|-----------------------------/6--------------------------|
e|-3------1------------------------------------------------|
Bass 2
g|---------------------------------------------------------|
d|---------------------------------------------------------|
a|---------------------------------------------------------|
e|---------------------------------------------------------|
Bass 3
g|---------------------------------------------------------|
d|---------------------------------------------------------|
a|---------------------------------------------------------|
e|---------------------------------------------------------|


       *****************************


This part is a bit confusing. The chords run through five times. Basses 1 and 2 play the
same thing each time. Basses 3 and 4 alternate for the first four, then both play in the last.

(3:33)
Bass 1
   Em                    Bb                         C
g|---------------------------------------------------------|
d|---------------------------------------------------------|
a|---------------------------------------------------------|
e|-0---------------0-----6--------------------5-----8------|
Bass 2
g|---------------------------------------------------------|
d|---------1214-12-14-----------------1214-12-14-----------|
a|---101214---------------------101214---------------------|
e|---------------------------------------------------------|
Bass 3
g|-----------------------------------------------12--------|
d|--------------------16-12/14----------------------12/14--|
a|---------------------------------------------------------|
e|---------------------------------------------------------|


Bass 1
                                          Am
g|----------------------------------------------------------|
d|----------------------------------------------------------|
a|----------------------------------------------------------|
e|---------------8-----5-----8------------5-----5-----5-----|
Bass 2
g|----------------------------------------------------------|
d|-------1214-12-14---------------------1214-12-14----------|
a|-101214-------------------------101214--------------------|
e|----------------------------------------------------------|
Bass 3
g|------------------12-14\12-----------------14----16-14-12-|
d|----------------------------------------------------------|
a|----------------------------------------------------------|
e|----------------------------------------------------------|


Bass 1
   Em                    Bb                         C
g|---------------------------------------------------------|
d|---------------------------------------------------------|
a|---------------------------------------------------------|
e|-0---------------0-----6--------------------5-----8------|
Bass 2
g|---------------------------------------------------------|
d|---------1214-12-14-----------------1214-12-14-----------|
a|---101214---------------------101214---------------------|
e|---------------------------------------------------------|
Bass 3
g|---------------------------------------------------------|
d|---------------------------------------------------------|
a|-14------------------------------------------------------|
e|---------------------------------------------------------|
Bass 4
g|--------------------------------------------------12-----|
d|-----------14----14-------------------12----14----10-----|
a|---------------------------------------------------------|
e|---------------------------------------------------------|


Bass 1
                                          Am
g|----------------------------------------------------------|
d|----------------------------------------------------------|
a|----------------------------------------------------------|
e|---------------8-----5-----8------------5-----5-----------|
Bass 2
g|----------------------------------------------------------|
d|-------1214-12-14---------------------1214-12-14----------|
a|-101214-------------------------101214--------------------|
e|----------------------------------------------------------|
Bass 3
g|----------------------------------------------------------|
d|----------------------------------------------------------|
a|----------------------------------------------------------|
e|----------------------------------------------------------|
Bass 4
g|-12------12----------------12---12------14----14----------|
d|-10------10----------------10---10------------------------|
a|----------------------------------------12----12----------|
e|----------------------------------------------------------|


Bass 1
   Em                    Bb                         C
g|---------------------------------------------------------|
d|---------------------------------------------------------|
a|---------------------------------------------------------|
e|-0---------------0-----6--------------------5-----8------|
Bass 2
g|---------------------------------------------------------|
d|---------1214-12-14-----------------1214-12-14-----------|
a|---101214---------------------101214---------------------|
e|---------------------------------------------------------|
Bass 3
g|-----------------------------------------------12--------|
d|--------------------16-12/14----------------------12/14--|
a|---------------------------------------------------------|
e|---------------------------------------------------------|


Bass 1
                                          Am
g|----------------------------------------------------------|
d|----------------------------------------------------------|
a|----------------------------------------------------------|
e|---------------8-----5-----8------------5-----5-----5-----|
Bass 2
g|----------------------------------------------------------|
d|-------1214-12-14---------------------1214-12-14----------|
a|-101214-------------------------101214--------------------|
e|----------------------------------------------------------|
Bass 3
g|------------------12-14\12-----------------14----16-14-12-|
d|----------------------------------------------------------|
a|----------------------------------------------------------|
e|----------------------------------------------------------|


Bass 1
   Em                    Bb                         C
g|---------------------------------------------------------|
d|---------------------------------------------------------|
a|---------------------------------------------------------|
e|-0---------------0-----6--------------------5-----8------|
Bass 2
g|---------------------------------------------------------|
d|---------1214-12-14-----------------1214-12-14-----------|
a|---101214---------------------101214---------------------|
e|---------------------------------------------------------|
Bass 3
g|---------------------------------------------------------|
d|---------------------------------------------------------|
a|-14------------------------------------------------------|
e|---------------------------------------------------------|
Bass 4
g|--------------------------------------------------12-----|
d|-----------14----14-------------------12----14----10-----|
a|---------------------------------------------------------|
e|---------------------------------------------------------|


Bass 1
                                          Am
g|----------------------------------------------------------|
d|----------------------------------------------------------|
a|----------------------------------------------------------|
e|---------------8-----5-----8------------5-----5-----5-----|
Bass 2
g|----------------------------------------------------------|
d|-------1214-12-14---------------------1214-12-14----------|
a|-101214-------------------------101214--------------------|
e|----------------------------------------------------------|
Bass 3
g|----------------------------------------------------------|
d|----------------------------------------------------------|
a|----------------------------------------------------------|
e|----------------------------------------------------------|
Bass 4
g|-12------12----------------12---12------14----14----14----|
d|-10------10----------------10---10------------------------|
a|----------------------------------------12----12----12----|
e|----------------------------------------------------------|


Bass 1
   Em                    Bb                         C
g|---------------------------------------------------------|
d|---------------------------------------------------------|
a|---------------------------------------------------------|
e|-0---------------0-----6--------------------5-----8------|
Bass 2
g|---------------------------------------------------------|
d|---------1214-12-14-----------------1214-12-14-----------|
a|---101214---------------------101214---------------------|
e|---------------------------------------------------------|
Bass 3
g|-----------------------------------------------12--------|
d|--------------------16-12/14----------------------12/14--|
a|---------------------------------------------------------|
e|---------------------------------------------------------|
Bass 4
g|--------------------------------------------------12-----|
d|-----------14----14-------------------12----14----10-----|
a|---------------------------------------------------------|
e|---------------------------------------------------------|


Bass 1
                                          Am
g|----------------------------------------------------------|
d|----------------------------------------------------------|
a|----------------------------------------------------------|
e|---------------8-----5-----8------------5-----5-----5-----|
Bass 2
g|----------------------------------------------------------|
d|-------1214-12-14---------------------1214-12-14----------|
a|-101214-------------------------101214--------------------|
e|----------------------------------------------------------|
Bass 3
g|------------------12-14\12-----------------14----16-14-12-|
d|----------------------------------------------------------|
a|----------------------------------------------------------|
e|----------------------------------------------------------|
Bass 4
g|-12------12----------------12---12------14----14----14----|
d|-10------10----------------10---10------------------------|
a|----------------------------------------12----12----12----|
e|----------------------------------------------------------|



This part is over the bass, and comes in three bursts.

(3:44)
Keyboard
   Em          Bb             C        Am C       Am
e|--------------------------------------------------------|
b|------8-7-5----8-7-5-3--------8-7-5-------8-7-5-3\5-3---|
g|------------------------------------------------------4-|
d|--------------------------------------------------------|
a|--------------------------------------------------------|
e|--------------------------------------------------------|

(4:06)
Keyboard
   Em          Bb            C            Am  C     Am
e|-----10-9----------------------10-9-7----------------|
b|---8-------------------------8-----------------------|
g|-----------------------------------------------------|
d|-----------------------------------------------------|
a|-----------------------------------------------------|
e|-----------------------------------------------------|

(4:17)
Keyboard
   Em            Bb            C                Am  C      Am
e|--------10-9---------10-9-7--------10-9----12------------10-9-7-----|
b|------8------------8-------------8------12-------------8--------5---|
g|--------------------------------------------------------------------|
d|--------------------------------------------------------------------|
a|--------------------------------------------------------------------|
e|--------------------------------------------------------------------|


    

        ***********************************
(5:39)
Bass
   E
g|-----|-----------------------------------------|
d|-----|.---------------------------------------.|
a|-----|.---------------------------------------.|
e|-0---|-0-0-0-----0-0-0----0-0-0-----0-0-0------|

continue till the end


comments
print report bad tab
3 comments total.
0 reply
myoiden_ramre wrote on September 21 2010, 09:19 am

FUCK YES. I saw there was an album tab for False Priest and I was like YEAH! And then I saw that it was by pixiesrule73 and I was like FUCK YEAH! Thanks (wo)man you are the best!

0 reply
fid3l wrote on November 8 2010, 01:09 am

You rule! I wanted to play these songs so badly! Thank you :'D

0 reply
Fiksdal wrote on November 12 2010, 06:05 am

[2] FUCK YES. I saw there was an album tab for False Priest and I was like YEAH! And then I saw that it was by pixiesrule73 and I was like FUCK YEAH! Thanks (wo)man you are the best!

I want to post or [tab]
guest
You may want to rate the tab now too:
select rating
Please do not post tabs as comments. Select "correction" instead!