Oops, an error
Loading. Please wait.

Hissing Fauna Are You The Destroyer Tab

6,802 views 42 this week
2 commentsread comments
1 2 3 4 5
excellent!
x 6
add to favorites launch autoscroll
font size
0
reset
Autoscroll
+/-
esc
set tempo
stop
Contributor
WARNING: You are trying to view
                                    content from Ultimate-Guitar.com
                                    in an unauthorized application,
                                    which is prohibited.

                                    Please use an official Ultimate
                                    Guitar Tabs application for iPhone,
                                    iPad or Android to access legitimate
                                    chords, guitar, bass, and drum tabs
                                    from Ultimate-Guitar.com database.

                                    Type "ultimate guitar tabs" in Apple
                                    App Store's or Android Market's
                                    search to find the application.
of Montreal

Hissing Fauna, are you the Destroyer? (2007) 

1. Suffer for Fashion                                     
2. Sink the Seine                                            
3. Cato as a Pun                                            
4. Heimdalsgate Like a Promethean Curse                    
5. Gronlandic Edit                                        
6. A Sentence of Sorts in Kongsvinger                      
7. The Past Is a Grotesque Animal                          
8. Bunny Ain't No Kind of Rider                            
9. Faberge Falls for Shuggie                              
10. Labyrinthian Pomp                                     
11. She's a Rejecter                                      
12. We Were Born the Mutants Again with Leafling          



all songs tabbed by pixiesrule73

-------------------------------------------------------------------

Suffer for Fashion


B       Emaj7/G#  F#6/A#


B
We just want to emote until we're dead
                                    A
I know we suffer for fashion or whatever
B
We don't want these days to ever end
                                   A
We just want to emasculate them forever

   D    G6
Forever
   D    G6
Forever
       G               D
Pretty sirens don't go flat
            A                    G
It's not supposed to happen like that
         Em     D
Not like that
         G
Not like that
             A
We've got to keep it physical

B              
When our tellies are six hours away
                                                     A
Please call to say that you miss me, feel me, or whatever
B                           
Vicissitudes are boxing our heads
                                        A
Like they just want to emaciate them forever

   D    G6
Forever
   D    G6
Forever
       G               A
Pretty sirens don't go flat
                                 G
It's not supposed to happen like that
         Em     D
Not like that
         G
Not like that


B                            Gm              D    
We've got to keep our little clique clicking at 130 BPM
            G
It's not too slow
         Em                             D
If we've got to burn out, let's do it together
      F#              G
Let's all melt down together
  Bm
Together
            F#m/B     
Let's go together
              Bm
Let's do it together
           F#m/B   A
Let's go together

B               A
B               A

   D     G6
Forever
   D     G6
Forever
       G               D
Pretty sirens don't go flat
            A                    G
It's not supposed to happen like that
         Em     D
Not like that
         G
Not like that


B                            Gm              D    
We've got to keep our little clique clicking at 130 BPM
            G
It's not too slow
         Em                             D
If we've got to burn out, let's do it together
      F#              G
Let's all melt down together
  Bm
Together
            F#m/B     
Let's go together
              Bm
Let's do it together
           F#m/B   A
Let's go together

D



Intro:(0:00)

Guitar
   B            Emaj7/G#  F#6/A#
e|-14-----------------------------|
b|------12------4---------4-------|
g|--------------4---------6-------|
d|-13---13------2---------4-------|
a|--------------------------------|
e|--------------4---------6-------|
Piano
e|--------------------------------|
b|--------------------------------|
g|--------------------------------|
d|--------------------------------|
a|--------------------------------|
e|------7-------------------------|


Verse(0:09)


Guitar 1
   B                                 A
e|------------------------------------------------|
b|------------------------------------------------|
g|-------------------------------------6-66-6-6-6-|
d|---9-99-9--9-99--9---9-99-9-9-9-9-9--7-77-7-7-7-|
a|---9-99-9--9-99--9---9-99-9-9-9-9-9-------------|
e|-777777777777777-7-7777777777777777555555555555-|
Guitar 2
e|-------------------------------------------1717-|
b|-----------------------------------17-1717------|
g|-------------------------------------------1818-|
d|-----------------------------------19-1919------|
a|------------------------------------------------|
e|------------------------------------------------|
Bass
g|---------------------------8866------------6699-|
d|-----99------991111----99------99--77--7799-----|
a|---99--99--99--------99--99------99--77---------|
e|-77------77--------77---------------------------|


Guitar 1
   B                                 A
e|--------------------------------------------|
b|--------------------------------------------|
g|-------------------------------------6-66-6-|
d|---9-99-9--9-99--9---9-99-9-9-9-9-9--7-77-7-|
a|---9-99-9--9-99--9---9-99-9-9-9-9-9---------|
e|-777777777777777-7-777777777777777755555555-|
Guitar 2
e|---------------------------------------1717-|
b|-------------------16-1616-16-1616-1717-----|
g|-16-1616-16-1616---16-1616-16-1616-----1818-|
d|-16-1616-16-1616-------------------1919-----|
a|--------------------------------------------|
e|--------------------------------------------|
Bass
g|---------------------------8866----------66-|
d|-99--99------991111----99------99--77--77---|
a|---99--99--99--------99--99------99--77-----|
e|---------77--------77-----------------------|



Chorus 1(0:26)

Organ
   D                G6               D                G6
e|-10----10------10-12----12------12-10----10------10-12----12------12-|
b|-----10------10-------12------12-------10------10-------12------12---|
g|---11------11-------12------12-------11------11-------12------12-----|
d|---------------------------------------------------------------------|
a|---------------------------------------------------------------------|
e|---------------------------------------------------------------------|
Bass
g|-7----------------------------12---7----------------------------12---|
d|-----7-------7--------9---12-----------7-------7--------9---12-------|
a|---------9--------10-----------------------9--------10---------------|
e|---------------------------------------------------------------------|


Electric guitar
   G        D        A
e|----------------------------|
b|----------------------------|
g|----------------------------|
d|----------77777777----------|
a|-55555555-55555555-77777777-|
e|-33333333----------55555555-|
Keyboard
e|----------------------------|
b|----------------------------|
g|----------------------------|
d|----------44774444-22222222-|
a|-55555555-------------------|
e|----------------------------|
Bass
g|--------------7766-------66-|
d|-55555555---77-----777799---|
a|----------55----------------|
e|----------------------------|


Acoustic guitar
   G                Em       D        G
e|-------------------------------------------------------|
b|-------------------------------------------------------|
g|-------------------------------------------------------|
d|---------------------------7777777-7-------------------|
a|-5555555555555555-22222222-5555555-5--5555555555555555-|
e|-3333333333333333-00000000------------3333333333333333-|
Bass
g|---------77664422-------4/-7777991111-------------4477-|
d|-55555555---------222222--------------555555555555-----|
a|-------------------------------------------------------|
e|-------------------------------------------------------|




Post-chorus

Electric guitar
   A
e|----------|
b|----------|
g|----------|
d|-77--77---|
a|-77--77---|
e|-55--55---|
Bass
g|----------|
d|-77--77---|
a|----------|
e|----------|



Verse 2(0:48)

Same as verse 1 but add this:

Keyboard
   B                         A          B                           A
e|-------14-12-11------12-11------/12-|--------14-12-11-------11-12-------|
b|-12---------------12-------10-------|-12-----------------12-------10----|
g|------------------------------------|-----------------------------------|
d|------------------------------------|-----------------------------------|
a|------------------------------------|-----------------------------------|
e|------------------------------------|-----------------------------------|

Chorus 2(1:05)

Almost the same as chorus one except for this change

(1:12)
Electric guitar
   G        A        A
e|----------------------------|
b|----------------------------|
g|----------------------------|
d|----------------------------|
a|-55555555-77777777-77777777-|
e|-33333333-55555555-55555555-|
Keyboard
e|----------------------------|
b|----------------------------|
g|----------------------------|
d|----------------------------|
a|-55555555-44774477-77774477-|
e|----------------------------|
Bass
g|--------------66-----9966---|
d|-55555555-7777--77-77----77-|
a|----------------------------|
e|----------------------------|


Don't add the post-chorus


Bridge(1:26)

Part 1

Keyboard 1
   B               Gm      D                       G   
e|-----------------14-----------------------------/14--------------|
b|-12--------------------------------------------------------------|
g|-------------------------14--------------11--------------12------|
d|---------------------------------12------------------------------|
a|-----------------------------------------------------------------|
e|-----------------------------------------------------------------|
Keyboard 2
e|-2-----------------------5-------------------2---5-------3-------|
b|-----------------3---------------3-------3-----------------------|
g|----------------------------------------2------------------------|
d|-----------------------------------------------------------------|
a|-----------------------------------------------------------------|
e|-----------------------------------------------------------------|
Keyboard 3
e|-7-7-7-7-7-7-7-7-6-6-6-6-5-5-5-5-----------------7-7-7-7-7-7-7-7-|
b|-7-7-7-7-7-7-7-7-8-8-8-8-7-7-7-7-7-7-7-7-7-7-7-7-8-8-8-8-8-8-8-8-|
g|-8-8-8-8-8-8-8-8-7-7-7-7-7-7-7-7-7-7-7-7-7-7-7-7-7-7-7-7-7-7-7-7-|
d|---------------------------------7-7-7-7-7-7-7-7-----------------|
a|-----------------------------------------------------------------|
e|-----------------------------------------------------------------|
Bass
g|-------------------12------7-------7-----------7---12------12----|
d|---9-------9-----------12------7-------777-9-7---------129-----12|
a|-------9-------9-10--10--5---5---5---5-----------10--10------10--|
e|-7---7---7---7---------------------------------------------------|


Keyboard 1
   Em              D              F#7             G
e|-----------------------------------------------------------------|
b|---------12--------------15--------------14----------------------|
g|-----------------14--------------11----------------------12------|
d|-14---------------------------------------------12---------------|
a|-----------------------------------------------------------------|
e|-----------------------------------------------------------------|
Keyboard 2
e|-3---------------2-----------------------2---------------3-------|
b|-5-------5-------3-------3-------2-------2------3--------3-------|
g|---------4---------------2-------3--------------4----------------|
d|-----------------------------------------------------------------|
a|-----------------------------------------------------------------|
e|-----------------------------------------------------------------|
Keyboard 3
e|-----------------------------------------------------------------|
b|-8-8-8-8-8-8-8-8-7-7-7-7-7-7-7-7-5-5-5-5-5-5-5-5-3-3-3-3-3-3-3-3-|
g|-9-9-9-9-9-9-9-9-7-7-7-7-7-7-7-7-6-6-6-6-6-6-6-6-4-4-4-4-4-4-4-4-|
d|-9-9-9-9-9-9-9-9-7-7-7-7-7-7-7-7-8-8-8-8-8-8-8-8-5-5-5-5-5-5-5-5-|
a|-----------------------------------------------------------------|
e|-----------------------------------------------------------------|
Bass
g|---9-------9---------------11------9-------9---------------------|
d|-------9-------9---12----------12------11------11--12--9-9-12129-|
a|-7---7---7---7---------12----------------9---9---10--10----------|
e|-----------------10--10--10--10--9---9---------------------------|




Part 2(1:40)

Guitar
   Bm                              F#m/B
e|------------------------------------------------------------------|
b|------------------------------------------------------------------|
g|-11--------------------------9------------------------------------|
d|-----------------11----12--------9---------------11---------------|
a|---------------------------------------------------------9--------|
e|------------------------------------------------------------------|
Bass 1
g|-------16---\11--------16---\11--------14---\11--------14---\11---|
d|---1214------------1214------------1214------------1214-----------|
a|-14--------------14--------------14--------------14---------------|
e|------------------------------------------------------------------|
Bass 2
g|-------19---\16--------19---\16--------18---\14--------18---\14---|
d|------------------------------------------------------------------|
a|------------------------------------------------------------------|
e|------------------------------------------------------------------|


Guitar
   Bm                              F#m/B           A                  B(start of solo)
e|------------------------------------------------------------------|----|
b|------------------------------------------------------------------|----|
g|-11--------------------------9------------------------------------|----|
d|-----------------11----12--------9---------------11---------------|-13-|
a|------------------------------------------------------------------|----|
e|------------------------------------------------------------------|----|
Bass 1
g|-------16---\11--------16---\11--------14---\11--11---------------|----|
d|---1214------------1214------------1214------------141412--1214---|----|
a|-14--------------14--------------14-------------------------------|-14-|
e|------------------------------------------------------------------|----|
Bass 2
g|-------19---\16--------19---\16--------18---\14-------------------|----|
d|------------------------------------------------------------------|----|
a|------------------------------------------------------------------|----|
e|------------------------------------------------------------------|----|




Solo(1:53)

Part 1

Keyboard 1
   B                                                  A
e|-7----------------------7-9--5--------------------7\5-------------------|
b|-7----------------------7-7--7--------------------7\5-------------------|
g|------------------------------------------------------------------------|
d|------------------------------------------------------------------------|
a|------------------------------------------------------------------------|
e|------------------------------------------------------------------------|
Keyboard 2
e|----------------------19-------------------------------------------17---|
b|-------------------19----------19-----19----------------19--------------|
g|-19h20-19h20-19h20----------------16----20p18-16----------19p18-16------|
d|------------------------------------------------------------------------|
a|------------------------------------------------------------------------|
e|------------------------------------------------------------------------|



Part 2 (2:01)

Guitar
       B                                   A
e|-8\|-7---7777-7----------7777-7-----------------|
b|-8\|-7---7777-7-99-7-----7777-7-9-7-7-77/10-10--|
g|---|------------99-8------------9-8-8-88/9--9---|
d|---|--------------------------------------------|
a|---|--------------------------------------------|
e|---|--------------------------------------------|


(2:09)
Chorus 1 with this riff added: 

(2:14)
Gutair
   G6
e|-10-9-7-5-7---|
b|--------------|
g|--------------|
d|--------------|
a|--------------|
e|--------------|


(2:31)
Bridge again (don't go to the post-chorus)

End with:

(2:56)
Guitar
   D
e|----------------------|
b|----------------------|
g|----------------------|
d|-12-------------------|
a|----------------------|
e|----------------------|
Bass
g|----------------------|
d|-121212---------------|
a|-------1414141212-----|
e|-----------------10---|




----------------------------------------------------------------

Sink The Seine

D (carried over from Suffer for Fashion)

Gm     Eb      C



F7                           C
You're no different from the prints that crease the wires
F7                    Am    Am/G      Bb        
Or mosquitos that now operate on your brain
                  D7                     Gm
Thought that if I sank the Seine I might find you
Eb        C
  I might find you

F7                        C
I'm no different from the claw they mic from the stair
F7                        Am       Am/G            Bb
Or fake diamonds that are glued to eyes of plastic crows
                       D7                     Gm
Thought that where the planters go, you might find me
Eb           C
   You might find me

Keyboard
   D                 Gm      Eb      C                 F7      C
e|-----------------|-6-6-6-6-------------------------|-5-5-5-5-8-8-8-8-|
b|-----------------|-8-8-8-8-8-8-8-8-5-5-5-5-5-5-5-5-|-4-4-4-4-8-8-8-8-|
g|-----------------|-7-7-7-7-8-8-8-8-5-5-5-5-5-5-5-5-|-5-5-5-5-9-9-9-9-|
d|----------4------|---------8-8-8-8-5-5-5-5-5-5-5-5-|-----------------|
a|-5-(held)--------|---------------------------------|-----------------|
e|-----------------|---------------------------------|-----------------| 
Bass
g|-----------------|---------------------------------|---------5-5-5-5-|
d|-----------------|-5-5-3-3-------------------------|-3-3-3-3---------|
a|-----------------|---------6-6-6-6-3-3-3-3-3-3-3-3-|-----------------|
e|-----------------|---------------------------------|-----------------|

Keyboard
   F7      Am  Am/G Bb       D7
e|-5-5-5-5-9-9-9-9--10101010-8-8-8-8--|
b|-4-4-4-4-10101010-11111111-10101010-|
g|-5-5-5-5-8-8-8-8--10101010-11111111-|
d|------------------------------------|
a|------------------------------------|
e|------------------------------------| 
Bass
g|---------------------------7-7-7-7--|
d|-3-3-3-3-7-7-5-5--8-8-8-8-----------|
a|------------------------------------|
e|------------------------------------|

Keyboard
   Gm      Eb      C             F7      C
e|-6-6-6-6---------------------|-5-5-5-5-8-8-8-8-|
b|-8-8-8-8-8-8-8-8-5-5-5-5-5-5-|-4-4-4-4-8-8-8-8-|
g|-7-7-7-7-8-8-8-8-5-5-5-5-5-5-|-5-5-5-5-9-9-9-9-|
d|---------8-8-8-8-5-5-5-5-5-5-|-----------------|
a|-----------------------------|-----------------|
e|-----------------------------|-----------------| 
Bass
g|-----------------------------|---------5-5-5-5-|
d|-5-5-3-3---------------------|-3-3-3-3---------|
a|---------6-6-6-6-3-3-3-3-3-3-|-----------------|
e|-----------------------------|-----------------|

Keyboard
   F7      Am  Am/G Bb       D7
e|-5-5-5-5-9-9-9-9--10101010-8-8-8-8--|
b|-4-4-4-4-10101010-11111111-10101010-|
g|-5-5-5-5-8-8-8-8--10101010-11111111-|
d|------------------------------------|
a|------------------------------------|
e|------------------------------------| 
Bass
g|---------------------------7-7-7-7--|
d|-3-3-3-3-7-7-5-5--8-8-8-8-----------|
a|------------------------------------|
e|------------------------------------|

Keyboard
   Gm      Eb      C
e|-6-6-6-6-------------|
b|-8-8-8-8-8-8-8-8-5-5-|
g|-7-7-7-7-8-8-8-8-5-5-|
d|---------8-8-8-8-5-5-|
a|---------------------|
e|---------------------| 
Bass
g|---------------------|
d|-5-5-3-3-------------|
a|---------6-6-6-6-3-3-|
e|---------------------|
 
------------------------------------------------------------

Cato As A Pun

Fm       Eb
Fm       Eb
Fm       Eb
Fm       Eb   


Db                 Bbm6
Cato, play with my head
                 F              Ab
I won't know the difference
Db                     Bbm6
If we're living in the novelist 
         F         Ab
Or statistician

Cato, mess with my concepts
My inner vision
Like a strobing light
Please confuse my every decision


Fm    Eb
Fm    Eb
Fm    Eb 
Fm    Eb


I can't even pretend that you are my friend
What has happened to you and I?
And don't say that I have changed
Because, man, of course I have

Are you far too depressed now even to answer the phone?
I guess you just want to
Shave your head, have a drink, and be left alone

Is that too much to ask? 


Fm    Eb
Fm    Eb
Fm    Eb 
Fm    Eb



Intro(0:00)

Guitar 1
   Fm         Eb               Fm               Eb
e|-8----------6----------------8----------------6------------|
b|-9----------8----------------9----------------8------------|
g|-10---------8----------------10---------------8------------|
d|-----------------------------------------------------------|
a|-----------------------------------------------------------|
e|-----------------------------------------------------------|
Guitar 2
e|-----------------------------------------------------------|
b|-----------------------------------------------------------|
g|-------8-10-8-10/12----13-12-13-12-10-10-8-10-10/12--------|
d|-10-------------------------------------------------8-8--/-|
a|-----------------------------------------------------------|
e|-----------------------------------------------------------|
Bass
g|-----------------------------------------------------------|
d|-----------------------------------------6-----------------|
a|-8-------8-6-------------6---8-------------8--6------------|
e|-------8---------------8--8--------------------------------|

(0:09)
Guitar 1
   Fm        Eb             Fm             Eb
e|-8---------6--------------8--------------6--------|
b|-9---------8--------------9--------------8--------|
g|-10--------8--------------10-------------8--------|
d|--------------------------------------------------|
a|--------------------------------------------------|
e|--------------------------------------------------|
GUitar 2
e|--------------------------------------------------|
b|-13----11-9-9\8-----6/8\6-8/9---------------------|
g|----------------------------------8/10\8-10/12----|
d|--------------------------------------------------|
a|--------------------------------------------------|
e|--------------------------------------------------|
Keyboard 1
e|--------------------------------------------------|
b|--------------------------------------------------|
g|--------------------------------------------------|
d|---------------------------------6----------------|
a|-8-------8-6----------6---8-----------8--6--------|
e|-------8------------8---8-------------------------|
Bass
g|--------------------------------------------------|
d|---------------------------------6----------------|
a|-8-------8-6----------6---8-----------8--6--------|
e|-------8------------8---8-------------------------|

(0:19)
Keyboard 1
   Fm         Eb            Fm           Eb
e|-------------------------------------------------|
b|-------------------------------------------------|
g|-------------------------------------------------|
d|---------------------------------10--------------|
a|-11----8-11-10------8-108-11--------11-10--------|
e|-------------------------------------------------|
Keyboard 2
e|-------------------------------------------------|
b|-------------------------------------------------|
g|---------------------------------8---------------|
d|-10----6-10-8-------6-8-6-10--------10-8---------|
a|-------------------------------------------------|
e|-------------------------------------------------|
Bass
g|-------------------------------------------------|
d|---------------------------------6---------------|
a|-8-------8-6----------6---8---------8--6---------|
e|-------8------------8---8------------------------|

(0:28)
Keyboard 1
   Fm                Eb                    Fm                    Eb
e|---------------------------------------------------------------------------------|
b|---------------------------------------------------------------------------------|
g|---------------------------------------------------------------------------------|
d|----------------------------------------------------------10---------------------|
a|-11-----------8-11-10---------------8-108-11-----------------11-10---------------|
e|---------------------------------------------------------------------------------|
Keyboard 2
e|---------------------------------------------------------------------------------|
b|---------------------------------------------------------------------------------|
g|----------------------------------------------------------8----------------------|
d|-10-----------6-10-8----------------6-8-6-10-----------------10-8----------------|
a|---------------------------------------------------------------------------------|
e|---------------------------------------------------------------------------------|
Bass
g|---------------------------------------------------------------------------------|
d|----------------------------------------------------------6----------------------|
a|-8--------------8-6-------------------6---8------------------8--6----------------|
e|--------------8---------------------8---8----------------------------------------|
Guitar 3
e|---------------------------------------------------------------------------------|
b|-13p11--------------13p11-----------------13p11-----------------13p11------------|
g|------10b12--------------10b12-----------------10b12-----------------10b12-------|
d|---------------------------------------------------------------------------------|
a|---------------------------------------------------------------------------------|
e|---------------------------------------------------------------------------------|
Guitar 4
e|-----------------11-----------------11--------------------11---------------------|
b|--------------13-----------------13--------------------13------------------12p10-|
g|---------------------------------------------------------------------------------|
d|---------------------------------------------------------------------------------|
a|---------------------------------------------------------------------------------|
e|---------------------------------------------------------------------------------|


Verse:(0:38)

GUitar
   Db      Bbm6    F       Ab
e|-4-------6-------5-------8-------|
b|-6-------8-------6-------9-------|
g|-6-------6-------5-------8-------|
d|---------------------------------|
a|---------------------------------|
e|---------------------------------|
Piano(w/ echo)
e|---------------------------------|
b|-------------------------1-------|
g|-1-------3-------2-------1-------|
d|-3-------5-------3-------1-------|
a|-4-------4-------3---------------|
e|---------------------------------|


Repeat as necessary. The verses finish on the Bbm6 chord.

(0:38)
Bass
g|-----3------------------------------3---------35------------|
d|---------3---6--------------------------3-3/6---------/888--|
a|-4---------------4-------------134--------------4-----------|
e|---------------------6---1--34----------------------6-------|

(1:12)
Second half of intro (after the solo)

(1:31)
Verse 2

Same but with this variation in the bass
Bass
g|-----3-------------------------------3---------35-------|
d|---------3---6---------------------------3---6------8---|
a|-4--4------------4-------------134--4------------4------|
e|---------------------6---1--34--------------------------|


Outro:

(2:19)
Keyboard 3
   Fm              Eb              Fm              Eb
e|-------------6-8-------------118-------------6-8-------1111-1111-8-8-|
b|-66-66-66-66-----66-66-66-66-----66-66-66-66-----88-88---------------|
g|---------------------------------------------------------------------|
d|---------------------------------------------------------------------|
a|---------------------------------------------------------------------|
e|---------------------------------------------------------------------|
   Fm              Eb              Fm              Eb
e|-------------6-8-------------6-8-------------118-------1111-1111-8-8-|
b|-66-66-66-66-----66-66-66-66-----66-66-66-66-----88-88---------------|
g|---------------------------------------------------------------------|
d|---------------------------------------------------------------------|
a|---------------------------------------------------------------------|
e|---------------------------------------------------------------------|
   Fm              Eb              Fm              Eb
e|-------------6-8-------------6-8-------------6-8-------1111-1111-8-8-|
b|-66-66-66-66-----66-66-66-66-----66-66-66-66-----88-88---------------|
g|---------------------------------------------------------------------|
d|---------------------------------------------------------------------|
a|---------------------------------------------------------------------|
e|---------------------------------------------------------------------|
   Fm              Eb              Fm              Eb
e|-------------6-8-------------118-----------------------1111-1111-8-8-|
b|-66-66-66-66-----66-66-66-66-----66-66-66-66-6-6-88-88---------------|
g|---------------------------------------------------------------------|
d|---------------------------------------------------------------------|
a|---------------------------------------------------------------------|
e|---------------------------------------------------------------------| 
(repeat to fade)

(2:29)
Keyboard 4
   Fm          Eb                  Fm       Eb
e|----------------------------------------8----8-11-8---8---|
b|-----9-----------------------------9------11--------11----|
g|-------10----8---10-8---10-8---------10-------------------|
d|----------10----------------------------------------------|
a|----------------------------------------------------------|
e|----------------------------------------------------------|

    Fm         Eb                 Fm        Eb
e|----------------------------------------8-----------------|
b|-----9-----------------------------9------11--------------|
g|--10---10----8---10-8---10-8---------10-----------8-10----|
d|----------10----------------------------------------------|
a|----------------------------------------------------------|
e|----------------------------------------------------------|

   Fm          Eb                 Fm        Eb            (repeat to fade)
e|----------------------------------------8----8-11-8---8---|
b|-9---------------------------------9------11--------11----|
g|-------10----8---10-8---10-8---------10-------------------|
d|----------10----------------------------------------------|
a|----------------------------------------------------------|
e|----------------------------------------------------------|




---------------------------------------------------------------------------------

Heimdalsgate Like A Promethean Curse

F#m            E        E7
I'm in a crisis, I need help
        A
Come on mood shift,
C             F
Shift back to good again
        Fm
Come on mood shift,
C             F
Shift back to good again
         Bb            B
Come on, be a friend

E       B
E       B   Bb
A       B   Bb
A       B

F#m          B
Nina Twin is trying to help, and I
E                Em/B     Fmaj7/C
Really hope that she   succeeds
F#m
Though I picked
B
The thorny path myself
F#m         B
I'm afraid, afraid of where it leads

E
Chemicals
      B
Don't strangle my pen
E
Chemicals
      B                    Bb
Don't make me sick again
A              F#m                     
I'm always so dubious of your intent
Am                    F
Like I can't afford to replace
G
What you've spent

E   B             E              B
         Come on, chemicals!
              A     B
Come on, chemicals!
              A     B
Come on, chemicals!

F#m          B
Nina Twin is trying to help, and I
E               Em/B    Fmaj7/C
Really hope she gets me straight
F#m             B
'Cause my own inner cosmology
F#m            B
Has become too dense to navigate

E     E
B     Bm
F#m

F#m            E        E7
I'm in a crisis, I need help
        A
Come on mood shift,
C             F
Shift back to good again
        Fm
Come on mood shift,
C             F
Shift back to good again
         Bb           
Come on, be a friend
                     B
Come on, be a friend

2, 3, 4

E
Chemicals
      B
Don't flatten my mind
E
Chemicals
      B               Bb
Don't mess me up this time
A
Know you bait me
F#m
Way more than you should
Am                         F                     G
And it's just like you to hurt me when I'm feeling good

E   B             E              B
         Come on, chemicals!
              A     B
Come on, chemicals!
              A     B
Come on, chemicals!
Come on, chemicals!
Come on, chemicals!
Come on, chemicals!
Come on, chemicals!
Come on, chemicals!
Come on, chemicals!
Come on, chemicals!
Come on, chemicals! 


Intro
(0:04)
Synth
   F#m   F#m E E7 A C F   Fm C F   Bb  B   B
e|-5---|-5---4-4--0-0--------0-----------|------------------|
b|-7---|-7---5-3--2-1-1---1--1-1---3---4-|---4---4--4-4-4-4-|
g|-6-x4|-6---4-4--2-0-2---1--0-2---3---4-|---4---4--4-4-4-4-|
d|-----|--------------3---3----3---3---4-|---4---4--4-4-4-4-|
a|-----|---------------------------------|-2---2---2-2-4-6--|
e|-----|---------------------------------|------------------|


Chorus
(0:26)
Keyboard
   E       B       E       B     BbA       B     BbA       B  
e|-----7---------------7--------------------------------------------|
b|-9---------------9-------------------5-------7-------5---9-7---7--|
g|---9---9-8-9---8---9---9-8-9-------6---6-8-9-------6---6-----9----|
d|-------------9---------------9-8-7-------------8-7----------------|
a|------------------------------------------------------------------|
e|------------------------------------------------------------------|

(0:26)
Keyboard 2
   E             B                 E             B             Bb
e|-----4---4-4---2---2---2-2---2---4---4---4-4---2---2---2-2---1---|
b|-----5---5-5---4---4---4-4---4---5---5---5-5---4---4---4-4---3---|
g|-----4---4-4---4---4---4-4---4---4---4---4-4---4---4---4-4---3---|
d|-----------------------------------------------------------------|
a|-----------------------------------------------------------------|
e|-----------------------------------------------------------------|
Keyboard 3
e|-----------------------------------------------------------------|
b|-----------------------------------------------------------------|
g|-----------------------------------------------------------------|
d|-----------------------------------------------------------------|
a|-----------------------------------------------------------------|
e|-0-------------7-----------------0-------------7-------------6---|
Bass
g|-----------------------------------------------------------------|
d|-----------------------------------------------------------------|
a|-----------------------------------------------------------------|
e|-0---------------7---------------0----------------7----------6---|


Keyboard 2
   A             B             Bb  A             B             
e|-5---5---5-5---2---2---2-2---1---5---5---5-5---2---2---2-2---2---|
b|-5---5---5-5---4---4---4-4---3---5---5---5-5---4---4---4-4---4---|
g|-6---6---6-6---4---4---4-4---3---6---6---6-6---4---4---4-4---4---|
d|-----------------------------------------------------------------|
a|-----------------------------------------------------------------|
e|-----------------------------------------------------------------|
Keyboard 3
e|-----------------------------------------------------------------|
b|-----------------------------------------------------------------|
g|-----------------------------------------------------------------|
d|-----------------------------------------------------------------|
a|-----------------------------------------------------------------|
e|-5-------------7-------------6---5-------------7---------9---11--|
Bass
g|-----------------------------------------------------------------|
d|-----------------------------------------------------------------|
a|-----------------------------------------------------------------|
e|-5---------------7-----------6---5---------------7-------9---11--|


(0:39)
Part 1
Piano (split into bass notes, chords, melody)

Chords
   F#m             B               E               Em/B    Fmaj7/C
e|-5---5---5---5-------------------4---4---4---4-------------------|
b|-7---7---7---7---4---4---4---4---5---5---5---5---0---0---1---1---|
g|-6---6---6---6---4---4---4---4---4---4---4---4---0---0---2---2---|
d|-----------------4---4---4---4-------------------2---2---3---3---|
a|-----------------------------------------------------------------|
e|-----------------------------------------------------------------|
Bass notes 
g|-11----------------------------------1---4-----------------------|
d|-----------------9---------6-4---2-----------2-------------------|
a|-------------11----------------------------------2---2---3---3---|
e|-----------------------------------------------------------------|
Melody
e|-----------------------------------------------------------------|
b|-7-----------5---4-------------------5---5---------------5---5---|
g|---------------------------------------------4---4---4-----------|
d|-----------------------------------------------------------------|
a|-----------------------------------------------------------------|
e|-----------------------------------------------------------------|

Chords
   F#m             B               F#m             B
e|-0---------------------------------------------------------------|
b|-2---2---2---2---4---4---4---4---2---2---2---2---4---4---4---4---|
g|-2---2---2---2---4---4---4---4---2---2---2---2---4---4---4---4---|
d|-4---4---4---4---4---4---4---4---4---4---4---4---4---4---4---4---|
a|-----------------------------------------------------------------|
e|-----------------------------------------------------------------|
Bass notes
g|---------------------1---------------------------------------4---|
d|-------------------------4---2-----------------2-1-------4-------|
a|-4---------------2---------------4---------2-4-------2-----------|
e|-----2---4---5-----------------------2---4-----------------------|
Melody
e|---------7---5---4-----------------------7---4---7---------------|
b|-----7---------------7-------7-------5---------------5---7-------|
g|-6-----------------------6-------6-------------------------------|
d|-----------------------------------------------------------------|
a|-----------------------------------------------------------------|
e|-----------------------------------------------------------------|


Part 2
(0:52)
Keyboard
   E                     B                     E                    B               Bb
e|-------------------------------14-14--------------------------------------14-14-------|
b|-14-14---12-12---14-14-16-16---16-16---16-16-14-14---12-12---14---16-16---16-16---15--|
g|-13-13---13-13---13-13-16-16---16-16---16-16-13-13---13-13---13---16-16---16-16---15--|
d|-14-14---14-14---14-14-16-16-----------16-16-14-14---14-14---14---16-16-----------15--|
a|--------------------------------------------------------------------------------------|
e|--------------------------------------------------------------------------------------|
Piano melody
e|--------------------------------------------------------------------------------------|
b|-------------------------------7-----9-7----------------------------------7-----9-6---|
g|---------6-----7-------------8-----------------------6-----7------------8-------------|
d|----6--9---------6--9-----9---------------------6--9---------6--9----9----------------|
a|-7---------------------9---------------------7--------------------9-------------------|
e|--------------------------------------------------------------------------------------|
Bass
g|--------------------------------------------------------------------------------------|
d|-14------------------------------------13----14---------------------------------------|
a|-----------------------14-----------------------------------------14--------------13--|
e|--------------------------------------------------------------------------------------|

Keyboard
   A                     F#m                   Am                   F           G
e|-----------------------------------------------------12-12--------------------------------|
b|-14-14---14-14---14-14---------14-14---------13-13---13-13---13---13-13-13-13-15-15-15-15-|
g|-14-14---14-14---14-14-14-14---14-14---14-14-14-14---14-14---14---14-14-14-14-16-16-16-16-|
d|-14-14---14-14---14-14-16-16---16-16---16-16-14-14-----------14---15-15-15-15-17-17-17-17-|
a|-----------------------16-16-----------16-16----------------------------------------------|
e|------------------------------------------------------------------------------------------|
Piano melody
e|----------------------------------5----------8-----------------------5-----5-----7-----7--|
b|-5---------------5-----7------------------------------------------6-----6-----8-----8-----|
g|----6----------6----6-----6---------------------------------------------------------------|
d|-------7---------------------7------------------------------------------------------------|
a|------------------------------------------------------------------------------------------|
e|------------------------------------------------------------------------------------------|
Bass
g|-----------------------11--------------13----14-------------------------------------------|
d|------------------------------------------------------------------15----------17----------|
a|-12---------------------------------------------------------------------------------------|
e|------------------------------------------------------------------------------------------|

(1:05)
Chorus

Same as intro chorus

(1:18)
Verse 2

Part 1 of verse 1, then this

(1:30)
Synth
   E       B   Bm  F#m
e|-7---7---2---2---5----|
b|-9---9---4---3---7-x4-|
g|-9---9---4---4---6----|
d|----------------------|
a|----------------------|
e|----------------------|
Synth
   F#m E E7 A C F   Fm C F   Bb              B
e|-5---4-4--0-0--------0-------------------------|
b|-7---5-3--2-1-1---1--1-1---3---3---3---3---4---|
g|-6---4-4--2-0-2---1--0-2---3---3---3---3---4---|
d|--------------3---3----3---3---3---3---3---4---|
a|-----------------------------------------------|
e|-----------------------------------------------|

(2:01)
then part 2 of verse.

(2:13)
Repeat the chorus until the end.

----------------------------------------------------------------------

Gronlandic Edit

E
E
Nihilists with good imaginations
A       E
A       B

E
I am satisfied
Hiding in our friend's apartment
Only leaving once a day
To buy some groceries
A
Daylight, I'm so absent minded
                           E
Nighttime meeting new anxieties
A
So am I erasing myself?
                            B
Hope I'm not erasing myself

  C                 B       B/D#               G
I guess it would be nice to give my heart to a god
    C                D        Bm
But which one, which one do I choose?
        Am                 D       B/D#         G
All the churches fill with losers, psycho or confused
  C            D          C       Am
I just want to hold the divine in mind

    E
And forget all of the beauty's wasted
A                                         E
Let's fall back to earth and do something pleasant
A                                    B
We fell back to earth like gravity's bitches
(Physics makes us all its bitches)

  C                 Bm      B              G
I guess it would be nice to help in your escape
     C             D         Bm
From patterns your parents designed
        Am           D       B/D#          G
All the party people dancing for the indie star
    C              D        C           Am
But he's the worst faker by far, in the set


I forget all of the beauty's wasted

E
I guess it would be nice
Show me that things can be nice
I guess it would be nice
Show me that things can be nice
A
You've got my back in the city
E
You've got my back, because I don't want to panic
A
You've got my back in the city
B
You've got my back, because I don't want to panic 
E

Bass

Intro (0:00)
   E
g|-----9---------------9---------------9---------------9-----------|
d|-----------7-7-9-----------7-7-9-----------7-7-9-----------7-7-9-|
a|-7---------------7-7-------------7-7-------------7-7-------------|
e|-0---------------------------------------------------------------|
   E
g|-----9---------------9---------------9---------------9-----------|
d|-----------7-7-9-----------7-7-9-----------7-7-9-----------7-7-9-|
a|-7-7-------------7-7-------------7-7-------------7-7-------------|
e|-----------------------------------------------------------------|
   A                                E
g|--------------------------------------9---------------9-----------|
d|-----7---------------7----------------------7-7-9-----------7-7-9-|
a|-----------5-5-7-----------5-5-7-/7-7-------------7-7-------------|
e|-5-5-------------5-5--------------0-------------------------------|
   A                                B
g|--------------------------------------------------------------------|
d|-----7---------------7----------------9----------7-----9----------7-|
a|-----------5-5-7-----------5-5-7------------7-7h9------------7-7h9--|
e|-5-5-------------5-5--------------7-7--------------7-7--------------|


Verse 1 (0:32)
   E
g|-----9---------------9---------------9---------------9-----------|
d|-----------7-7-9-----------7-7-9-----------7-7-9-----------7-9-9-|
a|-7-7-------------7-7-------------7-7-------------7-7-------------|
e|-0---------------------------------------------------------------|
  E
g|-----9---------------9---------------9---------------9-----------|
d|-----------7-7-9-----------7-7-9-----------7-7-9-----------7-9-0-|
a|-7-7-------------7-7-------------7-7-------------7-7-------------|
e|-----------------------------------------------------------------|
   A                                E
g|--------------------------------------9---------------9-----------|
d|-----7---------------7---------0------------7-7-9-----------7-9-7-|
a|-----------5-5-7-----------5-7---/7-7-------------7-7-------------|
e|-5-5-------------5-5--------------0-------------------------------|
   A                               B
g|------------------------------------------------------------------|
d|-----7---------------7---------------9---------------9----------0-|
a|-----------5-5-7-----------5-7-------------7-7-9------------7-9---|
e|-5-5-------------5-5-----------5-7-7-------------7-7--------------|

(0:32) and used from the A chord onwards at (1:50) and in full at (2:52)
Piano (large echo)
   E                         A       E     A      B
e|-------------------------------------------------------|
b|---------------------------10------------10------------|
g|-9------9------9-----9-------------9-------------------|
d|------------------------------------------------9------|
a|-------------------------------------------------------|
e|-------------------------------------------------------|


Bridge (1:03)
   C           B            B/D#        G           C           D
g|----------------------------8---8---8---12--12---9-------------------------|
d|---10--10--10---9---9---9---------------------------10--10--10--12--12--12-|
a|--------------------------6---6---6---10--10--10---------------------------|
e|-8---8---8---7---7---7----------------------------8---8---8---10--10--10---|
   Bm                              Am          D           B/D#        G
g|-----------------------------------------------7---7---7---8---8-------12--12--12-|
d|---9---9---9---9---9---9---9---9---7---7---7--------------------------------------|
a|---------------------------------------------5---5---5---6---6---6-/-10--10--10---|
e|-7---7---7---7---7---7---7---7---5---5---5----------------------------------------|
   C           D           C                               Am
g|-----------------------------------------------------------------------------------------|
d|---10--10--10--12--12--12--10--10--10--10--10--10--10--10----7-7-----7-7-----7-7---7-----|
a|---------------------------------------------------------------------------------------5-|
e|-8---8---8---10--10--10--8---8---8---8---8---8---8---8---5-5-----5-5-----5-5-----5---5---|


Verse 2(1:34)
   E
g|-----9---------------9---------------9---------------9-----------|
d|-----------7-7-9-----------7-7-9-----------7-7-9-----------7-7-9-|
a|-7---------------7-7-------------7-7-------------7-7-------------|
e|-0---------------------------------------------------------------|
   E
g|-----9---------------9---------------9---------------9-----------|
d|-----------7-9-9-----------7-7-9-----------7-7-9-----------9---7-|
a|-7-7-------------7-7-------------7-7-------------7-7-------------|
e|-------------------------------------------------0---------------|
   A                                E
g|--------------------------------------9---------------9-----------|
d|-----7---------------7----------------------7-7-9-----------7-7-9-|
a|-----------5-5-7-----------5-7-7-/7-7-------------7-7-------------|
e|-5-5-------------5-5--------------0-------------------------------|
   A                               B
g|------------------------------------------------------------------|
d|-----7---------------7---------------9---------------9----------0-|
a|-----------5-5-7-----------5-7-5-----------7-7-9------------7-9---|
e|-5-5-------------5-5-------------7-7-------------7-7--------------|



Bridge 2(2:06)

Keyboard choir
   C     Bm    B     G     C     D     Bm
e|-------------------3---------------------------------|
b|-5-----3-----4-----3-----5-----7-----3---------------|
g|-5-----4-----4-----4-----5-----7-----4---------------|
d|-5-----4-----4-----------5-----7-----4---------------|
a|-----------------------------------------------------|
e|-----------------------------------------------------|

(2:19)
   Am          D           B/D#        G
g|---------------7---7---7---8---8---8---12--12-----|
d|---7---7---7------------------------------------\-|
a|-------------5---5---5---6---6---6---10--10--10---|
e|-5---5---5----------------------------------------|
   C           D           C                               Am
g|-----------------------------------------------------------------------------------------|
d|---10--10------12--12--10--10--10--10--10--10--10--10--10------7---7---7---7---7---7-----|
a|---------------------------------------------------------------------------------------5-|
e|-8---8---8---10--10------8-------8---8---8---8---8---8---5-5-5---5---5---5---5---5---5---|


Verse 3 (2:36)
   E
g|-----9---------------9---------------9---------------9-----------|
d|-----------7-7-9-----------7-7-9-----------7-7-9-----------7-7-9-|
a|-7---------------7-7-------------7-7-------------7-7-------------|
e|-----------------------------------------------------------------|
   E
g|-----9---------------9---------------9---------------9-----------|
d|-----------7-7-9-----------7-7-9-----------7-7-9-----------7-7-9-|
a|-7-7-------------7-7-------------7-7-------------7-7-------------|
e|-0---------------------------------------------------------------|
   E
g|-----9---------------9---------------9---------------9-----------|
d|-----------7-7-9-----------7-7-9-----------7-7-9-----------7-7-9-|
a|-7-7-------------7-7-------------7-7-------------7-7-------------|
e|-0---------------------------------------------------------------|
   E
g|-----9---------------9---------------9---------------9-----------|
d|-----------7-7-9-----------7-7-9-----------7-7-9-----------7-7-9-|
a|-7-7-------------7-7-------------7-7-------------7-7-------------|
e|-0---------------------------------------------------------------|
   A                                E
g|--------------------------------------9---------------9-----------|
d|-----7---------------7----------------------7-7-9-----------7-7-9-|
a|-----------5-5-7-----------5-5-7-/7-7-------------7-7-------------|
e|-5-5-------------5-5--------------0-------------------------------|
   A                               B                                E
g|--------------------------------------------------------------------------|
d|-----7---------------7---------------9---------------9--------------------|
a|-----------5-5-7-----------5-5-7-----------6-6-9------------7-7-9-7-7-(/8)|
e|-5-5-------------5-5-------------7-7-------------7-7----------------------|







-----------------------------------------------------------------------------------

A Sentence Of Sorts In Kongsvinger


F         C
F         C
F         C
F         C
C

F         C
F         C
F         C
F         C


Dm                        G                     C
I spent the winter on the verge of a total breakdown 
                F
While living in Norway
C#                  A                  C#
I felt the darkness of the black metal bands
Dm               G
But being such a fawn of a man 
         C                 F
I didn't burn down any old churches
     G             Am         G
Just slept way too much, just slept

          F
My mind rejects the frequency
            
It's static craziness to me
        C
Is it a solar fever?
       F
The TV man is too loud
            
Our plane is sleeping on a cloud
             C
You turn the dial, I'll try and smile
            F
We've eaten plastic weather
This family sticks together
        C
We will escape from the south to the west side
          F
My mind rejects the frequency
                            C
It's just verbosity to me

Dm                         G
I spent the winter with my nose buried in a book
      C                        F
While trying to restructure my character
C#               A                   C#
Because it had become vile to its creator
Dm                        G
And through many dreadful nights
                   C                     F
I lay praying to a saint that nobody has heard of
    G                Am            G
And waiting for some high times to come again

          F
My mind rejects the frequency
            
It's static craziness to me
        C
Is it a solar fever?
       F
The TV man is too loud
            
Our plane is sleeping on a cloud
             C
You turn the dial, I'll try and smile
            F
We've eaten plastic weather
This family sticks together
        C
We will escape from the south to the west side
          F
My mind rejects the frequency
                            C
It's just verbosity to me

Dm       
Gm          Dm            G#dim7
  Dirty old shadows stay away
                Am
Don't play your games with me
Fm           Am
  I am older now I see
Ebm            Gm
   The way you operate
Dm             Gm               C             
  If you don't hurt me then you die,  om, om

          F
My mind rejects the frequency
            
It's static craziness to me
        C
Is it a solar fever?
       F
The TV man is too loud
            
Our plane is sleeping on a cloud
             C
You turn the dial, I'll try and smile
            F
We've eaten plastic weather
This family sticks together
        C
We will escape from the south to the west side
          F
My mind rejects the frequency
                            C
It's just verbosity to me


Intro part 1
(0:00)
Keyboard 1
   F                               C
e|-10----8---------10----8----10-8-8----------------|
b|-10------10------10------10------8----------------|
g|--------------------------------------------------|
d|--------------------------------------------------|
a|--------------------------------------------------|
e|--------------------------------------------------|
Keyboard 2
e|-8---------------8--------------------------------|
b|---------10--------------10--8--------------------|
g|-10----9-10------10----9-10------9------------7---|
d|------------------------------------------10------|
a|--------------------------------------------------|
e|--------------------------------------------------|
Keyboard 3
e|-8-----8-----8-8-8-----8----10-1012-12-15-12------|
b|---------10--------------10-----------------------|
g|--------------------------------------------------|
d|--------------------------------------------------|
a|--------------------------------------------------|
e|--------------------------------------------------|
Bass
g|--------------------------------------------------|
d|--------------------------------------------------|
a|/8-\\---------------------------------------------|
e|--------------------------------------------------|

Keyboard 1
   F                               C
e|-10----8---------10----8----10-8-8----------------|
b|-10------10------10------10------8----------------|
g|--------------------------------------------------|
d|--------------------------------------------------|
a|--------------------------------------------------|
e|--------------------------------------------------|
Keyboard 2
e|-8---------------8--------------------------------|
b|---------10--------------10--8----------------8---|
g|-10----9-10------10----9-10------9--------10------|
d|--------------------------------------------------|
a|--------------------------------------------------|
e|--------------------------------------------------|
Keyboard 3
e|-8-----8-----8-8-8-----8----10-1012-12-15-12------|
b|---------10--------------10-----------------------|
g|--------------------------------------------------|
d|--------------------------------------------------|
a|--------------------------------------------------|
e|--------------------------------------------------|

Keyboard 1
   F                               C
e|-10----8---------10----8----10-8-8-----------12---|
b|-10------10------10------10------8----------------|
g|--------------------------------------------------|
d|--------------------------------------------------|
a|--------------------------------------------------|
e|--------------------------------------------------|
Keyboard 2
e|-8---------------8--------------------------------|
b|---------10--------------10--8--------------------|
g|-10----9-10------10----9-10------9--------7-------|
d|---------------------------------------------10---|
a|--------------------------------------------------|
e|--------------------------------------------------|
Keyboard 3
e|-8-----8-----8-8-8-----8----10-1012-12-15-12------|
b|---------10--------------10-----------------------|
g|--------------------------------------------------|
d|--------------------------------------------------|
a|--------------------------------------------------|
e|--------------------------------------------------|

Keyboard 1
   F                               C
e|-10----8---------10----8----10-8-------------|
b|-10------10------10------10------------------|
g|---------------------------------------------|
d|---------------------------------------------|
a|---------------------------------------------|
e|---------------------------------------------|
Keyboard 2
e|-8---------------8---------------------------|
b|---------10--------------10--8---------------|
g|-10----9-10------10----9-10------------------|
d|---------------------------------------------|
a|---------------------------------------------|
e|---------------------------------------------|
Keyboard 3
e|-8-----8-----8-8-8-----8----10-10------------|
b|---------10--------------10------------------|
g|---------------------------------------------|
d|---------------------------------------------|
a|---------------------------------------------|
e|---------------------------------------------|
Keyboard 4
e|---------------------------------10----------|
b|---------------------------------10----------|
g|---------------------------------------------|
d|---------------------------------------------|
a|---------------------------------------------|
e|---------------------------------------------|

(0:22)
Bass
   C
g|-----5---5--------------5---5--------------5---5--------------5---5----------|
d|----------------5h7----------------5h7----------------5h7----------------5h7-|
a|-3--3---3----7------3--3---3----7------3--3---3----7------3--3---3----7------|
e|-----------------------------------------------------------------------------|


Intro part 2
(0:29)
Keyboard 1
            F                             C
e|----------------------------------------8---------5-------------|
b|----8-6-5-6-5p6-8--8-6-5-6-5p6-8--8-6-5----5/8--8----5----------|
g|--------------------------------------------------------7-5-----|
d|----------------------------------------------------------------|
a|----------------------------------------------------------------|
e|----------------------------------------------------------------|
            F                             C
e|----------------------------------------8------------8--888888888-|
b|----8-6-5-6-5p6-8--8-6-5-6-5p6-8--8-6-5----5/8--8-10--------------|
g|------------------------------------------------------------------|
d|------------------------------------------------------------------|
a|------------------------------------------------------------------|
e|------------------------------------------------------------------|
            F                             C
e|----------------------------------------8---------5-------------|
b|----8-6-5-6-5p6-8--8-6-5-6-5p6-8--8-6-5----5/8--8----5----------|
g|--------------------------------------------------------7-5-----|
d|----------------------------------------------------------------|
a|----------------------------------------------------------------|
e|----------------------------------------------------------------|
            F                             C
e|----------------------------------------8------------8--888888888-|
b|----8-6-5-6-5p6-8--8-6-5-6-5p6-8--8-6-5----5/8--8-10--------------|
g|------------------------------------------------------------------|
d|------------------------------------------------------------------|
a|------------------------------------------------------------------|
e|------------------------------------------------------------------|

(0:29)
Keyboard 2
        F                            C         F                            C
e|---12-10---8-8-----10---8-8--10--8-8---------10---8-8-----10---8-8--10--8-8-------|
b|----------------------------------------------------------------------------------|
g|----------------------------------------------------------------------------------|
d|----------------------------------------------------------------------------------|
a|----------------------------------------------------------------------------------|
e|----------------------------------------------------------------------------------|
        F                            C         F                            C
e|---12-10---8-8-----10---8-8--10--8-8---------10---8-8-----10---8-8--10--8-8-------|
b|----------------------------------------------------------------------------------|
g|----------------------------------------------------------------------------------|
d|----------------------------------------------------------------------------------|
a|----------------------------------------------------------------------------------|
e|----------------------------------------------------------------------------------|

(0:29)
Piano
   F                       C               F                       C
e|-----------------------------------------------------------------------------|
b|---------------------------------5---8---------------------------------5---8-|
g|-5--7-----7--5--7-----7--5---------------5--7-----7--5--7-----7--5-----------|
d|-----7-----------7---------------------------7-----------7-------------------|
a|-----------------------------------------------------------------------------|
e|-----------------------------------------------------------------------------|
   F                       C               F                       C
e|-----------------------------------------------------------------------------|
b|---------------------------------5---8---------------------------------------|
g|-5--7-----7--5--7-----7--5---------------5--7-----7--5--7-----7--5-----------|
d|-----7-----------7---------------------------7-----------7-------------------|
a|-----------------------------------------------------------------------------|
e|-----------------------------------------------------------------------------|

(0:29)
Guitar
   F        C                       F           C
e|--------------------------------------------------------------------|
b|------------/8---5----/8---5--------------------/8--5----/8---5-----|
g|-------------------------------7--5-------------------------------7-|
d|--------------------------------------------------------------------|
a|--------------------------------------------------------------------|
e|--------------------------------------------------------------------|
   F        C                       F           C                       Dm (of verse)
e|--------------------------------------------------------------------------|
b|------------/8---5----/8---5--------------------/8--5----/8---5-----------|
g|-5-----------------------------7--5-------------------------------7---5---|
d|--------------------------------------------------------------------------|
a|--------------------------------------------------------------------------|
e|--------------------------------------------------------------------------|

(0:29)
Bass
   F                                     C
g|-------------------------------------------5---5--------------5---5----------|
d|-----3---3--------------3---3-------------------------5h7----------------5h7-|
a|----------------3h5----------------3h5-3--3---3----7------3--3---3----7------|
e|-1--1---1----5------1--1---1----5--------------------------------------------|  x 4


(1:02)
Verse 1
Keyboard (each chord is repeated with delay)
   Dm    G7    C      F     C#    A     C#    Dm    G7    C     F     G7    Am    G7
e|-5------------------------------------------5-----------------------------8----------|
b|-6-----6-----8------------------5-----6-----6-----6-----8-----------6-----10----6----|
g|-7-----7-----9------5-----6-----6-----6-----7-----7-----9-----5-----7-----9-----7----|
d|-------9-----10-----7-----6-----7-----6-----------9-----10----7-----9-----------9----|
a|--------------------8-----8-----------------------------------8----------------------|
e|-------------------------------------------------------------------------------------|

(1:02)
Bass
   Dm          G           C            F              C#           A           C#
g|-7--5--4--2------------------------5------------------------------------6--------------------|
d|-------------5--3--2------------5-----7-7-----7-7-------3--6--3/6-7--------7--6-6-----6-6----|
a|----------------------5--3--/7------------8-------8--4---------------7------------8-------8--|
e|---------------------------------------------------------------------------------------------|
   Dm          G           C            F              G              Am             G
g|7--5--4--2------------------------5------------------4-4---4-4--7---5-5---5-5--9---4-4---4-4--7|
d|------------5--3--2------------5-----7-7-----7-7----5-5-5---5------7-7-7---7------5-5-5---5----|
a|---------------------5--3--/7------------8-------8---------------------------------------------|
e|-----------------------------------------------------------------------------------------------|



(1:30)
Chorus
The chorus is the same as the second half of the intro, with this riff added.

(1:34)
Keyboard
   C                  F      C                  F
e|-----------8-10-12-------------------8-10-12---------|
b|------8-10----------------------8-10-----------------|
g|----9-------------------------9----------------------|
d|-10------------------------10------------------------|
a|-----------------------------------------------------|
e|-----------------------------------------------------|
   C                  F      C                  
e|-----------8-10-12--------------------------|
b|------8-10----------------------8-10--------|
g|----9-------------------------9-------------|
d|-10------------------------10---------------|
a|--------------------------------------------|
e|--------------------------------------------|


(2:02)
Verse 2 - Same as Verse 1

(2:30)
Chorus

(3:02)
Bridge

Keyboard 1(w/echo)
   Dm    Gm       Dm        G#dim7    Am        Fm          Am
e|-13----6--------13--------10--------12--------8-----------12----------|
b|-15----8--------15--------12--------13--------9-----------13----------|
g|-14----7--------14--------13--------14--------10----------14----------|
d|----------------------------------------------------------------------|
a|----------------------------------------------------------------------|
e|----------------------------------------------------------------------|
Keyboard 2
e|--------------------10------7-8--10-8------------------10-12-15-------|
b|---------6-8-10-8-6-10-10-9-9-10-12-10-10-------9-1113-12-13-17-13----|
g|---------7-9-10-9-7----10--------------9--9-----101213----------14----|
d|----------------------------------------------------------------------|
a|----------------------------------------------------------------------|
e|----------------------------------------------------------------------|

Keyboard 1
   Ebm        Gm        Dm          Gm          C7    
e|-11---------10--------5-----------10----------12-----------|
b|-11---------11--------6-----------11----------13-----------|
g|-11---------12--------7-----------12----------15-----------|
d|-----------------------------------------------------------|
a|-----------------------------------------------------------|
e|-----------------------------------------------------------|
Keyboard 2
e|---------11-10--------------------10-------10--------------|
b|------11-10-11-11-----------10----11-11----11--------------|
g|---11-11-------12-12--------10-10----12-12-----------------|
d|---13-------------12-----12----12-------12-----------------|
a|-------------------------12--------------------------------|
e|-----------------------------------------------------------|

(3:30)
Chorus x 2 (second chorus is slightly shortened)

(4:28)
Intro part 1

with this added at the end

(4:46)
Bass
   F               C
g|---------------------------|
d|---------------------------|
a|-----3-3-5-5-7-7-3---------|
e|---------------------------|
Piano
e|---------------------------|
b|---------------------------|
g|-----------------5---------|
d|-----------------5---------|
a|---------------------------|
e|---------------------------|


-----------------------------------------------------------------------------------

The Past Is A Grotesque Animal

Gm						    Bb
The past is a grotesque animal and in it's eyes you see
			     Dm
How completely wrong you can be
                             F
How completely wrong you can be
    Gm
The sun is out it melts the snow that fell yesterday
          Bb            Dm
Makes you wonder why it bothered


  F
I fell in love with the first cute girl that I met
	    Gm
who could appreciate George Bataille
Bb			                                  Dm
Standing at a Swedish festival discussing the "story of the eye"
                             F
Discussing the "story of the eye"


Gm
It's so embarrassing to need someone like I do you
	    Bb				       Dm
How can I explain I need you here and not here too
				      F
How can I explain I need you here and not here too


Gm
I'm flunking out I'm gone I'm just gone
       Bb                             Dm
But at least I author my own disaster
          			   F
At least I author my own disaster


Gm
Performance breakdown and I don't want to hear it
              Bb
I'm just not available
				      Dm
Things could be different but they're not
                                      F
Things could be different but they're not
          Gm
The mousy girl screams "violence! violence!"

The mousy girl screams "violence! violence!"
	   Bb
She gets hysterical
				       Dm
Cause they're both so mean and it's my favorite scene
	F 						 Gm
But the cruelty's so predictable it makes you sad on the stage
                                          Bb
Though our love project has so much potential
                         
But it's like we weren't made for this world
         Dm                                           F
Though I wouldn't really want to meet someone who was


	     Gm
Do I have to scream in your face?
                            Bb
I've been dodging lamps and vegetables

Throw it all in my face
        Dm
I don't care

Let's just have some fun
		          F
Let's tear this shit apart

Let's tear the fucking house apart
                                   Gm
Let's tear our fucking bodies apart
			     Bb
Let's just have some fun


Dm
Somehow you've red rovered the gestapo circling my heart
    F
And nothing can defeat you no death no ugly world
Gm
You've lived so brightly you've altered everything
  Bb
I find myself searching for old selves
				   Dm                            F    Gm
While speeding forward through the plate glass of maturing cells

                  Bb
I've played the unraveler the parhelion
         Dm                                F
But even Apocalypse is fleeting there's no death no ugly world
            Gm
Sometimes I wonder if you're mythologizing me like I do you
              Bb
Mythologizing me like i do you
                       Dm
We want our film to be beautiful not realistic
                   F
Perceive me in the radiance of terror dreams
                      Gm
And you can betray me
        Bb
You can
 
You can betray me

Dm
Teach me something wonderful
                                      F
Crown my head crowd my head with your lilting effects

Project your fears on to me I need to view them
Gm
See there's nothing to them
				      Bb
I promise you there's nothing to them
                                            Dm
I'm so touched by your goodness you make me feel so criminal
           F                                       Gm
How do you keep it together? I'm all all unraveled
                Bb
But you know no matter where we are we're always touching by underground wires

(solo)

Dm
I've explored you with the detachment of an analyst
    F
But most nights we've raided the same kingdoms
Gm
And none of our secrets are physical
                        Bb
None of our secrets are physical
Bb				 Dm
None of our secrets are physical now

Dm      F     Gm     Bb
Dm      F     Gm     Bb
Dm      F     Gm     Bb
Dm      F     Gm     Bb
Dm      F     Gm     Bb

repeat till the end



(0:00)
Synths
e|-------------------------------|
b|-------------------------------|
g|-------------------------------|
d|----------------7--------------|
a|-5-------8------5-------3------|
e|-3-------6--------------1------|


(0:26)
Bass
   Gm                              Bb
g|------------------------------------------------------------------|
d|-55555555555555555555555555555555---------------------------------|
a|------------------------------------------------------------------|
e|---------------------------------66666666666666666666666666666666-|
   Dm                              Fmaj7
g|------------------------------------------------------------------|
d|---------------------------------33333333333333333333333333333333-|
a|-55555555555555555555555555555555---------------------------------|
e|------------------------------------------------------------------|

The guitar riff that is maintained throughout goes like this:

   Gm
e|-----------------------------------------------------------------|
B|/3-3-------------3-3-------------3-3-------------3-3-------------|
G|-----0-0-------------0-0-------------0-0-------------0-0---------|
D|---------5-5-0-0---------5-5-0-0---------5-5-0-0---------5-5-0-0-|
A|-----------------------------------------------------------------|
E|-----------------------------------------------------------------|
   Bb
e|-----------------------------------------------------------------|
B|-----------------------------------------------------------------|
G|-0-0-3-3---------0-0-3-3---------0-0-3-3---------0-0-3-3---------|
D|---------3-3-0-0(0)------3-3-0-0(0)------------------------------|
A|-----------------------------------------5-5-1-1(1)------5-5-3-3-|
E|-----------------------------------------------------------------|
   Dm
e|-----------------------------------------------------------------|
B|-----------------------------------------------------------------|
G|-0-0-2-2---------0-0-2-2---------0-0-2-2---------0-0-2-2---------|
D|---------3-3-0-0(0)------3-3-0-0(0)------3-3-0-0(0)------3-3-0-0-|
A|(3)--------------------------------------------------------------|
E|-----------------------------------------------------------------|
   Fmaj7
e|-----------------------------------------------------------------|
B|-1-1-------------1-1-------------1-1-------------1-1-------------|
G|-----2-2-------------2-2-------------2-2-------------2-2---------|
D|(0)------2-2-------------2-2-------------2-2-------------2-2-----|
A|-------------3-3(3)----------3-3(3)----------3-3(3)----------3-3-|
E|-----------------------------------------------------------------|

This is two guitars tabbed for one. The notes in brackets are played,
but if you are trying to play both at the same time it's better to leave
them out.


(8:10)
Solo

Keyboard
       Dm                               F
e|------------131517--15--13-----13--15------------------------------------------------|
b|---1315--------------------15-------------15--17-----------------------1513----------|
g|-14-----------------------------------14---------14--12--14-15--14--12------15--1412-|
d|-------------------------------------------------------------------------------------|
a|-------------------------------------------------------------------------------------|
e|-------------------------------------------------------------------------------------|
   Gm                         Bb                                          Dm
e|--------------------------------------------------------------------------------|
b|--------------------15----------------------------------------------------------|
g|-10--12--14-----14--------1214--12--14-----15--14-12--14--15-14--12--10---------|
d|------------12-------------------------12-------------------------------12------|
a|--------------------------------------------------------------------------------|
e|--------------------------------------------------------------------------------|


-----------------------------------------------------------------------------------

Bunny Ain't No Kind Of Rider




C     
Saw her at Go kissing girls, what a shock
           F
Said, "You must be an artist"
    G
She muttered her reply
                                Bb          C
I was judging her friend as the DJ played a dead jam

C#dim                             Em
No one wants to dance, they're outside
        C
Smoking cigarettes
F 
Matthew was there, yes
   G   
He gave me the eye, saying, "It doesn't kill to try"
     Bb
Then blue lights all around

E        G#                  E
Eva, I'm sorry, but you will never have me
             A                    
To me you're just some faggy girl
    F#m                 E           C#m  B
And I need a lover with soul power
                     A        
And you ain't got no soul power

E        G#                  E
Eva, I'm sorry, but you will never have me
             A
To me you're just some faggy girl
    F#                  E    C#m   B
And I need a lover with soul power
                     A           F#  E
And you ain't got no soul power

    C
She lead me outside to the church with the swing
        F
There I was, her confessor
    G
Her come-on made me blush
Was her crush for the night
Until I screamed:
Am    N.c.               D
"Stop! Hey! You must be aware I'm not alone
           Em              Am
I've got a tigress back at home
      Bm                                       C
And besides, you wouldn't know what to do with me"
    Bb
And under the blue lights you see them gossiping gossiping gossiping

Eva, I'm sorry, but you will never have me
To me you're just some faggy girl
And I need a lover with soul power
And you ain't got no soul power 

Eva, I'm sorry, but you will never have me
To me you're just some faggy girl
And I need a lover with soul power
And you ain't got no soul power 

(0:00)
Crazy weird noises for the intro


Intro:(0:23)
Bass 1   
g|----------------------------|
d|-10-10-12-12----------------|
a|----------------------------|
e|----------------------------|
Bass 2                      
g|-19-19-17-17-14-------------|
d|----------------------------|
a|----------------------------|
e|----------------------------|
Bass 3
g|----------------------------|
d|-------------19-17h19-17/14-|
a|----------------------------|
e|----------------------------|
Repeat this a lot.



(0:49)
Keyboard
e|--------------------------------|
b|--------------------------------|
g|--------------------------------|
d|-2--------2-------0-------------|
a|-3--------1-------1-------------|
e|--------------------------------|
Bass 1
g|--------------------14----------|
d|------------888888-----15151515-|
a|--------------------------------|
e|--------------------------------|


Verse 1(0:55)
Keyboard
   C
e|------------------------------------------|
b|------------------------------------------|
g|------------------------------------------|
d|-2----------------------------------------|
a|-3----------------------------------------|
e|------------------------------------------|
Bass
g|-------9-9-------9-9-------9-9-------9-12-|
d|-10-10-----10-10-----10-10-----10-10------|
a|------------------------------------------|
e|------------------------------------------|

Keyboard
   F
e|-------------------------------------------------|
b|-------------------------------------------------|
g|-2-----------------------------------------------|
d|-3-----------------------------------------------|
a|-------------------------------------------------|
e|-------------------------------------------------|
Bass
g|-------------------------------------------------|
d|-10-10-12-12-10-10-12-12-10-10-12-12-10-10-12-12-|
a|-------------------------------------------------|
e|-------------------------------------------------|

Keyboard
   G                                       Bb        C
e|--------------------------------------------------------------|
b|--------------------------------------------------------------|
g|-4------------------------------------------------------------|
d|-5---------------------------------------0---------2----------|
a|-----------------------------------------1---------3----------|
e|--------------------------------------------------------------|
Bass
g|-----12-12-----12-12-----12-12-----12-12-----10-10----------9-|
d|-9-9-------9-9-------9-9-------9-9-------8-8-------10-10-12---|
a|--------------------------------------------------------------|
e|--------------------------------------------------------------|

Guitar   |Keyboard
   C#aug | Em                  C
e|-9-----|--------------------------------------------------|
b|-8-----|--------------------------------------------------|
g|-9-----|--------------------------------------------------|
d|-------|-2-------------------2----------------------------|
a|-------|-2-------------------3----------------------------|
e|-------|--------------------------------------------------|
Bass                           |          |   |
g|-------|-----9-9s11-11-------|------9-9-|---|-------12-12-|
d|-------|---------------12-12-|10-10-----|-x7|-10-10-------|
a|-------|---------------------|----------|---|-------------|
e|-------|-0-0-----------------|----------|---|-------------|

Keyboard
   F                       G
e|-----------------------------------------------------------------|
b|-----------------------------------------------------------------|
g|-2-----------------------4---------------------------------------|
d|-3-----------------------5---------------------------------------|
a|-----------------------------------------------------------------|
e|-----------------------------------------------------------------|
Bass
g|-----------------------------12-12-----12-12-----12-12-----12-12-|
d|-10-10-12-12-10-10-12-12-9-9-------9-9-------9-9-------9-9-------|
a|-----------------------------------------------------------------|
e|-----------------------------------------------------------------|

Keyboard
   Bb
e|-------------------------------------------|
b|-------------------------------------------|
g|-------------------------------------------|
d|-0-----------------------------------------|
a|-1-----------------------------------------|
e|-------------------------------------------|
Bass
g|---------------------------------151517s19-|
d|-----------------1515151515151515----------|
a|-8888888888888888--------------------------|
e|-------------------------------------------|



Pre-Chorus(1:32)

Bass 1
   E               G#                      E
g|---------------------------------------------------------------------------|
d|---------------------------------------------------------------------------|
a|-7-7-7-7-7-7-7-7/11-11-11-11-11-11-11-11-7-7-7-7-7-7-7-7-7-7-7-7-7--7--7-7-|
e|---------------------------------------------------------------------------|
Bass 2
g|---------------------------------------------------------9-9-8-8-----------|
d|-9-9-9-9-9-9-9-9/13-13-13-13-13-13-13-13-9-9-9-9-9-9-9-9---------11-11-9-9-|
a|---------------------------------------------------------------------------|
e|---------------------------------------------------------------------------|
Guitar
e|---------------------------------------------------------------------------|
b|---------------------------------------------------------------------------|
g|---------------------------------------------------------------------------|
d|---------------------------------------------------------------------------|
a|---------------------------------------------------------------------------|
e|-4-4-4-4-4-4-4-4/8--8--8--8--8--8--8--8--4-4-4-4-4-4-4-4-4-4-4-4-4--4--4-4-|

Bass 1
   A                       F#m                     E           C#m   B
g|------------------------------------------------------------------------------------------|
d|------------------------------------------------------------------------------------------|
a|------------------------------------------------------------------------------------------|
e|-5--5--5--5--5--5--5--5--2--2--2--2--2--2--2--2--0-0-0-0-0-0-9--9--7--7--7--7--7--7--9--7-|
Bass 2
g|------------------------------------------------------------------------------------------|
d|-14-14-14-14-14-14-14-14-11-11-11-11-11-11-11-11-9-9-9-9-9-9------------------------------|
a|-------------------------------------------------------------11-11-9--9--9--9--9--9--11-9-|
e|------------------------------------------------------------------------------------------|
Guitar
e|------------------------------------------------------------------------------------------|
b|------------------------------------------------------------------------------------------|
g|------------------------------------------------------------------------------------------|
d|------------------------------------------------------------------------------------------|
a|------------------------------------------------------------------------------------------|
e|/9--9--9--9--9--9--9--9--5--5--5--5--5--5--5--5--4-4-4-4-4-4/12-12-11-11-11-11-11-11-12-\-|

Bass 1
   A
g|-----------------------------------------------------------------------|
d|-----------------------------------------------------------------------|
a|-----------------------------------------------------------------------|
e|-5--5--5--5--5--5--5--5--5--5--5--5--5--5--5--5--5-5--5--5--5--5--5--5-|
Bass 2
g|-----------------------------------------------------------------------|
d|/14-14-14-14-14-14-14-14-11-11-11-11-11-11-11-11---14-14-14-14-14-14---|
a|-----------------------------------------------------------------------|
e|-----------------------------------------------------------------------|
Guitar
e|-----------------------------------------------------------------------|
b|-----------------------------------------------------------------------|
g|-----------------------------------------------------------------------|
d|-----------------------------------------------------------------------|
a|-----------------------------------------------------------------------|
e|-9--9--9--9--9--9--9--9-\5--5--5--5--5--5--5--5----9--9--9--9--9--9--\-|



Chorus (1:51)
Guitar
   E                 G#                  E 
e|-----7-------7---------8---------8---------7-------7-------------------|
b|-----9-------9---------9---------9---------9-------9-------------------|
g|-----9-------9---------8---------8---------9-------9-------------------|
d|-----------------------------------------------------------------------|
a|-----------------------------------------------------------------------|
e|-----------------------------------------------------------------------|
Bass 1
g|-----------------------------8-8-----------------------9-9-8-8-6-6-----|
d|-----6-6-9-9-11-11\6-6-10-10-----10-10-----6-6-9-9-6-6-------------9-9-|
a|-7-7-----------------------------------7-7-----------------------------|
e|-----------------------------------------------------------------------|
Bass 2
g|-----------------------------------------------------------------------|
d|-----------------------------------------------------------------------|
a|-----------------------------------------------------------------------|
e|-0-----------------4-------------------0-------------------------------|


Guitar
   A                   F#              E             C#m   B
e|-------9---------9-------9-------9-------7---------9---------7---------7----|
b|-------10--------10------11------11------9---------9---------7---------7----|
g|-------9---------9-------11------11------9---------9---------8---------8----|
d|----------------------------------------------------------------------------|
a|----------------------------------------------------------------------------|
e|----------------------------------------------------------------------------|
Bass 1
g|-11-11-9-9-------------------6-6---------------9-9-----------8-8-11-11-8/11-|
d|-----------11-11-7-7-4-4-8-8-----8-8---------------11-11-9-9----------------|
a|-------------------------------------7-7-11-11------------------------------|
e|----------------------------------------------------------------------------|
Bass 2
g|----------------------------------------------------------------------------|
d|----------------------------------------------------------------------------|
a|----------------------------------------------------------------------------|
e|-5-------------------2---------------0-------------9-----7------------------|

Guitar
   A               F#              E
e|-----5-------5-------6-------6-------7-------7---------7-----------7----|
b|-----5-------5-------7-------7-------9-------9---------9-----------9----|
g|-----6-------6-------6-------6-------9-------9---------9-----------9----|
d|------------------------------------------------------------------------|
a|------------------------------------------------------------------------|
e|------------------------------------------------------------------------|
Bass 1
g|-----6---9-6---6---------6-6-----------------------9-9-11-11-11h13-13---|
d|-7-7---7-----7---4-4-8-8-----8-8-----6-6-9-9-11-11----------------------|
a|---------------------------------7-7------------------------------------|
e|------------------------------------------------------------------------|
Bass 2
g|------------------------------------------------------------------------|
d|------------------------------------------------------------------------|
a|------------------------------------------------------------------------|
e|-5---------------2---------------0--------------------------------------|


(2:04)
Keyboard (over the chorus)
   E           C#m  B                      A
e|-----------------------------11-11----11-----9----9--9----9--|
b|-----9---9-9-----------------12-12----12-----10---10-10---10-|
g|-----9---9-9--------13-11-11-------11----9-9----9-------9----|
d|---9---9-----11-9------------------------7-------------------|
a|-7-----------------------------------------------------------|
e|-------------------------------------------------------------|
   F#                      E
e|-----------------------------7---7-9---7---7---7-9-9-9---|
b|-------11----11-11----11-----9---9-9---9---9---9-9-9-9---|
g|-------11----11-11----11-----9---9-9---9---9---9-9-9-9---|
d|-11-11----11-------11------------------------------------|
a|-9-----------------------7-----------7-------7---7-------|
e|---------------------------------------------------------|


Verse 2(2:15)
Keyboard
   C
e|-------------------------------------------------|
b|-------------------------------------------------|
g|-------------------------------------------------|
d|-2-----------------------------------------------|
a|-3-----------------------------------------------|
e|-------------------------------------------------|
Bass
g|-------------------------------------------------|
d|-10-10-10-10-10-12-10-12-10-10-10-10-10-12-10-12-|
a|-------------------------------------------------|
e|-------------------------------------------------|

Keyboard
   F
e|-------------------------------------------------|
b|-------------------------------------------------|
g|-2-----------------------------------------------|
d|-3-----------------------------------------------|
a|-------------------------------------------------|
e|-------------------------------------------------|
Bass
g|-------------------------------------------------|
d|-10-10-10-10-10-12-10-12-10-10-10-10-10-12-10-12-|
a|-------------------------------------------------|
e|-------------------------------------------------|

Keyboard
   G
e|-------------------------------------------------|
b|-------------------------------------------------|
g|-4-----------------------------------------------|
d|-5-----------------------------------------------|
a|-------------------------------------------------|
e|-------------------------------------------------|
Bass
g|-----------------------12-12-12-12-12-14-12------|
d|----------------9-12-/----------------------14\--|
a|-10-10-10-10-10----------------------------------|
e|-------------------------------------------------|

Bridge (2:27)
Guitar
   Am              D               Em      Am      
e|-5---------------2---------------7-------5--------|
b|-5---------------3---------------8-------5--------|
g|-5---------------2---------------9-------5--------|
d|-7---------------0--------------------------------|
a|--------------------------------------------------|
e|--------------------------------------------------|
Bass
g|---------------------------------9---9------------|
d|\7---------------------------------------10--10---|
a|--------------------------------------------------|
e|-----------------10-------------------------------|

Guitar
   Bm
e|-2----------------------------------------|
b|-3----------------------------------------|
g|-4----------------------------------------|
d|------------------------------------------|
a|------------------------------------------|
e|------------------------------------------|
Bass
g|---------9---11-----------------/12--14---|
d|-----------------9------------------------|
a|-----9--------------9---12----------------|
e|-10--------------------------10-----------|


Guitar                       Keyboard
   C                         Bb
e|-------------------------|-------------------------------------------------|
b|---5-------5-------5-----|-------------------------------------------------|
g|-------5-------5-------5-|-------------------------------------------------|
d|-5---5---5---5---5---5---|-0-----------------------------------------------|
a|-------------------------|-1-----------------------------------------------|
e|-------------------------|-------------------------------------------------|

g|---------------------------15-15-15-15-15-15-15-15-15-15-15-15-17-17s19-19-|
d|---------------------------------------------------------------------------|
a|-----------------------/10-------------------------------------------------|
e|-8-8-8-6-8-8-8-8-8-8-8-----------------------------------------------------|


Pre-Chorus (2:49)

Bass 1
   E               G#                      E
g|---------------------------------------------------------------------------|
d|---------------------------------------------------------------------------|
a|-7-7-7-7-7-7-7-7/11-11-11-11-11-11-11-11-7-7-7-7-7-7-7-7-7-7-7-7-7--7--7-7-|
e|---------------------------------------------------------------------------|
Bass 2
g|---------------------------------------------------------9-9-8-8-----------|
d|-9-9-9-9-9-9-9-9/13-13-13-13-13-13-13-13-9-9-9-9-9-9-9-9---------11-11-9-9-|
a|---------------------------------------------------------------------------|
e|---------------------------------------------------------------------------|
Guitar
e|---------------------------------------------------------------------------|
b|---------------------------------------------------------------------------|
g|---------------------------------------------------------------------------|
d|---------------------------------------------------------------------------|
a|---------------------------------------------------------------------------|
e|-4-4-4-4-4-4-4-4/8--8--8--8--8--8--8--8--4-4-4-4-4-4-4-4-4-4-4-4-4--4--4-4-|

Bass 1
   A                       F#m                     E           C#m   B
g|------------------------------------------------------------------------------------------|
d|------------------------------------------------------------------------------------------|
a|------------------------------------------------------------------------------------------|
e|-5--5--5--5--5--5--5--5--2--2--2--2--2--2--2--2--0-0-0-0-0-0-9--9--7--7--7--7--7--7--9--7-|
Bass 2
g|------------------------------------------------------------------------------------------|
d|-14-14-14-14-14-14-14-14-11-11-11-11-11-11-11-11-9-9-9-9-9-9------------------------------|
a|-------------------------------------------------------------11-11-9--9--9--9--9--9--11-9-|
e|------------------------------------------------------------------------------------------|
Guitar
e|------------------------------------------------------------------------------------------|
b|------------------------------------------------------------------------------------------|
g|------------------------------------------------------------------------------------------|
d|------------------------------------------------------------------------------------------|
a|------------------------------------------------------------------------------------------|
e|/9--9--9--9--9--9--9--9--5--5--5--5--5--5--5--5--4-4-4-4-4-4/12-12-11-11-11-11-11-11-12-\-|

Bass 1
   A
g|-----------------------------------------------------------------------|
d|-----------------------------------------------------------------------|
a|-----------------------------------------------------------------------|
e|-5--5--5--5--5--5--5--5--5--5--5--5--5--5--5--5--5-5--5--5--5--5--5--5-|
Bass 2
g|-----------------------------------------------------------------------|
d|/14-14-14-14-14-14-14-14-11-11-11-11-11-11-11-11---14-14-14-14-14-14---|
a|-----------------------------------------------------------------------|
e|-----------------------------------------------------------------------|
Guitar
e|-----------------------------------------------------------------------|
b|-----------------------------------------------------------------------|
g|-----------------------------------------------------------------------|
d|-----------------------------------------------------------------------|
a|-----------------------------------------------------------------------|
e|-9--9--9--9--9--9--9--9-\5--5--5--5--5--5--5--5----9--9--9--9--9--9--\-|



Chorus (3:10)
Guitar
   E                 G#                  E 
e|-----7-------7---------8---------8---------7-------7-------------------|
b|-----9-------9---------9---------9---------9-------9-------------------|
g|-----9-------9---------8---------8---------9-------9-------------------|
d|-----------------------------------------------------------------------|
a|-----------------------------------------------------------------------|
e|-----------------------------------------------------------------------|
Bass 1
g|-----------------------------8-8-----------------------9-9-8-8-6-6-----|
d|-----6-6-9-9-11-11\6-6-10-10-----10-10-----6-6-9-9-6-6-------------9-9-|
a|-7-7-----------------------------------7-7-----------------------------|
e|-----------------------------------------------------------------------|
Bass 2
g|-----------------------------------------------------------------------|
d|-----------------------------------------------------------------------|
a|-----------------------------------------------------------------------|
e|-0-----------------4-------------------0-------------------------------|


Guitar
   A                   F#              E             C#m   B
e|-------9---------9-------9-------9-------7---------9---------7---------7----|
b|-------10--------10------11------11------9---------9---------7---------7----|
g|-------9---------9-------11------11------9---------9---------8---------8----|
d|----------------------------------------------------------------------------|
a|----------------------------------------------------------------------------|
e|----------------------------------------------------------------------------|
Bass 1
g|-11-11-9-9-------------------6-6---------------9-9-----------8-8-11-11-8/11-|
d|-----------11-11-7-7-4-4-8-8-----8-8---------------11-11-9-9----------------|
a|-------------------------------------7-7-11-11------------------------------|
e|----------------------------------------------------------------------------|
Bass 2
g|----------------------------------------------------------------------------|
d|----------------------------------------------------------------------------|
a|----------------------------------------------------------------------------|
e|-5-------------------2---------------0-------------9-----7------------------|

Guitar
   A               F#              E                       C#m   B
e|-----5-------5-------6-------6-------7-------7-----------9---------7---------7----|
b|-----5-------5-------7-------7-------9-------9-----------9---------7---------7----|
g|-----6-------6-------6-------6-------9-------9-----------9---------8---------8----|
d|----------------------------------------------------------------------------------|
a|----------------------------------------------------------------------------------|
e|----------------------------------------------------------------------------------|
Bass 1
g|-----6---9-6---6---------6-6-----------------------11-11-----------8-8-11-11-8/11-|
d|-7-7---7-----7---4-4-8-8-----8-8-----6-6-9-9-11-11-------11-11-9-9----------------|
a|---------------------------------7-7----------------------------------------------|
e|----------------------------------------------------------------------------------|
Bass 2
g|----------------------------------------------------------------------------------|
d|----------------------------------------------------------------------------------|
a|----------------------------------------------------------------------------------|
e|-5---------------2---------------0-----------------------9-----7------------------|

Guitar
   A               F#              E                       C#m   B
e|-----5-------5-------6-------6-------7-------7-----------9---------7---------7----|
b|-----5-------5-------7-------7-------9-------9-----------9---------7---------7----|
g|-----6-------6-------6-------6-------9-------9-----------9---------8---------8----|
d|----------------------------------------------------------------------------------|
a|----------------------------------------------------------------------------------|
e|----------------------------------------------------------------------------------|
Bass 1
g|-----6---9-6---6---------6-6-----------------------11-11-----------8-8-11-11-8/11-|
d|-7-7---7-----7---4-4-8-8-----8-8-----6-6-9-9-11-11-------11-11-9-9----------------|
a|---------------------------------7-7----------------------------------------------|
e|----------------------------------------------------------------------------------|
Bass 2
g|----------------------------------------------------------------------------------|
d|----------------------------------------------------------------------------------|
a|----------------------------------------------------------------------------------|
e|-5---------------2---------------0-----------------------9-----7------------------|

Guitar
   A               F#              E
e|-----5-------5-------6-------6-------7-------7---------7-----------7----|
b|-----5-------5-------7-------7-------9-------9---------9-----------9----|
g|-----6-------6-------6-------6-------9-------9---------9-----------9----|
d|------------------------------------------------------------------------|
a|------------------------------------------------------------------------|
e|------------------------------------------------------------------------|
Bass 1
g|-----6---9-6---6---------6-6-----------------------9-9-11-11-11h13-13---|
d|-7-7---7-----7---4-4-8-8-----8-8-----6-6/9-9/11-11----------------------|
a|---------------------------------7-7------------------------------------|
e|------------------------------------------------------------------------|
Bass 2
g|------------------------------------------------------------------------|
d|------------------------------------------------------------------------|
a|------------------------------------------------------------------------|
e|-5---------------2---------------0--------------------------------------|

(3:21)
Keyboard (over the chorus)
   E           C#m  B                      A                   F#
e|-----------------------------11-11----11-----9----9--9----9--------------------------|
b|-----9---9-9-----------------12-12----12-----10---10-10---10-------11----11-11----11-|
g|-----9---9-9--------13-11-11-------11----9-9----9-------9----------11----11-11----11-|
d|---9---9-----11-9------------------------7-------------------11-11----11-------11----|
a|-7-----------------------------------------------------------9-----------------------|
e|-------------------------------------------------------------------------------------|
   E           C#m  B                      A                   F#
e|-----------------------------11-11----11-----9----9--9----9--------------9---------|
b|-----9---9-9-----------------12-12----12-----10---10-10---10-------11---------11---|
g|-----9---9-9--------13-11-11-------11----9-9----9-------9----------11---------11---|
d|---9---9-----11-9------------------------7-------------------11-11----11---11------|
a|-7-----------------------------------------------------------9---------------------|
e|-----------------------------------------------------------------------------------|
   E
e|-------------------------------|
b|-------9-------9---------------|
g|---9-------9---------9---------|
d|-------------------9-----------|
a|-7-------------------------7-7-|
e|-------------------------------|





-----------------------------------------------------------------------------------

Faberge Falls For Shuggie



D      G      A      G
D      G      A      G

F#

F#
Those with the golden axe have tried to tell me
(What they say)
That the bird in my chest was dead
But that's never, never, never

She ain't my thug no more, ain't no kind of killer
And she can break them off if she damn well pleases 
Just as long as she brings it home to me
(And it's still hot)

Can you touch what I'm saying?
It's like, oh, did Shuggie do it yet?
(No, not yet, wait)

Those with the golden axe have tried to tell me
(Tell you what?)
That the sex in my walk was cotton soft
But that's never, never, never

D          G           A         G
D          G           A         G

F#
With question marks in my eye
And your strange name pressed to our lips
We arrived at number eleven
So charged and ready for slavery
I won't take the stage straight, understand
Under capes with druggy cock dragons
I want to put out so bad
But something bad says the kid's probably right

Are you deflating at the question?
I don't know
Now that the parachute has opened, well
Don't it make you feel good?

(Bm                A       )
Be careful how you touch me
My body is an earthquake
Ready to receive you
Mind's making glaciers
Metals for my soldiers
Let's be like strangers
Touching for the first time

Fm
Skeletal lamping, the controller sphere, false priest 






Intro:(0:00)
Some of the sounds in this intro are just weird effects so I'll tab the
parts that are definitely pitched.

Strings
   D               G               A               G
e|----5--4------------10-9------------12-11-----------10-9---------|
b|-3--3--4---------8--8--9---------10-10-11--------8--8--9---------|
g|-4---------------9---------------11--------------9---------------|
d|-----------------------------------------------------------------|
a|-----------------------------------------------------------------|
e|-----------------------------------------------------------------|
Keyboard
e|---------5---------------10--------------12--------------10------|
b|-----------7---------------12--------------14--------------12----|
g|-----------------------------------------------------------------|
d|-----------------------------------------------------------------|
a|-----------------------------------------------------------------|
e|-----------------------------------------------------------------|
Bass
g|-----------------------------------------------------------------|
d|-----------------55555555--------77777777--------55555555--------|
a|-55555555--------------------------------------------------------|
e|-----------------------------------------------------------------|

Strings
   D               G               A               G
e|----5--4------------10-9------------12-11-----------10-9---------|
b|-3--3--4---------8--8--9---------10-10-11--------8--8--9---------|
g|-4---------------9---------------11--------------9---------------|
d|-----------------------------------------------------------------|
a|-----------------------------------------------------------------|
e|-----------------------------------------------------------------|
Keyboard
e|---------5---------------10--------------12--------------10------|
b|-----------7---------------12--------------14--------------12----|
g|-----------------------------------------------------------------|
d|-----------------------------------------------------------------|
a|-----------------------------------------------------------------|
e|-----------------------------------------------------------------|
Bass
g|-----------------------------------------------------------------|
d|-----------------55555555--------77777777--------55555555--------|
a|-55555555--------------------------------------------------------|
e|-----------------------------------------------------------------|


Main part:(0:28)


Keyboard
   F#  
e|-16-------------1712------------------|-----12----------9----------------|
b|-17-------------1914------------------|14-1414141412----1010109----------|
g|------------------16--------------14--|14-14--141413------11119-9-8------|
d|--------------------------------16--16|---------------9---------119------|
a|--------------------------------------|-------------11-9-----------------|
e|--------------------------------------|----------------------------------|
Bass
g|---------2---------------/4-----------|--------2---------------/4--------|
d|-2h44442---2-2234-2h4--42-------------|2h4-442---2-2234-2h4-442----------|
a|--------4----------------4--2-223-4---|-------4----------------4--2-2234-|
e|--------------------------------------|----------------------------------|


Keyboard
   F#  
e|-16-------------1712------------------|-----12----------9----------------|
b|-17-------------1914------------------|14-1414141412----1010109----------|
g|------------------16--------------14--|14-14--141413------11119-9-8------|
d|--------------------------------16--16|---------------9---------119------|
a|--------------------------------------|-------------11-9-----------------|
e|--------------------------------------|----------------------------------|
Guitar
e|--------------------------------------|----------------------------------|
b|--------------------------------------|----------------------------------|
g|--------------------------------------|----------------------------------|
d|---------2---------------/4-1-112-3---|--------2---------------/4-1-1123-|
a|-2h4-442---2-2234-2h4--42-------------|2h4-442---2-2234-2h4-442----------|
e|--------4----------------4------------|-------4----------------4---------|
Bass
g|---------2---------------/4-----------|--------2---------------/4--------|
d|-2h4-442---2-2234-2h4--42-------------|2h4-442---2-2234-2h4-442----------|
a|--------4----------------4--2-223-4---|-------4----------------4--2-2234-|
e|--------------------------------------|----------------------------------|


Verse:(0:56)
Guitar
   F#
e|------------------------------------|-----------------------------------|
b|------------------------------------|-----------------------------------|
g|------------------------------------|-----------------------------------|
d|---------2----------------/4-1-1123-|--------2----------------/4-1-1123-|
a|-2h4-442---2-2234-2h4--42-----------|2h4-442---2-2234-2h4-442-----------|
e|--------4----------------4----------|-------4----------------4----------|
Guitar 2
e|------------------------------------|-----------------------------------|
b|------------------------------------|-----------------------------------|
g|-4-44442----------4-444424/6-2------|4-44442----------4-444424/6-2------|
d|--------24--------------------------|-------24--------------------------|
a|------------------------------------|-----------------------------------|
e|------------------------------------|-----------------------------------|
Bass
g|---------2----------------/4--------|--------2----------------/4--------|
d|-2h44442---2-2234-2h4--42-----------|2h4-442---2-2234-2h4-442-----------|
a|--------4----------------4---2-2234-|-------4----------------4---2-2234-|
e|------------------------------------|-----------------------------------|

repeat this a lot until

(1:51) play the intro again

(2:20) back to verse but with the keyboard part added. Keep repeating this
for ages

(3:43) vocal break

(3:57)


Guitar 1
Fm
e|------------------|      |-----------------------------------|
b|------------------|      |-----------------------------------|
g|-5555555555553366-|      |-5\--------------------------------|
d|------------------|      |-----------------------------------|
a|------------------|      |-----------------------------------|
e|------------------|      |-----------------------------------|
Guitar 2                     end on
e|------------------|      |-----------------------------------|
b|------------------|repeat|-----------------------------------|
g|------------------| lots |-----------------------------------|
d|-3333333333336666-|      |-3\--------------------------------|
a|------------------|      |-----------------------------------|
e|------------------|      |-----------------------------------|


-----------------------------------------------------------------------------------

Labyrinthian Pomp

D  
D 
Eb


Bb
How you want to tag my style
When I am so superior?
How you want to hate a thing
When you are so inferior?

Ab
How you want to mess
F#                     Gm          Dm    C#m  Cm
How you want to mess my spotless interior?

Bb
Let's just say you are not the destroyer
Bb
Let's just say   (Norwegian)

F5
I've got my bright girl near me
She's so much taller
Wth a crisp endorsement
         D5       F5
From the C.C.A.A. Booty Patrol
G5            Bb5
She's so meta-referenced and all 
       G5
Shares my strange urge to
F5                Bb5                D5
Smash a window in every house on our block

  Eb5
Delinquent days are here again

Bb
How you want to tag my style
When I am so superior?
How you want to hate a thing
When you are so inferior?
Ab
How you want to mess
F#                     Gm          Dm    C#m  Cm
How you want to mess my spotless interior?

Bb
Let's just say you are not the destroyer
Bb
Let's just say   (Norwegian)

            F5
I've got my Georgie Fruit on
He's a dark mutation
For my demented past time
       D5          F5
Giving replicators somewhere to go
    G5
But we're authentic
        Bb5
You can test my talons
             G5
Against your cursive body
        F5                      Bb5
But the controller spheres have disappeared
       D5
And it hurts
  Eb5
Delinquent days are here again

Bb Gm   Bb F  F/C Cm   Db7   
                      (It's like to disappear forever, but I'm not afraid)
Eb

Abm7                                 Db7
There's two gods for every one, one, two gods for the beasts
   Ebm7      Bb7
An hour dead 
Abm7
Deflects our eggs
                Db7
On latitude, oh 1 degree
                   Ebm7         Bb7
I trusted you, no, don't explain

B5                              C#5
Moving in clipped tempos making sad dreams
Of the flags appearing
B5                      D#5
Crazy how the symbolism works
      B5
Don't look at them 
B5



Intro(0:00)
Bass   
   D                                                               Eb     
g|-------------------------------------------------------------------------------|
d|-------------------------------------------------------------------------------|
a|-55--55--55--55--55--55--55--55--55--55--55--55--55--55--55--55--6666-666---66-|
e|-------------------------------------------------------------------------------|
Guitar
e|-------------------------------------------------------------------------------|
b|-------------------------------------------------------------------------------|
g|-------------------------------------------------------------------------------|
d|-------------------------------------------------------------------------------|
a|-------------------------------------------------------------------------------|
e|-------------------------------------------------------------------------16/18-|

Chorus
(0:12)
Bass
   Bb
g|--------------------------------77-----------------------777-----101010--|
d|--------688-6--6---------6888-6---88-------688-6--6----------888---------|
a|-----6/8------8-8-----6/8---------------6/8------8-8---------------------|
e|-6-6--------------6-6---------------6-6--------------6-6-----------------|
                                              Dm
g|-----------------------------12121212---------------------------------|
d|---------101010-----/11111111--------1212---------------10-x10-12-12--|
a|-111111----------999---------------------12/------12-12---------------|
e|--------------------------------------------10-10---------------------|
   Cm
g|----------------8-\--------------------------|
d|-----------8-x8-----1010-1088--8-------------|
a|-----10-10----------------------1010-1088--8-|
e|-8-8-----------------------------------------|
   Bb
g|-------------------------77-7-------------------------77-7/10-10-----|
d|-----888866-6--------88-8----6----------68-86---6----------------8-8-|
a|-------------8-6---------------------6/8------8----------------------|
e|-6-6-------------6-6-------------6-6--------------6-6----------------|


(0:12)
Guitar(listen for complicated timing)
   Bb
e|-----------18-------------18-------181818181818------------------------------------------22-22-|
b|-----18-20-18---18--------18-------181818181818------------------------------------------21-21-|
g|-191919-19------19---15---19-------191919191919---------15151515-17/19---1515151515------------|
d|-2020-----------20---17------------181818181818-18/20---17171717---------1515151515------------|
a|---------------------17---------------------------------17171717---------1717171717------------|
e|------------------------------------------------------------------------------------16---------|


(0:34)
Guitar
   Bb7
e|------18181818----16-------18181818----------|
b|------21212121--------18---21212121----------|
g|------19191919----17--19---19191919----------|
d|---------------------------------------------|
a|---------------------------------------------|
e|---------------------------------------------|


Verse 1(0:44)

Bass
   F                                               Dm      F
g|------------------------------------------------------------------|
d|------------------------------------------------------------------|
a|-8888888888888888888888888888888888888888888888885555555588888888-|
e|------------------------------------------------------------------|
Keyboard(lots of delay)
e|------------------------------------------------------------------|
b|------------------------------------------------------------------|
g|------------------------------------------------------------------|
d|------------------------------------------------------------------|
a|-8-----------------------------------------------5-------8--------|
e|------------------------------------------------------------------|

Bass
   Gm              Bb              Gm             F       Bb      Dm
g|-----------------------------------------------------------------------------------------------|
d|55555555555555558888888888888888555555555555555------------------------------------------------|
a|-----------------------------------------------88888888--------55555555555555555555555555555555|
e|-------------------------------------------------------66666666--------------------------------|
Keyboard
e|-----------------------------------------------------------------------------------------------|
b|-----------------------------------------------------------------------------------------------|
g|-----------------------------------------------------------------------------------------------|
d|-5---------------8---------------5-------------------------------------------------------------|
a|------------------------------------------------8---------------5------------------------------|
e|--------------------------------------------------------6--------------------------------------|

(1:06)
Keyboard
   Dm
e|-------------|
b|-------------|
g|-7-----------|
d|-7-7-3-------|
a|---8-5-6-5---|
e|-------6-5---|

Pre-Chorus(1:10) 

Just the Eb part at the end of the intro

Chorus(1:12)

Verse 2(1:45)

Same as Verse 1 (but without the keyboard riff at the end)

Pre-Chorus(2:10)

The same as before, but without the guitar

(2:12)
Keyboard
   Bb Gb   Bb F  F/C Cm   Db7   Eb
e|-10-6----10-5--8---3------------------------------------------|
b|-------------------4----6-----4-4-4-4-4-4-4-4-4-4-4-4-4-4-4-4-|
g|-10-7----10-5------5----4-----3-3-3-3-3-3-3-3-3-3-3-3-3-3-3-3-|
d|-8--5----8--3-----------6-----5-5-5-5-5-5-5-5-5-5-5-5-5-5-5-5-|
a|-------------------3----4-----6-6-6-6-6-6-6-6-6-6-6-6-6-6-6-6-|
e|---------------8----------------------------------------------|



(2:28)

Keyboard (w/echo)
   Abm7            Db7                  Ebm7            Bb7
e|-2---------------1--------------------2---------------4-------------------|
b|-4---------------2--------------------4---------------6-------------------|
g|-4---------------4--------------------6---------------7-------------------|
d|--------------------------------------------------------------------------|
a|--------------------------------------------------------------------------|
e|--------------------------------------------------------------------------|
Bass
g|---------------------------6-/-10-\-6---------888-----------------101010--|
d|--------------------------------------------------888---------888---------|
a|---------------6-4--------------------6-----------------------------------|
e|-4-----------7----------------------------------------6-------------------|

Keyboard (w/echo)
   Abm7            Db7                  Ebm7            Bb7
e|-2---------------1--------------------2---------------4-------------------|
b|-4---------------2--------------------4---------------6-------------------|
g|-4---------------4--------------------6---------------7-------------------|
d|--------------------------------------------------------------------------|
a|--------------------------------------------------------------------------|
e|--------------------------------------------------------------------------|
Bass
g|---------------------------6-/-10-\-6---------888-----------------101010--|
d|--------------------------------------------------888---------888---------|
a|---------------6-4--------------------6-----------------------------------|
e|-4---------4-7----------------------------------------6-------------------|


(2:59)
Bass
   B                 C#                          B                D#
g|---------------------------------------10101111--------------------------|
d|-------------991111------------11111111--------------------------6-6-4-4-|
a|-------669999----------11111111----------------9-9-6--6---------6-6-6-6--|
e|-777777------------9999--------------------------------777777777---------|
Keyboard
e|-------------------------------------------------------------------------|
b|-------------------------------------------------------------------------|
g|-------------------------------------------------------------------------|
d|-------------------------------------------------------------------------|
a|-2-----------------4---------------------------2----------------6--------|
e|-------------------------------------------4-----------------------------|

Bass
   B
g|----------------------------------|
d|-------------------------------99-|
a|----------666-------------66699---|
e|-777777777---7777777777777--------|
Keyboard
e|----------------------------------|
b|----------------------------------|
g|----------------------------------|
d|----------------------------------|
a|-2--------------------------------|
e|----------------------------------|

-----------------------------------------------------------------------------------

She's a Rejecter

Bb5    Bb5
Ab5    Gb5
Ab5    Gb5

Dm    Dm
C     Bb  

Dm                           C
My, my, you busted me like a Robocop
Bb                  Dm
Strike me with your riding crop
                             C
I'm forever going celibate tomorrow
                     Bb
Tonight, like success, knows no shame

Cm               Dm
Oh no, she's a rejecter
          Bbm
I must protect myself

(single notes)
A                             C
There's the girl that left me bitter
                F
Want to pay some other girl
                           E
To just walk up to her and hit her
      Bb(full chord)   
But I can't, I can't, I can't

Dm    Dm
C     Bb 

Dm                              C
My, my, this demon heart of the master's hand
Bb                     Dm
Crush me, why, I don't understand
And I know you're not her
          C                             Bb
Cause the girl of my dreams is probably God
Still, I want you 

D   G# C#      C F
D   G# C#      C F


Cm               Dm
Oh no, she's a rejecter
          Bbm
I must protect myself

(single notes)
A                             C
There's the girl that left me bitter
                F
Want to pay some other girl
                           E
To just walk up to her and hit her
      Bb(full chord)   
But I can't, I can't, I can't

Dm    Dm
C     Bb 
Dm    Dm
C     Bb 
Dm    Dm
C     Bb 
Dm    Dm
C     Bb 

repeat until the end


Intro (0:00)

Guitar 1
   Bb                             Ab               Gb              Ab              Gb
e|-----------------------------------------------------------------------------------------------|
b|-----------------------------------------------------------------------------------------------|
g|-----------------------------------------------------------------------------------------------|
d|-----------------------------------------------------------------------------------------------|
a|-----------------------------------------------------------------------------------------------|
e|-6-6-------------6-6-------------4-4-------------2-2-------------4-4-------------2-2-----------|
Bass 1
g|-----------------------------------------------------------------------------------------------|
d|---------------------------------6-6-----------------------------6-6---------------------------|
a|-1-1-------------1-1---------4-4-----------------------------4-4-------------------------------|
e|-------------1-1---------------------4-4-----4-4-2-2-----------------4-4-----4-4-2-2-----------|
Bass 2
g|-------------------------------------------------------------------------------------20-20\18--|
d|-----------------------------------------------------------------------------------------------|
a|-----------------------------------------------------------------------------------------------|
e|-----------------------------------------------------------------------------------------------|
Bass 3
g|-----------------------------------------------------------------------------------------------|
d|-------------------------------------------------------------------------------------18-18\16--|
a|-----------------------------------------------------------------------------------------------|
e|-----------------------------------------------------------------------------------------------|


Verse 1 (0:11)

Guitar 1
   Dm                                  C                 Bb
e|-----------------------------------------------------------------------|
b|-----------------------------------------------------------------------|
g|-----------------------------------------------------------------------|
d|-----------------------------------------------------------------------|
a|-----5-5-------------5-5-------------3--3----------3-3-1-1---------4-4-|
e|-5-5-------------5-5-------------1-1-----------------------------------|
Guitar 2
e|---------5-5-5-----------5-5-5-------------3-3-3-----------1-1-1-------|
b|---------6-6-6-----------6-6-6-------------5-3-3-----------3-3-3-------|
g|---------7-7-7-----------7-7-7-------------5-5-5-----------3-3-3-------|
d|-----------------------------------------------------------------------|
a|-----------------------------------------------------------------------|
e|-----------------------------------------------------------------------|
Bass 1
g|-----------------------------------------------------------------------|
d|-------------------------------------10-10-----------------------------|
a|-----5-5-------------5-5---------8-8-------------------------------4-4-|
e|-5-5-------------5-5-----------------------8-8-----8-8-6-6-------------|
Bass 2
g|(4-4)------5---------------5-----------------9-----1212------7-----6-6-|
d|---------7---7-----------7---7-------------10--10----------8---8-------|
a|-----------------------------------------------------------------------|
e|-----------------------------------------------------------------------|

The part in brackets is played during the outro, when this verse pattern is repeating, but not
during any of the verses.

Guitar 1
   Dm                              C                 Bb
e|-------------------------------------------------------------------|
b|-------------------------------------------------------------------|
g|-------------------------------------------------------------------|
d|-------------------------------------------------------------------|
a|-5-5-------------5-5-------------3--3----------3-3-1-1---------4-4-|
e|-------------5-5-------------1-1-----------------------------------|
Guitar 2
e|---------5-5-5-----------5-5-5-------------3-3-3-----------1-1-1-------|
b|---------6-6-6-----------6-6-6-------------5-3-3-----------3-3-3-------|
g|---------7-7-7-----------7-7-7-------------5-5-5-----------3-3-3-------|
d|-----------------------------------------------------------------------|
a|-----------------------------------------------------------------------|
e|-----------------------------------------------------------------------|
Bass 1
g|-------------------------------------------------------------------|
d|---------------------------------10-10-----------------------------|
a|-5-5-------------5-5---------8-8-------------------------------4-4-|
e|-------------5-5-----------------------8-8-----8-8-6-6-------------|
Bass 2
g|-------5---------------5-----------------9-----1212------7-----6-6-|
d|-----7---7-----------7---7-------------10-10-----------8---8-------|
a|-------------------------------------------------------------------|
e|-------------------------------------------------------------------|

Guitar 1
   Dm                              C                 Bb
e|-------------------------------------------------------------------|
b|-------------------------------------------------------------------|
g|-------------------------------------------------------------------|
d|-------------------------------------------------------------------|
a|-5-5-------------5-5-------------3--3----------3-3-1-1---------4-4-|
e|-------------5-5-------------1-1-----------------------------------|
Guitar 2
e|---------5-5-5-----------5-5-5-------------3-3-3-----------1-1-1-------|
b|---------6-6-6-----------6-6-6-------------5-3-3-----------3-3-3-------|
g|---------7-7-7-----------7-7-7-------------5-5-5-----------3-3-3-------|
d|-----------------------------------------------------------------------|
a|-----------------------------------------------------------------------|
e|-----------------------------------------------------------------------|
Bass 1
g|-------------------------------------------------------------------|
d|---------------------------------10-10-----------------------------|
a|-5-5-------------5-5---------8-8-------------------------------4-4-|
e|-------------5-5-----------------------8-8-----8-8-6-6-------------|
Bass 2
g|-------5---------------5-----------------9-----1212------7-----6-6-|
d|-----7---7-----------7---7-------------10-10-----------8---8-------|
a|-------------------------------------------------------------------|
e|-------------------------------------------------------------------|

(0:34)
Acoustic guitar
   Cm              Dm                      Bbm
e|-8-8-8-8-8-8-8-8-10-10-10-10-10-10-10-10-6-6-6-6-6-6-6-6-|
b|-8-8-8-8-8-8-8-8-10-10-10-10-10-10-10-10-6-6-6-6-6-6-6-6-|
g|-8-8-8-8-8-8-8-8-10-10-10-10-10-10-10-10-6-6-6-6-6-6-6-6-|
d|-101010101010101012-12-12-12-12-12-12-12-8-8-8-8-8-8-8-8-|
a|-101010101010101012-12-12-12-12-12-12-12-8-8-8-8-8-8-8-8-|
e|-8-8-8-8-8-8-8-8-10-10-10-10-10-10-10-10-6-6-6-6-6-6-6-6-|
   Am              C               F                       E               Bb
e|-------------------------------------------------------------------------6-6-6-6-6-6-6-6-|
b|-------------------------------------------------------------------------6-6-6-6-6-6-6-6-|
g|-------------------------------------------------------------------------7-7-7-7-7-7-7-7-|
d|-------------------------------------------------------------------------8-8-8-8-8-8-8-8-|
a|-----------------3-3-3-3-3-3-3-3-----------------------------------------8-8-8-8-8-8-8-8-|
e|-5-5-5-5-5-5-5-5-----------------1-1-1-1-1-1-1-1-1-1-1-1-0-0-0-0-0-0-0-0-6-6-6-6-6-6-6-6-|


Verse 2 (0:50)

Same as Verse 1

Bridge(1:12)

Harmonics 1  
   D               G#      C#                      C   F   
e|-------------10*-----------------7~--7~--7~--7~----------|
b|-----5~--------------------------------------------------|
g|---------5~----------------------------------------------|
d|---------------------------------------------------------|
a|---------------------------------------------------------|
e|---------------------------------------------------------|
Harmonics 2
e|---------------------------------------------------------|
b|-----7~--------------------------------------------------|
g|---------7~----------------------------------------------|
d|-------------7~------------------------------------------|
a|---------------------------------------------------------|
e|---------------------------------------------------------|
Guitar 1
e|---------------------------------------------------------|
b|---------------------------------------------------------|
g|---------------------------------------------------------|
d|---------------------------------------------------------|
a|-5-----------------------4-----------------------3-------|
e|-----------------4-----------------------------------1---|

g|---------------------------------------------------------|
d|-----------------6-----------------------------------3---|
a|-5-5---------------------4-----------------------3-------|
e|---------------------------------------------------------|


*this is an artifical harmonic, the others are natural.

Harmonics 1  
   D               G#      C#                      C   F  
e|-------------10*-------------7~--7~--7~--7~--7~----------|
b|-----5~--------------------------------------------------|
g|---------5~----------------------------------------------|
d|---------------------------------------------------------|
a|---------------------------------------------------------|
e|---------------------------------------------------------|
Harmonics 2
e|---------------------------------------------------------|
b|-----7~--------------------------------------------------|
g|---------7~----------------------------------------------|
d|-------------7~------------------------------------------|
a|---------------------------------------------------------|
e|---------------------------------------------------------|
Guitar 1
e|---------------------------------------------------------|
b|---------------------------------------------------------|
g|---------------------------------------------------------|
d|---------------------------------------------------------|
a|-5-----------------------4-----------------------3-------|
e|-----------------4-----------------------------------1---|

g|---------------------------------------------------------|
d|-----------------6-----------------------------------3---|
a|-5-----------------------4-----------------------3-------|
e|---------------------------------------------------------|


Harmonics 1    
   D               G#      C#                      C   F 
e|-------------10*-------------7~--7~--7~--7~--7~----------|
b|-----5~--------------------------------------------------|
g|---------5~----------------------------------------------|
d|---------------------------------------------------------|
a|---------------------------------------------------------|
e|---------------------------------------------------------|
Harmonics 2
e|---------------------------------------------------------|
b|-----7~--------------------------------------------------|
g|---------7~----------------------------------------------|
d|-------------7~------------------------------------------|
a|---------------------------------------------------------|
e|---------------------------------------------------------|
Guitar 1
e|---------------------------------------------------------|
b|---------------------------------------------------------|
g|---------------------------------------------------------|
d|---------------------------------------------------------|
a|-5-----------------------4-----------------------3-------|
e|-----------------4-----------------------------------1---|

g|---------------------------------------------------------|
d|-----------------6-----------------------------------3---|
a|-5-----------------------4-----------------------3-------|
e|---------------------------------------------------------|

(1:32)
Just the acoustic guitar part again.



(1:48)
Repeat the verse until the end with these riffs added.

(2:20) and (2:51)
Guitar 3
   Dm       C     Bb             Dm
e|-10\--------------------------------------|
b|-----10\----------------------------------|
g|---------b9r7-----------------------------|
d|------------------------------------------|
a|------------------------------------------|
e|------------------------------------------|
Guitar 4
e|----------------9-109---------------------|
b|----------------101110-101110-/10-\-6-----|
g|-----------------------9-109--/10-\-7-----|
d|------------------------------------------|
a|------------------------------------------|
e|------------------------------------------|

(2:34)-(2:49), (3:04)-end
Keyboard
e|---10--10--10--10----------|
b|-10--10--10--10------------|
g|-------------------etc.----|
d|---------------------------|
a|---------------------------|
e|---------------------------|

This riff is continued into the next song.

The guitar 1 riff from the intro dies off fairly early.



--------------------------------------------------------------------

We Were Born Again The Mutants With Leafling


Dm      F      Bb     Gm
Dm      F      Bb     Gm
Dm      F      Bb     Gm
Dm      F      Bb     Gm

Dm           F
She says I'm boring her camera
                   Bb
It takes more to delight the cadaver
              Gm
Night eyes on icy patrols
Dm                 F
 Yours were not so Nazi feline
             Bb
Mine were as dead as monks
                  Gm    
And our particles are in motion

Dm      F      Bb     Gm


N.C.
Night eyes producing ashes
We love to view unfortunate passions
Still, she takes my photo to bed
Dm            F                        Bb
 No mere limp verse could incite identity destruction
              Gm    
Our particles are in motion

Dm      F      Bb     Gm
Dm      F      Bb     Gm

Dm                      F
Sometimes we're not legible
                              Bb
But we're the same strange animal
                            Gm     Dm
Let them say our love is peculiar, don't care

F      Bb     Gm

Dm                        F
There's only now, no ever after
                         Bb
We won't let it end in disaster
                           Gm
You are my twin, no I will never go there 

Gm

Dm      F      Bb     Gm
Dm      F      Bb     Gm
Dm      F      Bb     Gm
Dm      F      Bb     Gm


Intro
(0:00)
Keyboard (carried over from She's a Rejecter)
e|---10--10--10--10--10--10--------|
b|-10--10--10--10--10--10----------|
g|---------------------------------|
d|---------------------------etc.--|
a|---------------------------------|
e|---------------------------------|

this only really fades all the way out around 0:58




(0:23)
Bass
   Dm               F                                           Bb
g|-------10-10-12\----------------------------10-10----------------------------10-10-10---|
d|-12-12----------------------10-10-----------------12-12-10(10)12-12-10-10-8-8-----------|
a|------------------8-8-12-12-------12-12-8-8---------------------------------------------|
e|----------------------------------------------------------------------------------------|
                        Gm
g|-----10-10-10(10)---------------|
d|-8-8------------------8-8-10/12-|
a|----------------10-10-----------|
e|--------------------------------|

Repeat this through the whole intro. Notes brackets are only added occasionally.



(0:23)
Guitar
   Dm          F                               Bb                              Gm
e|------------------------------------------------------------------------------------------|
b|------------------------------------------------------------------------------------------|
g|------------------------------------------------------------------------------------------|
d|------------------------------------------------------------------------------------------|
a|-555555555555--------------------------------11111111111111111111111111111111-------------|
e|-------------11111111111111111111111111111111--------------------------------333333333333-|
   Dm          F                               Bb                              Gm
e|------------------------------------------------------------------------------------------|
b|------------------------------------------------------------------------------------------|
g|------------------------------------------------------------------------------------------|
d|------------------------------------------------------------------------------------------|
a|-555555555555--------------------------------11111111111111111111111111111111-------------|
e|-------------11111111111111111111111111111111--------------------------------333333333333-|
   Dm          F                               Bb                              Gm
e|------------------------------------------------------------------------------------------|
b|------------------------------------------------------------------------------------------|
g|---5-------7-5---5---5-------7-----5-------7-5---------------------5-------7-5------------|
d|-----7---7-----7---------7-----------7---7-----7---------7---5-------7---7-----7-5---7----|
a|-------8-------------------------------8---------8---8-----------------8------------------|
e|------------------------------------------------------------------------------------------|

repeat the last part until the first verse


(0:23)
Keyboard 1
   Dm        F                         Bb                        Gm
e|-17---15---13--------13-15-17---15---13--------13-15-17---15---17---15---|
b|----------------15------------------------15-----------------------------|
g|-17---15---14--------14-15-17---15---14--------14-15-17---15---17---15---|
d|----------------15------------------------15-----------------------------|
a|-------------------------------------------------------------------------|
e|-------------------------------------------------------------------------|

repeat for the whole intro


(1:04)
Keyboard 2
   Dm
e|--------15-13-----------------15-13-17-20----------17-15---|
b|-15----------(15)-13---13-------------------15-------------|
g|-----------------------------------------------------------|
d|-----------------------------------------------------------|
a|-----------------------------------------------------------|
e|-----------------------------------------------------------|
repeat this and add this on top
(1:15)
Keyboard 3
e|-----------------------------------------------------------|
b|-----------------------------------------------------------|
g|--------15-14-----------------15-14-17-------------17-15---|
d|-15---------------15---15--------------15---17-------------|
a|-----------------------------------------------------------|
e|-----------------------------------------------------------|

(0:55)
Guitar
   Dm            F                               Bb                       Gm
e|-------------------------------------------------------------------------------------|
b|------------------------------66666666666688888-------------------------66666666666--|
g|-77777777777777555555555555555-----------------7777777777777777777777777-------------|
d|-------------------------------------------------------------------------------------|
a|-------------------------------------------------------------------------------------|
e|-------------------------------------------------------------------------------------|
repeat till the verse

(1:46)
Verse 1

Bass
   Dm                    F                                     Bb
g|-----------------------------------------10-10-9-9---------------------------12\-|
d|-12-12-15-15-14-14-12\-----7-7-10-10---------------10-10-7-7-8-8-12-12-10-10-----|
a|-----------------------8-8-----------8-8-----------------------------------------|
e|---------------------------------------------------------------------------------|
                     Gm
g|-----7-7-10-10----------------|
d|-8-8-----------8-8-------8h10-|
a|-------------------10-10------|
e|------------------------------|   x 2

Keyboard
   Dm      F               Bb                Gm
e|--------------------------------------------------|
b|-6---5-6------------------------------------------|
g|-7-----7-----------------7-----7--7-----7---------|
d|-7-----7-7---5-7-7---7-5-8-----8--8-----8--8--8---|
a|---------8-----8-8-----8-8---8-10-8---8-10-10-10--|
e|---------8-----8-8-----8-------------------10-10--|
   Dm      F               Bb                Gm
e|--------------------------------------------------|
b|-6-5-6-8------------------------------------------|
g|-7-----7-----------------7------7-7------7--------|
d|-7-----7-7---7-5-7---5-7-8------8-8------8-8------|
a|---------8-----8-8-----8-8---10-8-8---10-8-10-----|
e|---------8-----8-8-----8-------------------10-----|


Then back to the intro with all riffs included except keyboard 2 & 3

(2:17)
Verse 2

Just drums for the first couple of lines

(2:28)
Then bring in the bass and Keyboard for the second part (use the second line of the keyboard)

(2:38)
Then back to the intro riffs. Some come in and out, 
especially keyboards 2 & 3 which never play over the vocals.


(3:33)
Vocals(heavily distorted)
   Gm
e|-------------------------|
b|-3-------6---------------|
g|-3-------5-------3-------|
d|-5(hold)-----------------|
a|-------------------------|
e|-------------------------|


Then back to intro riff with all riffs included (including keyboards 2 & 3)

(3:56)
Keyboard
   Dm              F                         Bb                                          Gm
e|-----------------8---------------------------------------------------------------------------|
b|--------10---------------10----------------10-------8-------------------------10-------8-----|
g|-7----------------------------------------------------------10-------------------------------|
d|----------------------------------10---------------------------------10----------------------|
a|---------------------------------------------------------------------------------------------|
e|---------------------------------------------------------------------------------------------|

Repeat till fade out.

2 comments total.
0 reply
sophixer wrote on January 16 2011, 07:10 pm

I don't know how on earth this was all tabbed, but thank you so so much. This is absolutely fantastic.

0 reply
Fiksdal wrote on January 21 2011, 04:51 pm

this was tabbed cause pixiesrule is the f****** man

I want to post or [tab]
guest
You may want to rate the tab now too:
select rating
Please do not post tabs as comments. Select "correction" instead!