Oops, an error
Loading. Please wait.

Icons Abstract Thee Tab

2,865 views 12 this week
no commentswrite comment
1 2 3 4 5
excellent!
x 3
Autoscroll
+/-
esc
set tempo
stop
Contributor
Hey! There's an official Ultimate Guitar app which is ideal
for learning songs when you're away from computer. Get the app
WARNING: You are trying to view
                                    content from Ultimate-Guitar.com
                                    in an unauthorized application,
                                    which is prohibited.

                                    Please use an official Ultimate
                                    Guitar Tabs application for iPhone,
                                    iPad or Android to access legitimate
                                    chords, guitar, bass, and drum tabs
                                    from Ultimate-Guitar.com database.

                                    Type "ultimate guitar tabs" in Apple
                                    App Store's or Android Market's
                                    search to find the application.
of Montreal

Icons, Abstract Thee (2007)

1. Du Og Meg
2. Voltaic Crusher/Undrum to the Muted Da
3. Derailments in a Place of Our Own
4. Miss Blonde Your Papa is Failing
5. No Conclusion



~~~~~~~~~~~~~~~~~~~~~~~~~~~~~~~~~~~~~~~~~~~~~~~~~~~~~~~~

1. Du Og Meg

D

            G           C
She fell in love with a boy 
                     G
Who spoke her second language
        G                C
And who lived across the ocean 
       D
In the evil empire

    G                 C
He awoke her sleeping heart 
                   G
And swept away the darkness
    C            G
An acute fear of flying 
         D
Couldn't keep her away
        G       C
Oh, oh, oh

      G
C     G
D

She landed on her feet 
And joined his fledgling rock group
As they toured the evil empire
Selling t-shirts at the shows

She taught him what was real
She taught him he was okay
That his thoughts were not just rubbish
That he had something good to give

          Am 
Still his heart was so ambivalent and hopesick 
                 G                 Bm
Of her he wasn't ever sure
    Am
But she gave in so sweetly that the spirit said 
                    Em          D
"Boy, you better go run to her (run to her)"

So when she split, he hopped on a plane 
With his parents and his brother
He told her that he loved her 
They were married in the summer

Oh, oh, oh 



Am   Bm
G



(0:20) & (0:58) & (1:54)

   Guitar Riff 1
G(play over C too)  D  
e|-------7-7----------------10-10-------------10-10---|
b|-------8-8-------------10-10-10----------10-10-10---|
g|-----7--------x6--7/11--------------7/11------------|
d|-5/9------------------------------------------------|
a|----------------------------------------------------|
e|----------------------------------------------------|


(0:33) & (1:41)

Horns
   G(play over C too)         D
e|-----------------------------------------------------------|
b|-12-12-12------12-15--------15-15-15-10-10-10-12-12-12-----|
g|------------12----12---x6---11-11-11-9--9--9-----------11--|
d|-12-12-12------12-----------------------------12-12-12-9---|
a|------------14---------------------------------------------|
e|-----------------------------------------------------------|


(0:33) & (0:58) & (1:41) till end

Soft Keyboard Riff
   G        C                 G          C        G          D              G
e|-7--------10--8--7-8-----10-12------10-8-----10-12------10-------10--8--7---|
b|----8--10-------------8---------12--------8---------12-----10-------------8-|
g|----------------------------------------------------------------------------|
d|----------------------------------------------------------------------------|
a|----------------------------------------------------------------------------|
e|----------------------------------------------------------------------------|

(1:54)

Horn Solo
   D      G        C                        G
e|--------9--10--12---12-10-9-10-9-------------------------------------|
b|-7-8-10--------------------------10-8--/12---------------------------|
g|---------------------------------------------------------------------|
d|---------------------------------------------5-5-7-9-9-7-5-5---5---5-|
a|-----------------------------------------------------------------7---|
e|---------------------------------------------------------------------|

   (G)     D                           Am
e|---10-10-10-8-8-8-7-7-7--------------------------------------------|
b|-8----------------------10-10-10-8-7-10---12-13-13-12-10-----------|
g|---------------------------------------------------------12-11-9-7-|
d|-------------------------------------------------------------------|
a|-------------------------------------------------------------------|
e|-------------------------------------------------------------------|

   (Am)     Bm   G
e|---------------------------|
b|---------------------------|
g|--54--5---4h54-5--4--------|
d|-------5-------------7-5---|
a|---------------------------|
e|---------------------------|


Guitar outro
   Am                                  Bm      G
e|-----5-5-------5-5-------5-5-------5-5-----7-7-3---|
b|-----5-5-------5-5-------5-5-------5-5-----7-7-3---|
g|---5---------5---------5---------5-------7-----4---|
d|-7---------7---------7---------7-------9-------5---|
a|---------------------------------------------------|
e|---------------------------------------------------|


~~~~~~~~~~~~~~~~~~~~~~~~~~~~~~~~~~~~~~~~~~~~~~~~~~~~~~~~~~~~~~

2. Voltaic Crusher/Undrum to the Muted Da



Capo on 1st fret


          G                        D
I write a thousand songs for you a day
      C                G         D
But I never run out of things to say
          C                       Eb
You're my Ulysses that I'll never end
           Bb                         C
Now that I fucked up, lost you, sweet friend

G#                   F#              E
Everything is in the trash, and it's my fault
     G#              F#             E
I've destroyed us, I know, it's unrecoverable
             C                       D
If there's a God he will repair your heart
             G                C
If there's a God, send her an angel
                                     D
Make him handsome and clever and not crazy
                         G       C
And you notice something wonderful
                              Eb
Someone to love her volcanically

                    G                      Bb
And please, please, please God, don't be a bastard
                   Eb                          Bb
Christ knows she deserves something nice for a change
                   Eb                          Bb
Christ knows she deserves something nice for a change

       G              D
I am a flaw, I'm a mistake
     C              G     D          
I am faulty, always break
  C                                  Eb
I tried, no-one'll believe me, but I did
           Bb                      C
I tried to mature, be responsible, dot dot dot
                G
But my heart is juvenile
       D
And my character's not so hot

    C                              D
You gave me your hand, I gave you a fist
             G                   C
Please don't lose any sleep over me, baby
           D
I hardly exist
    C                              D
You gave me your hand, I gave you a fist
             G                   C
Please don't lose any sleep over me, baby
           D
I hardly exist
            C                     D
You gave me everything, still I resist
             G                   C
Please don't lose any sleep over me, baby
           D
I hardly exist
           C
I hardly exist 



Guitar(throughout)
Note that the bottom note of each broken chord is often so soft that it is not even heard

(0:01)
   G               D               C               G       D
e|---3-------3-------5-------5-------3-------3-------3-------5-------5-----|
b|-------3-------3-------7-------7-------5-------5-------3-------7-------7-|
g|-4---4---4---4---7---7---7---7---5---5---5---5---4---4---7---7---7---7---|
d|-------------------------------------------------------------------------|
a|-------------------------------------------------------------------------|
e|-------------------------------------------------------------------------|
   C               Eb              Bb              C
e|---3-------3-------6-------6-------6-------6-------8-------8------|
b|-------5-------5-------8-------8-------6-------6-------8-------8--|
g|-5---5---5---5---8---8---8---8---7---7---7---7---9---9---9---9----|
d|------------------------------------------------------------------|
a|------------------------------------------------------------------|
e|------------------------------------------------------------------|

(0:17)
   G#              F#              E
e|---4-------4-------6-------6-------4-------4-------4-------4------|
b|-------4-------4-------7-------7-------5-------5-------5-------5--|
g|-5---5---5---5---6---6---6---6---4---4---4---4---4---4---4---4----|
d|------------------------------------------------------------------|
a|------------------------------------------------------------------|
e|------------------------------------------------------------------|
   G#              F#              E
e|---4-------4-------6-------6-------4-------4-------4-------4------|
b|-------4-------4-------7-------7-------5-------5-------5-------5--|
g|-5---5---5---5---6---6---6---6---4---4---4---4---4---4---4---4----|
d|------------------------------------------------------------------|
a|------------------------------------------------------------------|
e|------------------------------------------------------------------|

(0:32)
   C               D               G               C
e|---3-------3-------5-------5-------3-------3-------3-------3------|
b|-------5-------5-------7-------7-------3-------3-------5-------5--|
g|-5---5---5---5---7---7---7---7---4---4---4---4---5---5---5---5----|
d|------------------------------------------------------------------|
a|------------------------------------------------------------------|
e|------------------------------------------------------------------|
   C               D               G               C
e|---3-------3-------5-------5-------3-------3-------3-------3------|
b|-------5-------5-------7-------7-------3-------3-------5-------5--|
g|-5---5---5---5---7---7---7---7---4---4---4---4---5---5---5---5----|
d|------------------------------------------------------------------|
a|------------------------------------------------------------------|
e|------------------------------------------------------------------|

                                   (0:51)
   C               Eb              G               Bb
e|---3-------3-------6-------6-------3-------3-------6-------6------|
b|-------5-------5-------8-------8-------3-------3-------6-------6--|
g|-5---5---5---5---8---8---8---8---4---4---4---4---7---7---7---7----|
d|------------------------------------------------------------------|
a|------------------------------------------------------------------|
e|------------------------------------------------------------------|
   Eb              Bb              Eb              Bb
e|---6-------6-------6-------6-------6-------6-------6-------6-------6--------|
b|-------8-------8-------6-------6-------8-------8-------6-------6-------6----|
g|-8---8---8---8---7---7---7---7---8---8---8---8---7---7---7---7---7---7---7--|
d|----------------------------------------------------------------------------|
a|----------------------------------------------------------------------------|
e|----------------------------------------------------------------------------|

(1:04)
   G               D               C               G       D
e|---3-------3-------5-------5-------3-------3-------3-------5-------5-----|
b|-------3-------3-------7-------7-------5-------5-------3-------7-------7-|
g|-4---4---4---4---7---7---7---7---5---5---5---5---4---4---7---7---7---7---|
d|-------------------------------------------------------------------------|
a|-------------------------------------------------------------------------|
e|-------------------------------------------------------------------------|
   C               Eb              Bb              C
e|---3-------3-------6-------6-------6-------6-------8-------8------|
b|-------5-------5-------8-------8-------6-------6-------8-------8--|
g|-5---5---5---5---8---8---8---8---7---7---7---7---9---9---9---9----|
d|------------------------------------------------------------------|
a|------------------------------------------------------------------|
e|------------------------------------------------------------------|
   C       G               D
e|---8-------3-------3-------5-------5-------7---7---5------|
b|-------8-------3-------3-------7-------7---------------7--|
g|-9---9---4---4---4---4---7---7---7---7---7---7---7---7----|
d|----------------------------------------------------------|
a|----------------------------------------------------------|
e|----------------------------------------------------------|

(1:27)
   C               D               G
e|-----------8---------------------------------------|
b|---8---------------10--12--10------12--1315--12----|
g|-------9-------8---------------11----------12------|
d|-10--10--10--10--12--12--12--12--12--12--------12--|
a|---------------------------------------------------|
e|---------------------------------------------------|
   C               D
e|---------------------------------------------------|
b|---8-------8-------10-------10------10--12--10-----|
g|-------9-------9-------9--------9---------------9--|
d|-10--10--10--10--12--12--12--12--12--12--12--12----|
a|---------------------------------------------------|
e|---------------------------------------------------|

   C               D               G
e|-----------8---------------------------------------|
b|---8---------------10--12--10------12--1315--12----|
g|-------9-------8---------------11----------12------|
d|-10--10--10--10--12--12--12--12--12--12--------12--|
a|---------------------------------------------------|
e|---------------------------------------------------|
   C               D
e|---------------------------------------------------|
b|---8-------8-------10-------10------10--12--10-----|
g|-------9-------9-------9--------9---------------9--|
d|-10--10--10--10--12--12--12--12--12--12--12--12----|
a|---------------------------------------------------|
e|---------------------------------------------------|

   C               D               G
e|-----------8---------------------------------------|
b|---8---------------10--12--10------12--1315--12----|
g|-------9-------8---------------11----------12------|
d|-10--10--10--10--12--12--12--12--12--12--------12--|
a|---------------------------------------------------|
e|---------------------------------------------------|
   C               D
e|---------------------------------------------------|
b|---8-------8-------10-------10------10--12--10-----|
g|-------9-------9-------9--------9---------------9--|
d|-10--10--10--10--12--12--12--12--12--12--12--12----|
a|---------------------------------------------------|
e|---------------------------------------------------|
   C
e|----------------------------------|
b|---8-------8-------8-------8------|
g|-------9-------9-------9-------9--|
d|-10--10--10--10--10--10--10--10---|
a|----------------------------------|
e|----------------------------------|


(1:04)
Keyboard
   G                         D          C          G     D
e|-1515-1515-1515-1515-15-15-14-12-10-8-12------12-15-17-14-|
b|----------------------------------------------------------|
g|-1616-1616-1616-1616-16-16-14-12-11-9-12------12-16-17-14-|
d|----------------------------------------------------------|
a|----------------------------------------------------------|
e|----------------------------------------------------------|

(1:25)
Keyboard(different sound)
   D     C       D        G        C        D
e|---7-5-------7-5---7-8--7---10-7-------8-----------|
b|-7-8-7-8--75-8-7---8-10-8---12-8-8-----10-10--87---|
g|-7-----9--75---------------------9--------11--97---|
d|---------------------------------------------------|
a|---------------------------------------------------|
e|---------------------------------------------------|

       C       D        G        C        D
e|-7-5-------7-5---7-8--7---10-7-------8-----------|
b|-8-7-8--75-8-7---8-10-8---12-8-8-----10-10--87---|
g|-----9--75---------------------9--------11--97---|
d|-------------------------------------------------|
a|-------------------------------------------------|
e|-------------------------------------------------|
       C       D        G        C        D                C
e|-7-5-------7-5---7-8--7---10-7-------8-----------------7---------|
b|-8-7-8--75-8-7---8-10-8---12-8-8-----10-10--87---------8-8--75---|
g|-----9--75---------------------9--------11--97-----------9--75---|
d|-----------------------------------------------------------------|
a|-----------------------------------------------------------------|
e|-----------------------------------------------------------------|


~~~~~~~~~~~~~~~~~~~~~~~~~~~~~~~~~~~~~~~~~~~~~~~~~~~~~~~~~~~~~~~~~~~~~


3. Derailments In A Place of Our Own


Dm     C#dim7
Dm     Bb7
Gm     Dm
Bbm    Db

Ebm    Bbm   Ab

Ebm    Bbm   Ab

Ebm    Bbm   Ab  G

Bm     Bb

(Acoustic Guitar)
Bb5

   A5
So she's depressed
         D5
And I am losing my mind
        C5
It's so difficult now
                    G5
Yes, everything has changed
      Bb5                     F5  (not the lowest)
As we struggle against some impossible current

G5                     D5     C5
How can we make things light again?
D5         C5
How can we win?


   A5             D5
Is happiness even possible?
      C5                       G5
Don't say you don't believe anymore
      Bb5              F5
Don't say that you are lost to me now
       Ab5                         Eb5
It's a free fucking world, you can go where you want

G5                     D5     C5
How can we make things light again?
D5         C5
How can we win?
G5                     D5     C5
How can we make things light again?
D5         C5
How can we win?


       Ab5           
It's a mad free fucking world
        Eb5
You can do what, go where you want
C5              Bb5
Leave me, don't leave me alone
D5              Bb5
Leave me, don't leave me alone
       Ab5                          Eb5
It's a free fucking world, you can go where you want 

Eb5



Note: while most of the chords are power chords, Kevin sometimes lets the
next note of the bar chord in, particularly on chords that start on the
low E string. Also some of the chords that are on the A string include a 
note on the E string (i.e. at the same fret as the bass note)


Intro 
(0:00)

Keyboard (echo on every chord)
   Dm      C#dim7  Dm      Bb7     Gm      Dm
e|-------------------------------------------------|
b|-3-------2-------3-------3-------3-------3-------|
g|-2-------3-------2-------3-------3-------2-------|
d|-3-------2-------3-------3-------5-------3-------|
a|-------------------------------------------------|
e|-------------------------------------------------|
Strings 1
e|-----1-------3---------3-4---43--5--3------------|
b|---3---3---5---5---3-6---------6-------6-653-----|
g|--------------------------------------------52---|
d|-------------------------------------------------|
a|-------------------------------------------------|
e|-------------------------------------------------|
Strings 2
e|-----------------3---------------3-------5-------|
b|-3-------2-----5---3---5-6-----2-------3-------6-|
g|---------------------------2-3-------------------|
d|-------------------------------------------------|
a|-------------------------------------------------|
e|-------------------------------------------------|

Keyboard
   Bbm     Db      Ebm     Bbm     Ab      Ebm     Bbm
e|---------1-------2-------1-------4-------2-------1-------|
b|-2-------2-------4-------2-------4-------4-------2-------|
g|-3-------1-------3-------3-------5-------3-------3-------|
d|-3-------------------------------------------------------|
a|---------------------------------------------------------|
e|---------------------------------------------------------|
Strings 1
e|-----------986---6-------6-------8----6--6-------6-------|
b|---986--------96-------------6----------9------------6---|
g|------86-------------------------------------------------|
d|---------------------------------------------------------|
a|---------------------------------------------------------|
e|---------------------------------------------------------|
Strings 2
e|-4-------4-----------------------------------------------|
b|-------6-------2-----------------------------------------|
g|---------------------------------------------------------|
d|---------------------------------------------------------|
a|---------------------------------------------------------|
e|---------------------------------------------------------|

Keyboard
   Ab      Ebm     Bbm     Ab      G             Bm      Bb
e|-4-------2-------1-------4-------3-------------2-------1----|
b|-4-------4-------2-------4-------3-------------3-------3----|
g|-5-------3-------3-------5-------4-------------4-------3----|
d|------------------------------------------------------------|
a|------------------------------------------------------------|
e|------------------------------------------------------------|
Strings 1
e|-8----6--6-------6-------8----6--7-----(hold)----------6----|
b|--------9------------6----------9---------------------------|
g|------------------------------------------------------------|
d|------------------------------------------------------------|
a|------------------------------------------------------------|
e|------------------------------------------------------------|


~~~~~~~~~~~~~~~~~~~~~~~~~~~~~~~~~~~~~~~~~~~~~~~~~~~~~~~~~~~~~~

4. Miss Blonde Your Papa Is Failing


C5

F#m7b5/A      Fmaj7/A 
Little friend, what ever happened?
   F#m7b5/A            C       Fadd9/C
You should know I went down so hard 
          G/D               F/C   G/D
Trying to keep the family together
           F/C     G/D
The family together


Sweet friend, know I love you 
And I've been struggling so hard, so hard 
Trying to keep the family together
The family together
             F#m7b5/A  F  F#m7b5/A 
The family together

C5

Cmaj7       A7
When I look in your eyes
Dm7      G7
I see me looking back
Cmaj7        A7        Dm7         G7
It's kind of creepy how you own my heart
     Dm7         G7
Yeah, you own my heart
     Dm7         Am    G
Yeah, you own my heart
           Fmaj7
Let's stay together

Sweet friend, was I born to give you a name
And then be erased
All because I couldn't keep it together
Couldn't keep it together?

Little friend, I know I've made it 
So, so much harder on us 
And lost you 
Because I couldn't keep it together
Couldn't keep it together
Couldn't keep it together

When I look in your eyes
I see me looking back
It's kind of creepy how you own my heart
Yeah, you own my heart
Yeah, you own my heart
             Fmaj7           C
Let's stay together 



F#m7b5/A    Fmaj7/A
C

F#m7b5/A    Fmaj7/A
C

F#m7b5/A    Fmaj7/A
C



Intro  (0:00)

Acoustic Guitar
   C
e|----------------------------------|
b|----------------------------------|
g|---5---5---5---5---5---5---5---0--|
d|-----5-------5-------5-------5----|
a|-3---------------3----------------|
e|---------3---------------3--------|


(0:05)
Verse

e|-------------------------------------------------0---------3-----|
b|-5-----5---------5-----5---------5-----5-----------1---1-----1---|
g|---5-------5---5---5-------5---5---5-------5---5-----0---2-----2-|
d|-----4-------4-------3-------3-------4-------4-------------------|
a|-0-------0-------0-------0-------0-------0-------3-------3-------|
e|-----------------------------------------------------------------|


e|-------3---------------1----------------3----------------1----------------3----------|
b|-3----(3)--3-----1----(1)---1-----3----------3-----1----------1-----3---------3------|
g|---4---------4-----2----------2-----4----------4-----2----------2-----4---------4----|
d|-----5---------5-----3----------3-----5----------5-----3----------3-----5---------5--|
a|-5-------5-------3--------3-------5--------5-------3--------3-------5-------5--------|
e|-------------------------------------------------------------------------------------|

(0:27)
Verse

(0:49)
Post-Verse


e|-----------------------1----------------------------------------------------------|
b|-5-----5---------1---------1-----5-----5------------------------------------------|
g|---5-------5---5---2---------2-----5-------5---5---5---5---5---5---5---5----5---0-|
d|-----4-------4-------3---------3-----4-------4-------5-------5-------5--------5---|
a|-0-------0-----------------------0---------------3---------------3----------------|
e|-----------------1-------1-------------------------------3---------------3--------|

(1:00)
Chorus

Piano
   Cmaj7   A7      Dm7     G7       Cmaj7   A7      Dm7     G7
e|-7-------9-------8-------10-------7-------9-------8-------10-------|
b|-8-------8-------10------12-------8-------8-------10------12-------|
g|-9-------9-------10------10-------9-------9-------10------10-------|
d|-----------------0--------------------------------0-------------10-|
a|---------0---------------10---------------0---------------10-------|
e|-8-------------7------------------8-------------7------------------|
Strings
e|-----------------1-------1------------------------1-------1--------|
b|-0-------2-------1-------3--------0-------2-------1-------3--------|
g|-0-------0-------2-------4--------0-------0-------2-------4--------|
d|-2-------2------------------------2-------2------------------------|
a|-------------------------------------------------------------------|
e|-------------------------------------------------------------------|

Piano
   Dm7     G7       Dm7     Am  G                 Fmaj7
e|-8-------10-------8-------8---7-----------------5-----------13-----|
b|-10------12-------10------10--8-----------------5---------13--13---|
g|-10------10-------10------9---7-----------------5-------14------14-|
d|-0-------------10-0-------7---5-------5---------3------------------|
a|---------10--------------------------------------------------------|
e|-------------------------------------------------------------------|
Strings
e|-1-------1--------1-------5---3-----------------0------------------|
b|-1-------3--------1-------5---3-----------------1------------------|
g|-2-------4--------2-------5---4-----------------2------------------|
d|------------------------------------------------3------------------|
a|-------------------------------------------------------------------|
e|-------------------------------------------------------------------|

(1:37)
Verse x2
(2:21)
Post-Verse
(2:33)
Chorus - hold the Fmaj7 longer, don't play the last piano riff


(3:14)
Outro

Guitar 1
   C     F#m7b5/A   Fmaj7/A    C
e|-7-7-7-5-------5-/8----12108-8-/1012----12121212108--|
b|-8-8-8-7-------7-/10---13121010/1213----131313131210-|
g|-----------------------------------------------------|
d|-----------------------------------------------------|
a|-----------------------------------------------------|
e|-----------------------------------------------------|
Guitar 2
e|---3--------------------------------3-----5-----3----|
b|-5---5-5---55-3---5---55-3---5---55---5-5---5-5---5--|
g|-5-----5---55---5-5---55---5-5---55-----5-----5------|
d|-5-----4---44-----3---33-----5---55-----5-----5------|
a|-3-----0---00-----0---00-----3---33-----3-----3------|
e|-----------------------------------------------------|

Guitar 1
   F#m7b5/A   Fmaj7/A    C
e|-7-5-----5-/8----12108-8-/1012----12121212108--|
b|-8-7-----7-/10---13121010/1213----131313131210-|
g|-----------------------------------------------|
d|-----------------------------------------------|
a|-----------------------------------------------|
e|-----------------------------------------------|
Guitar 2
e|------------------------------3-----5-----3----|
b|-5---55-3---5---55-3---5---55---5-5---5-5---5--|
g|-5---55---5-5---55---5-5---55-----5-----5------|
d|-4---44-----3---33-----5---55-----5-----5------|
a|-0---00-----0---00-----3---33-----3-----3------|
e|-----------------------------------------------|

Guitar 1
   F#m7b5/A   Fmaj7/A    C
e|-7-5-----5-/8----12108--12---|
b|-8-7-----7-/10---131210-13---|
g|-----------------------------|
d|-----------------------------|
a|-----------------------------|
e|-----------------------------|
Guitar 2
e|-----------------------------|
b|-5---55-3---5---55-3----5----|
g|-5---55---5-5---55---5--5----|
d|-4---44-----3---33------5----|
a|-0---00-----0---00------3----|
e|-----------------------------|


~~~~~~~~~~~~~~~~~~~~~~~~~~~~~~~~~~~~~~~~~~~~~~~~~~~~~~~~~~~~~~


5. No Conclusion




(single notes)
D                                 A
Tonight I feel like I should just destroy myself 
F                                 Gm        Bb   F      Bb
Tonight I feel like I should just explode myself      myself 
(full chords)
D                                 A
Tonight I feel like I should just destroy myself 
Fmaj7                             Gm7       Bb   F6/C   Bb
Tonight I feel like I should just explode myself      myself

                C
There's someone calling my name 
            C#dim7
But there's nothing to respond 
  Bb
I lost so much in our collapse 
Bbm
Man, my little hope is gone 

        (muted)F
The voice said don't worry friend 
    Bb
The darkness is just a suggestion 
   F
Oh don't worry kid 
     Bb
This darkeness is just a suggestion 
   F
Oh don't worry Kevin 

Tonight I feel like I should just destroy myself  
Tonight I feel like I should just explode myself myself
 F6/C   Bb
Myself myself

There's someone calling my name 
But there's nothing to respond 
I lost so much in our collapse 
Man, my little hope is gone 

The voice said don't worry friend 
The darkness is just a suggestion 
Oh don't worry kid 
This darkeness is just a suggestion 
Oh don't worry kid 

Tonight I feel like I should just destroy myself 
Tonight I feel like I should just explode myself myself
Myself myself

F
C

      D
I'm allergic to the world when we're separated 
There's nothing in my heart that's worth the beating 
               C
Feeling like a styrofoam prop 
Ennui is eating 
D
            C
Oh sure we talk and talk 
But nothing worth repeating 
F
G        F#
I feel defeated 
F
G        F#
I feel defeated 
F
G 
I feel defeated 
(instrumental)
G                F#
G                F#
G                F#

        Em             B7
Now I'm O.D.ing on your cocksucker blues 
    A7
You make me uptight 
         B7         Em/F# Em
When you just don't work  right 
    Bm                                C
You painted my prison now something's wrong 
      Bb                   C          F
And I never ever wanted to write this song 

F         Bb
F         Bb
F             F#maj7            F
I'm killing myself but it's not suicide 
    F#maj7
I'm killing myself 
F         Bb
F         Bb
F             F#maj7            F
I'm killing myself but it's not suicide 
    F#maj7
I'm killing myself 
       F            E      F            E      G#
And my friends will never (friends will never) know 
                   F  F#  G#
Because I've never been 
  Bbm              B    E           F#
Because I've never been honest with anyone 

F13            E7             F13           E7            A
Always pulling faces from the unreposessing places of the universal mind 

    D
I'm crippled by the world when we're divided 
There's nothing in my heart that's worth the clicking 
               C
Feeling like a Pamplona bull that's finished kicking 
D

            C
Although we try to break the loop 
It's always stuck repeating 

I feel defeated 
I feel defeated
I feel defeated

(instrumental section goes much longer, same chords)

Now I'm O.D.ing on your cocksucker blues 
You make me uptight 
When you just don't work right 
    Bm                                C
You painted my prison now something's wrong 
      Bb                   C          F
And I never ever wanted to write this song 
  Am                          Bb
I always thought things would change somehow 
             C#dim7         Gm
And we would start getting along 
         C         Bb
But it's hopeless, hopeless 

And I never ever wanted to write this song 
I always thought things would change somehow 
And we would start getting along 
But it's hopeless, hopeless

And I never ever wanted to write this song 
I always thought things would change somehow 
And we would start getting along 
But it's hopeless, hopeless

And I never ever wanted to write this song 
I always thought things would change somehow 
And we would start getting along 
But it's hopeless, hopeless

(Strings take over, doing the same chords)



Intro:(0:00)

e|------------------------------------------------------------------|
b|------------------------------------------------------------------|
g|------------------------------------------------------------------|
d|------------------------------------------------------------------|
a|-5555555555555555-------------------------------------------------|
e|-----------------555555555555555511111111111111113333333366666666-|

e|----------------------------------|
b|----------------------------------|
g|----------------------------------|
d|----------------------------------|
a|-8888888888888888-----------------|
e|-----------------6666666666666666-|


(3:18)
Guitar
   D
e|-----5-------5---------------|
b|-3-------3---7---------------|
g|-----6---4-------2-/-9-\-7---|
d|-4---------------4-/-11\-7---|
a|-----------------------------|
e|-----------------------------|


(3:26)
   F                 G    F#
e|------------------------------|
b|------------------------------|
g|------------------------------|
d|------------------------------|        x 3
a|-----3-3-5-5/12---------------|
e|-1-1--------------------------|


(3:37)
   G               F#
e|-----3---8---7---------------|
b|-5-3-3-3-10--9-------7---7-5-|
g|-4---4-----------6-----6-6---|
d|-5-4-------------8-----8-----|
a|-----------------------------| repeat as necessary
e|-----------------------------|


(4:11)
Guitar 1
       F        Bb      F       Bb
e|----|-------------------------------|
b|----|-------------------------------|
g|----|---------33333-----------333---|
d|-6s-|33333----33333---33333---333---|
a|----|33333----11111---33333---111---|
e|----|11111------------11111---------|
Guitar 2
e|----|--------------b6r5-------------|
b|----|------4s6------------6---------|
g|----|-------------------------------|
d|----|-------------------------------|
a|----|-------------------------------|
e|----|-------------------------------|


Keyboard over outro
   Bb            C7        F         Fmaj7          Bb
e|------------10-12----------------------------------------10------|
b|-11------11--------13--------------------------13-11-------11----|
g|-----10---------------12-------14------12--14---------10-----10--|
d|-----------------------------15----14----------------------------|
a|-------------------------15--------------------------------------|
e|-----------------------------------------------------------------|
   C#dim7         Gm        C                         Bb
e|-9--------------10--------12-------------12--15--12-------------10--13--10---------|
b|----11--------------11--------13------13------------11------11----------------11---|
g|--------12-9-12--------12---------12--------------------10----------------------10-|
d|-----------------------------------------------------------------------------------|
a|-----------------------------------------------------------------------------------|
e|-----------------------------------------------------------------------------------|

Strings:(outro)
   Bb    C7  F Fmaj7 Bb  C#dim7 Gm C
e|-1-----6---1-0----------------3--3---|
b|-3-----5---1-1-----3---5------3--5---|
g|-3-----5---2-2-----3---3------3--5---|
d|-----------------------5-------------|  repeat till end
a|-1-----3-----------1---4---------3---|
e|-----------1-1----------------3------|


**********************************************************
Chords

   Fmaj7  F6/C  C#dim7  F#maj7  F13  Em/F#
e|-0------5----(3)-------------------0--|
b|-1------3-----5-------2-------3----0--|
g|-2------5-----3-------3-------2----0--|
d|-3------3-----5-------3-------1----2--|
a|-3------3-----4-------4------------2--|
e|-1--------------------2-------1----2--|

comments
We did not receive enough feedback on this tab! Please rate:
print report bad tab
1 2 3 4 5
I want to post or [tab]
guest
You may want to rate the tab now too:
select rating
Please do not post tabs as comments. Select "correction" instead!