Oops, an error
Loading. Please wait.

Americana Bass Tab

ver1
ver1

Album

Whole song

More versions @911Tabs.com
11,796 views 9 this week
2 commentsread comments
1 2 3 4 5
excellent!
x 7
Autoscroll
+/-
esc
set tempo
stop
Contributor
Hey! There's an official Ultimate Guitar app which is ideal
for learning songs when you're away from computer. Get the app
WARNING: You are trying to view
                                    content from Ultimate-Guitar.com
                                    in an unauthorized application,
                                    which is prohibited.

                                    Please use an official Ultimate
                                    Guitar Tabs application for iPhone,
                                    iPad or Android to access legitimate
                                    chords, guitar, bass, and drum tabs
                                    from Ultimate-Guitar.com database.

                                    Type "ultimate guitar tabs" in Apple
                                    App Store's or Android Market's
                                    search to find the application.
++++++++++++++++++++++++++++
| The Offspring- Americana |
++++++++++++++++++++++++++++

Bass Tab
Album: "Americana" -- 1998
Tabbed By: RaiLeff
E-Mail: Underground__Dora@Hotmail.Com

After a long long time for me without tabbing anything
I decided I wanted to come back to UG with this awesome band
and one of their best album and songs
Hope you enjoy!!!

Tuning: EADG and Drop D

Keys:

| x: Mute
| ~: Let Ring
| /: Slide Up
| \: Slide Down
| h: Hammer On
| p: Pull Off

Tracks:

1. Welcome
2. Have You Ever
3. Staring At The Sun
4. Pretty Fly (For A White Guy)
5. The Kids Aren't Alright 
6. Feelings
7. She's Got Issues
8. Walla Walla
9. The End Of The Line
10. No Brakes
11. Why Don't You Get A Job?
12. Americana
13. Pay The Man

_________________________________________________________

1. Welcome

No bass!!

Welcome to Americana
Please make your selection
Followed by the pound sign now

_________________________________________________________

2. Have You Ever

Tuning: EADG

Intro
1.
G|-----------------------------------------------------------------------|
D|-2--------2--------2--------2--------2--------2------------------------|
A|-----------------------------------------------------------------------|
E|---000000---000000---000000---000000---000000---0000000000000000000000-|

Chorus
"Falling, Im falling..."
2.
G|-------------------------------------------------------------------------|
D|-22222222-22222222----------00000000-22222222-22222222----------00000000-|
A|-------------------------------------------------------------------------|
E|-------------------33333333----------------------------33333333----------|

Verse
"Have you ever walked through a room..."
3.
G|-------------------------------------------------------------------------|
D|-------------------------------------------------------------------------|
A|-------------------------------------55555555-55555555-00000033-22222222-|--x2
E|-00000000-00000000-33333333-33333333-------------------------------------|

Pre-Chorus
"Well I know..."
4.
G|-------------------------------------------------------------------------|
D|-22222222-------------------00000000-22222222-------------------00000000-|
A|----------33333333----------------------------33333333-------------------|
E|-------------------33333333----------------------------33333333----------|

Chorus
"Falling, Im falling..."
5.
G|-------------------------------------------------------------------------|
D|-22222222-------------------00000000-22222222-------------------00000000-|
A|----------33333333----------------------------33333333-------------------|
E|-------------------33333333----------------------------33333333----------|

Verse
"Have you ever buried your face in your hands..."
6.
G|-------------------------------------------------------------------------|
D|-------------------------------------------------------------------------|
A|-------------------------------------55555555-55555555-00000033-22222222-|--x2
E|-00000000-00000000-33333333-33333333-------------------------------------|

Pre-Chorus
"Well I know..."
7.
G|-------------------------------------------------------------------------|
D|-22222222-------------------00000000-22222222-------------------00000000-|
A|----------33333333----------------------------33333333-------------------|
E|-------------------33333333----------------------------33333333----------|

Chorus
"Falling, Im falling..."
8.
G|-------------------------------------------------------------------------|
D|-22222222-------------------00000000-22222222-------------------00000000-|
A|----------33333333----------------------------33333333-------------------|--x2
E|-------------------33333333----------------------------33333333----------|

Now all the instruments mute up for a really boring part
and come back in 2:33

While you play this one, start slowing down a bit

9.
G|------------------------------------------------------------------------|
D|-2--------2--------2--------2--------2--------2-------------------------|
A|------------------------------------------------------------------------|
E|---000000---000000---000000---000000---000000---00000000000000000000000-|

Bridge (Bass Solo)
10.
G|-----------------------------------------------------------------------------------|
D|-----------------------------------------------------------------------------------|
A|----------5555/7777-3333/55--------------7-777------5555/7777-3333/55--------------|
E|-2-5-3333-------------------0-2-3~-2~-0~-------3333-------------------0-2-3~-2~-0~-|

Outro
"When the truth walks away..."
11.
G|---------------------------------------------------------------------------------------|
D|---------------------------------------------------------------------------------------|
A|-7-7777------5555/7777-3333/55--------------7-7777------5555/7777-3333/55--------------|--x3
E|--------3333-------------------0-2-3~-2~-0~--------3333-------------------0-2-3~-2~-0~-|

"I'd like to live the world..."
12.
G|----------------------------------------------------------|
D|----------------------------------------------------------|
A|-7--3333/55--------------7-3333/55--------------7-3333-5~-|
E|------------0-2-3~-2~-0~-----------0-2-3~-2~-0~-----------|

Lyrics:

Falling, I'm falling

Have you ever walked through a room
But it was more like the room passed around you
Like there was a leash around your neck that pulled you through
Have you ever been at someplace
Recognizing everybody's face
Until you realized that there was no one there you knew
Well I know

Some days, my soul's confined and out of mind
Sleep forever
Some days, I'm so outshined and out of time
Have you ever

Have you ever buried your face in your hands
Cause no one around you understands
Or has the slightest idea what it is that makes you be
Have you ever felt like there was more
Like someone else was keeping score
And what could make you whole was simply out of reach
Well I know

Someday I'll try again and not pretend
This time forever
Someday I'll get it straight but not today
Have you ever
Some days, my soul's confined and out of mind
Sleep forever
Some days, my darkest friend is me again
Have you ever
Someday I'll try again and not pretend
This time forever
Someday I'll get it straight but not today
Have you ever

When the truth walks away
Everybody stays
Cause the truth about the world is that crime does pay
So if you walk away
Who is gonna stay
Cause I'd like to think the world is a better place

Cause I'd like to make the world be a better place

Cause I'd like to think the world is a better place
I'd like to leave the world as a better place
I'd like to think the world

_________________________________________________________

3. Staring At The Sun

Tuning: EADG

Intro
"Maybe life is like a ride on a freeway..."
1.
G|-------------------M----------------------------------------------------|
D|-------------------U----------------------------------------------------|
A|-------------------T----------------------------------------------------|
E|-------------------E----------------------------------------------------|

Verse
"If I seem bleak..."
2.
G|-----------------------------------------------------------------------------------|
D|-----3333-3----------------3333-3----------------3333-3----------------3-3-5-5-7-7-|
A|-555--------------3334-555--------------3334-555--------------3334-5-5-------------|
E|------------333-3-----------------333-3-----------------333-3----------------------|

Chorus
"As you're staring at the sun..."
3.
G|-----------------------------------------------------------------------------------|
D|-----3333-3----------------3333-3----------------3333-3----------------3-3-5-5-7-7-|
A|-555--------------3334-555--------------3334-555--------------3334-5-5-------------|
E|------------333-3-----------------333-3-----------------333-3----------------------|

Outro
4.
G|-----------------|
D|-----------------|
A|-555-553-555-553-|
E|-----------------|

Verse
"When I ran I didnt feel like a runaway..."
5.
G|-----------------------------------------------------------------------------|
D|----------------------------------------------------------3-33-333-----------|
A|-5-55----------3333-5-55----------3333-5-55----------3333----------1111-3333-|
E|------111-3333-----------111-3333-----------111-3333-------------------------|

"Though you hear me..."
6.
G|-----------------------------------------------------------------------------|
D|---------------------------------------------------------------3-3-35-5-57-7-|
A|-5-55----------3333-5-55----------3333-5-55----------3333-5-5-5--------------|
E|------111-3333-----------111-3333-----------111-3333-------------------------|

Chorus
"As you're staring at the sun..." (Fast picking...)
7.
G|-------------------------------------------------------------------------|
D|----------33333333-55555555-------------------33333333-55555555----------|
A|-55555555-------------------33333333-55555555-------------------33333333-|
E|-------------------------------------------------------------------------|

Verse
"When I ran I didnt feel like a runaway..."
8.
G|-----------------------------------------------------------------------------|
D|----------------------------------------------------------3-33-333-----------|
A|-5-55----------3333-5-55----------3333-5-55----------3333----------1111-3333-|
E|------111-3333-----------111-3333-----------111-3333-------------------------|

"Though you hear me..."
9.
G|-----------------------------------------------------------------------------|
D|---------------------------------------------------------------3-3-35-5-57-7-|
A|-5-55----------3333-5-55----------3333-5-55----------3333-5-5-5--------------|
E|------111-3333-----------111-3333-----------111-3333-------------------------|

Chorus
"As you're staring at the sun..." 
10.
G|-------------------------------------------------------------------------|
D|----------33333333-55555555-------------------33333333-55555555----------|
A|-55555555-------------------33333333-55555555-------------------33333333-|
E|-------------------------------------------------------------------------|

Bridge
"Maybe life is like a ride on a freeway..."
11.
G|------------------------------------------------------------|
D|-----------------------------------------33333333-----------|
A|-5x--------3-5x--------334-5x--------335----------1111-3333-|
E|------------------------------------------------------------|

Verse
"If I seem bleak..."
12.
G|--------------------------------------------------------------------------------|
D|------------------------------------------------------------------3-3-35-5-57-7-|
A|-5555-----------3333-5555-----------3333-5555-----------3333-5-5-5--------------|
E|------1111-3333-----------1111-3333-----------1111-3333-------------------------|

Chorus
"As you're staring at the sun..."
13.
G|--------------------------------------------------------------------------------|
D|------------------------------------------------------------------3-3-35-5-57-7-|
A|-5555-----------3333-5555-----------3333-5555-----------3333-5-5-5--------------|
E|------1111-3333-----------1111-3333-----------1111-3333-------------------------|

Outro
14.
G|-----------|
D|-----------|
A|-5x--------|
E|-----------|

Lyrics:

Maybe life is like a ride on a freeway
Dodging bullets while you're trying to find your way
Everyone's around, but no one does a damn thing
It brings me down, but I won't let them

If I seem bleak
Well you'd be correct
And if I don't speak
It's cause I can't disconnect
But I won't be burned by the reflection
Of the fire in your eyes
As you're staring at the sun

When I ran I didn't feel like a runaway
When I escaped I didn't feel like I got away
There's more to living than only surviving
Maybe I'm not there, but I'm still trying

Though you hear me
I don't think that you relate
My will is something
That you can't confiscate
So forgive me, but I won't be frustrated
By destruction in your eyes
As you're staring at the sun

____________________________________________________________

4. Pretty Fly (For A White Guy)

Tuning: EADG

Give it to me baby, uh-huh
And all the girlies say Im pretty fly (for a white guy)

Intro
1.
G|--------------------------------------------------------------------------|
D|---------------2-0---------------2-0---------------2-0----------------2-0-|
A|-2--2---0-2--2-----2--2---0-2--2-----2--2---0-2--2-----2--2---0-2x--2-----|
E|------2-----------------2-----------------2-----------------2-------------|

Verse
"You know its kinda hard just to get along today..."
2.
G|--------------------------------------------------------------------------|
D|---------------2-0---------------2-0---------------2-0----------------2-0-|
A|-2--2---0-2--2-----2--2---0-2--2-----2--2---0-2--2-----2--2---0-2x--2-----|
E|------2-----------------2-----------------2-----------------2-------------|

Chorus
"So dont debate, a player straight..."
3.
G|--------------------------------------------------|
D|-------3h4-3h4-------3h4-3h4-0~--0---0~--2~--0~---|
A|-2~--2---------2~--2---------------0------------0-|
E|--------------------------------------------------|

"He's gonna play the field..."
4.
G|-------------------------------------------------------|
D|-------3h4-3h4-------3h4-3h4-0~--0---0-0h2~--0-2h3p2---|
A|-2~--2---------2~--2---------------0-----------------0-|
E|-------------------------------------------------------|

"So if you dont rate..."
5.
G|--------------------------------------------------|
D|-------3h4-3h4-------3h4-3h4-0~--0---0~--2~--0~---|
A|-2~--2---------2~--2---------------0------------0-|
E|--------------------------------------------------|

"The world needs wannabe's so..."
6.
G|------------------------------------------|
D|-5~--5-0-5~----------------4-3-2-0---2----|
A|-------------0~--0---0~-2x---------0---2x-|
E|-------------------2----------------------|

Outro
"Give it to me baby..."
7.
G|--------------------------------------------------------------------------|
D|---------------2-0---------------2-0---------------2-0----------------2-0-|
A|-2--2---0-2--2-----2--2---0-2--2-----2--2---0-2--2-----2--2---0-2x--2-----|
E|------2-----------------2-----------------2-----------------2-------------|

Verse
"He needs some cool tunes..."
8.
G|--------------------------------------------------------------------------|
D|---------------2-0---------------2-0---------------2-0----------------2-0-|
A|-2--2---0-2--2-----2--2---0-2--2-----2--2---0-2--2-----2--2---0-2x--2-----|
E|------2-----------------2-----------------2-----------------2-------------|

Chorus
"So dont debate, a player straight..."
9.
G|--------------------------------------------------|
D|-------3h4-3h4-------3h4-3h4-0~--0---0~--2~--0~---|
A|-2~--2---------2~--2---------------0------------0-|
E|--------------------------------------------------|

"He's gonna play the field..."
10.
G|-------------------------------------------------------|
D|-------3h4-3h4-------3h4-3h4-0~--0---0-0h2~--0-2h3p2---|
A|-2~--2---------2~--2---------------0-----------------0-|
E|-------------------------------------------------------|

"So if you dont rate..."
11.
G|--------------------------------------------------|
D|-------3h4-3h4-------3h4-3h4-0~--0---0~--2~--0~---|
A|-2~--2---------2~--2---------------0------------0-|
E|--------------------------------------------------|

"The world needs wannabe's so..."
12.
G|------------------------------------------|
D|-5~--5-0-5~----------------4-3-2-0---2----|
A|-------------0~--0---0~-2x---------0---2x-|
E|-------------------2----------------------|

Bridge
"Now he's getting a tattoo..."
13.
G|---------------------------------------4~------------|
D|---------------------------------------------2~--0~--|
A|-2x--------0-2x--------0-2x--------0-2-----2---------|
E|-----------------------------------------------------|

"Friends say he's trying too hard..."
14.
G|---------------------------------------4-2---2-------|
D|-------------------------------------------4---4-2-0-|
A|-2x--------0-2x--------0-2x--------0-2---------------|
E|-----------------------------------------------------|

Outro
15.
G|--------------------------------------------------------------------------|
D|---------------2-0---------------2-0---------------2-0----------------2-0-|
A|-2--2---0-2--2-----2--2---0-2--2-----2--2---0-2--2-----2x-----------2-----|
E|------2-----------------2-----------------2-------------------------------|

Chorus
"So dont debate, a player straight..."
16.
G|--------------------------------------------------|
D|-------3h4-3h4-------3h4-3h4-0~--0---0~--2~--0~---|
A|-2~--2---------2~--2---------------0------------0-|
E|--------------------------------------------------|

"He's gonna play the field..."
17.
G|-------------------------------------------------------|
D|-------3h4-3h4-------3h4-3h4-0~--0---0-0h2~--0-2h3p2---|
A|-2~--2---------2~--2---------------0-----------------0-|
E|-------------------------------------------------------|

"So if you dont rate..."
18.
G|--------------------------------------------------|
D|-------3h4-3h4-------3h4-3h4-0~--0---0~--2~--0~---|
A|-2~--2---------2~--2---------------0------------0-|
E|--------------------------------------------------|

"The world needs wannabe's so..."
19.
G|------------------------------------------------------------------------|
D|-5~--5-0-5~--------------5~--5-0-5~--------------5~--5-0-5~-------------|
A|-------------0~--0---0~--------------0~--0---0~--------------0~--0---0~-|
E|-------------------2-----------------------2-----------------------2----|

"Hey, hey, do that brand new thing..."
20.
G|-------------------|
D|----4-3-2-0---2----|
A|-2x---------0---2x-|
E|-------------------|

Lyrics:

You know it's kind of hard
Just to get along today
Our subject isn't cool
But he fakes it anyway
He may not have a clue
And he may not have style
But everything he lacks
Well he makes up in denial

So don't debate, a player straight
You know he really doesn't get it anyway
He's gonna play the field, and keep it real
For you no way, for you no way
So if you don't rate, just overcompensate
At least you'll know you can always go on Ricki Lake
The world needs wannabe's
So do that brand new thing

He needs some cool tunes
Not just any will suffice
But they didn't have Ice Cube
So he bought Vanilla Ice
Now cruising in his Pinto, he sees homies as he pass
But if he looks twice
They're gonna kick his lily ass

Now he's getting a tattoo
He's gettin' ink done
He asked for a '13', but they drew a '31'
Friends say he's trying too hard
And he's not quite hip
But in his own mind
He's the dopest trip

The world needs wannabe's
The world loves wannabe's
So let's get some more wannabe's
And do that brand new thing

___________________________________________________________

5. The Kids Aren't Alright

Tuning: EADG

Intro
1.
G|-------------------------------------|
D|-------------------------------------|
A|-1~----------------------------------|
E|----------2~-------4~----------------|

2.
G|-------------------------------------------------------------------------|
D|-------------------------------------------------------------------------|
A|-11111111-11111111-------------------44444444-44444444-------------------|--x2
E|-------------------22222222-22222222-------------------44444444-44444444-|

Verse
"When we were young the future was so bright..."
3.
G|-------------------------------------------------------------------------|
D|-------------------------------------------------------------------------|
A|-11111111-11111111-------------------44444444-44444444-------------------|--x2
E|-------------------22222222-22222222-------------------44444444-44444444-|

Chorus
"Chances thrown, nothing's free..."
4.
G|-------------------------------------------------------------------------|
D|-------------------44444444-44444444-------------------------------------|
A|-11111111-11111111-------------------44444444-44444444-------------------|--x2
E|-------------------------------------------------------44444444-44444444-|

Outro
5.
G|-------------------------------------------------------------------------|
D|-------------------44444444-44444444-------------------------------------|
A|-11111111-11111111-------------------44444444-44444444-------------------|--x2
E|-------------------------------------------------------44444444-44444444-|

Verse
"Jamie had a chance, well she really did..."
6.
G|-------------------------------------------------------------------------|
D|-------------------------------------------------------------------------|
A|-11111111-11111111-------------------44444444-44444444-------------------|--x2
E|-------------------22222222-22222222-------------------44444444-44444444-|

Chorus
"Chances thrown, nothing's free..."
7.
G|-------------------------------------------------------------------------|
D|-------------------44444444-44444444-------------------------------------|
A|-11111111-11111111-------------------44444444-44444444-------------------|--x2
E|-------------------------------------------------------44444444-44444444-|

Bridge
8.
G|-------------------------------------------------------------------------|
D|-------------------------------------------------------------------------|
A|-11111111-11111111-------------------44444444-44444444-------------------|--x2
E|-------------------22222222-22222222-------------------44444444-44444444-|

Chorus
"Chances thrown, nothing's free..."
9.
G|-------------------------------------------------------------------------|
D|-------------------44444444-44444444-------------------------------------|
A|-11111111-11111111-------------------44444444-44444444-------------------|--x2
E|-------------------------------------------------------44444444-44444444-|

Outro
10.
G|-------------------------------|
D|-------------------------------|
A|-1~-------------------------1x-|
E|-------------------------------|

Lyrics:


When we were young the future was so bright
The old neighborhood was so alive
And every kid on the whole damn street
Was gonna make it big and not be beat

Now the neighborhood's cracked and torn
The kids are grown up but their lives are worn
How can one little street
Swallow so many lives

Chances thrown
Nothing's free
Longing for what used to be
Still it's hard
Hard to see
Fragile lives, shattered dreams

Jamie had a chance, well she really did
Instead she dropped out and had a couple of kids
Mark still lives at home cause he's got no job
He just plays guitar and smokes a lot of pot

Jay committed suicide
Brandon OD'd and died
What the hell is going on
The cruelest dream, reality

__________________________________________________

6. Feelings

Tuning: EADG

Intro
1.
G|-----------------------------------------|
D|----------2-2-2---2-2-2---2-2-2-22222222-|
A|-0~--------------------------------------|
E|----------------0-------0----------------|

Verse
"Feelings, nothing more than feelings..."
2.
G|--------------------------------------------------------------------------------|
D|------------------------------------------------------------------------2-2-2-2-|
A|-0-000-000---------------------------------------------------0-000-000----------|--x2
E|-----------4-444-444-3-333-333-2-222-222-1-111-111-3-333-333--------------------|

Chorus
"Feelings, for all my life I'll feel it..." (1 not 11)
3.
G|------------------------------------------------------------------|
D|------------------------------------------------------------------|
A|-----------------33-333-333-333-355-555-577-777-700-000-000-000-0-|
E|-11-111-111-111-1-------------------------------------------------|

"Feelings, oh oh oh feelings..."
4.
G|------------------------------------------------------------------|
D|------------------------------------------------------------------|
A|-----------------33-333-333-333-355-555-522-222-2-----------------|
E|-11-111-111-111-1--------------------------------00-000-000-000-0-|

Verse
"Feelings, feelings like I never liked you..."
5.
G|--------------------------------------------------------------------------------|
D|------------------------------------------------------------------------2-2-2-2-|
A|-0-000-000---------------------------------------------------0-000-000----------|--x2
E|-----------4-444-444-3-333-333-2-222-222-1-111-111-3-333-333--------------------|

Chorus
"Feelings, oh oh oh feelings..." 
6.
G|------------------------------------------------------------------|
D|------------------------------------------------------------------|
A|-----------------33-333-333-333-355-555-577-777-700-000-000-000-0-|
E|-11-111-111-111-1-------------------------------------------------|

"Feelings, oh oh oh feelings..."
7.
G|--------------------------------------------------------------------|
D|--------------------------------------------------------------------|
A|-----------------33-333-333-333-355-555-522-222-2-------------------|
E|-11-111-111-111-1--------------------------------00-000-000-000-00x-|

Bridge
8.
G|--------------------------------------------------------------------------------|
D|------------------------------------------------------------------------2-2-2-2-|
A|-0-000-000---------------------------------------------------0-000-000----------|
E|-----------4-444-444-3-333-333-2-222-222-1-111-111-3-333-333--------------------|

9.
G|-----------------------------------------------------------------------|
D|-----------------------------------------------------------------------|
A|-0-000-000---------------------------------------------------0-000-000-|
E|-----------4-444-444-3-333-333-2-222-222-1-111-111-3-333-333-----------|

10.
G|----------------------------------|
D|-2-2-2---2-2-2---2-2-2-2-22222222-|
A|----------------------------------|
E|-------0-------0------------------|

Chorus
"Feelings, oh oh oh feelings..." 
11.
G|------------------------------------------------------------------|
D|------------------------------------------------------------------|
A|-----------------33-333-333-333-355-555-577-777-700-000-000-000-0-|
E|-11-111-111-111-1-------------------------------------------------|

"Feelings, oh oh oh feelings..."             
12.
G|-----------------------------------------------------------------------------|
D|-------------------------------------------------------------7-5-------------|
A|-----------------33-333-333-333-3-55555555-77777777-00000000-----7-5-3-2-0---|
E|-11-111-111-111-1----------------------------------------------------------3-|

"Feelings, oh oh oh feelings..."
13.
G|-----------------------------------------------------------------------------|
D|-----------------------------------------------------------------------------|
A|------------------3333333333333333-55555555h7777-7-5-3-2~-0~--------------0x-|
E|-1111111111111111------------------------------------------------------------|

Lyrics:


Feelings
Nothing more than feelings
Trying to forget my
Feelings of hate

Imagine
Beating on your face
Trying to forget my
Feelings of hate

Feelings
For all my life i'll feel it
I wish I'd never met you
You'll make me sick again

Feelings, oh oh feelings
Of hate on my mind

Feelings
Feelings like I never liked you
Feelings like I want to kill you
Live in my heart

Feelings
Feelings like I wanna deck you
Feelings like I've gotta get you
Out of my life

Feelings, oh oh feelings
The hate's in my eyes

Feelings, oh oh feelings
You're not very nice


____________________________________________

7. She's Got Issues

Tuning: EADG

Intro
1.
G|-------------------|
D|-------------------|
A|-22222222-22222222-|
E|-------------------|

2.
G|----------------------------------------------------|
D|-22x------2x----------------------------------------|
A|--------0----22x----0-2-4-55x----4-5-7-00x------0---|--x2
E|----------------------------------------------4---4-|

Verse
"Im seeing this girl and she just might be out of her mind..."
3.
G|-----------------------------------------------------|
D|-22x------2------------------------------------------|
A|--------0---0-22x----0-2-4-55x----4-5-7-00x------0---|--x4
E|-----------------------------------------------4---4-|

Chorus
"Yeah, yeah, oh man shes got issues and Im gonna pay..."
4.
G|---------------------------------------------------------------------------------2-2-2--|
D|-222-1h222-----------------------------------222-1h222----------------------------------|
A|-----------1h222-1h222-4h5555555-7---------------------1h222-1h222-4h5555555-7-00-0-0-0-|
E|-----------------------------------4h5555555--------------------------------------------|

Verse
"Now I know she'll feel abandoned if I dont stay over late..."
5.
G|-----------------------------------------------------|
D|-22x------2------------------------------------------|
A|--------0---0-22x----0-2-4-55x----4-5-7-00x------0---|--x2
E|-----------------------------------------------4---4-|

Chorus
"Yeah, yeah, oh man shes got issues and Im gonna pay..."
6.
G|---------------------------------------------------------------------------------2-2-2--|
D|-222-1h222-----------------------------------222-1h222----------------------------------|
A|-----------1h222-1h222-4h5555555-7---------------------1h222-1h222-4h5555555-7-00-0-0-0-|
E|-----------------------------------4h5555555--------------------------------------------|

Bridge
"I dont know how why messed up..."
7.
G|-------------------------------------------------------------------------------|
D|-------------------------------2~-2-2~-2---------------------------------------|
A|-3~-3-3~-3-----------0~-0-0~-0-----------3~-3-3~-3-----------22222222-22222222-|
E|-----------3~-3-3~-3-------------------------------3~-3-3~-3-------------------|

Outro
8.
G|-----------------------------------------------------|
D|-22x------2------------------------------------------|
A|--------0---0-22x----0-2-4-55x----4-5-7-00x------0---|--x2
E|-----------------------------------------------4---4-|

Verse
"Now she talks about her ex nonstop but I dont mind..."
9.
G|-----------------------------------------------------|
D|-22x------2------------------------------------------|
A|--------0---0-22x----0-2-4-55x----4-5-7-00x------0---|--x4
E|-----------------------------------------------4---4-|

Chorus
"Yeah, yeah, oh man shes got issues and Im gonna pay..."
10.
G|---------------------------------------------------------------------------------2-2-2--|
D|-222-1h222-----------------------------------222-1h222----------------------------------|
A|-----------1h222-1h222-4h5555555-7---------------------1h222-1h222-4h5555555-7-00-0-0-0-|--x2
E|-----------------------------------4h5555555--------------------------------------------|

Bridge
"If you think Im controlling..."
11.
G|---------------------------------------------------------------------------------|
D|-------------------------------2~-2-2~-2-------------------------------2~-2-2~-2-|
A|-3~-3-3~-3-----------0~-0-0~-0-----------3~-3-3~-3-----------0~-0-0~-0-----------|
E|-----------3~-3-3~-3-------------------------------3~-3-3~-3---------------------|

"I dont know why you messed up..."
12.
G|-------------------------------------------------------------------------------|
D|-------------------------------2~-2-2~-2---------------------------------------|
A|-3~-3-3~-3-----------0~-0-0~-0-----------3~-3-3~-3-----------22222222-22222222-|
E|-----------3~-3-3~-3-------------------------------3~-3-3~-3-------------------|

Outro
13.
G|----------|
D|-2~-------|
A|----------|
E|----------|

Lyrics:


I'm seeing this girl and she just might be out of her mind
Well she's got baggage and it's all the emotional kind
She talks about closure and that validation bit
I don't mean to be insensitive, but I really hate that shit

Oh man she's got issues
And I'm gonna pay
She thinks she's the victim
Yeah

Now I know she'll feel abandoned
If I don't stay over late
And I know she's afraid to commit
But it's only our second date

Oh man she's got issues
And I'm gonna pay
She thinks she's the victim
But she takes it all out on me

I don't know why you're messed up
I don't know why your whole life is a chore
Just do me a favor
And check your baggage at the door

Now she talks about her ex nonstop, but I don't mind
But when she calls out his name in bed
That's where I draw the line
You told me a hundred times how your father left and he's gone
But I wish you wouldn't call me daddy
When we're gettin' it on

If you think I'm controlling
Then why do you follow me around
If you're not co-dependent
Then why do you let others drag you down


_________________________________________________

8. Walla Walla

Tuning: EADG

1 and 2 and 3 and 4 and 1....

Intro
1.
G|------------------------------------------------------------------------|
D|-33333333----------------------------33333333---------------------------|
A|----------33333333----------33333333----------33333333----------3-3-3---|
E|-------------------33333333----------------------------33333333---------|

Verse
"Goodbye my friend you messed up again..."
2.
G|------------------------------------------------------------------------|
D|------------------------------------------------------------------------|
A|----------33333333----------33333333----------33333333----------3-3-3---|
E|-11111111----------33333333----------11111111----------33333333---------|

"The judge wasnt lenient..."
3.
G|------------------------------------------------------------------------|
D|------------------------------------------------------------------------|
A|----------33333333----------33333333----------33333333----------3-3-3-4-|
E|-11111111----------33333333----------11111111----------33333333---------|

Chorus
"Hey, in walla, Ill see you in walla walla..."
4.
G|-------------------------------------------------------------------------|
D|----------------22-33333333-33333333-------------------------------------|
A|-55555555-555555---------------------33333333-33333333-------------------|
E|-------------------------------------------------------33333333-33333333-|

"Hey, in walla, Ill see you in walla walla..."
5.
G|-------------------------------------------------------------------------|
D|----------------2--3-3-3-3--3-3-3-3--------------------------------------|
A|-5-5-5-5--5-5-5----------------------33333333-33333333-------------------|
E|-------------------------------------------------------33333333-33333333-|

Outro
"Well Ill see ya..."
6.
G|------------------------------------------------------------------------|
D|-33333333----------------------------33333333---------------------------|
A|----------33333333----------33333333----------33333333----------3-3-3---|
E|-------------------33333333----------------------------33333333---------|

Verse
"That car looked so tempting..."
7.
G|------------------------------------------------------------------------|
D|------------------------------------------------------------------------|
A|----------33333333----------33333333----------33333333----------3-3-3-4-|
E|-11111111----------33333333----------11111111----------33333333---------|

Chorus
"Hey, in walla, Ill see you in walla walla..."
8.
G|-------------------------------------------------------------------------|
D|----------------22-33333333-33333333-------------------------------------|
A|-55555555-555555---------------------33333333-33333333-------------------|
E|-------------------------------------------------------33333333-33333333-|

"Hey, in walla, Ill see you in walla walla..."
9.
G|-------------------------------------------------------------------------|
D|----------------2--3-3-3-3--3-3-3-3--------------------------------------|
A|-5-5-5-5--5-5-5----------------------33333333-33333333-------------------|
E|-------------------------------------------------------33333333-33333333-|

Outro
"Well Ill see ya..."
10.
G|------------------------------------------------------------------------|
D|-33333333----------------------------33333333---------------------------|
A|----------33333333----------33333333----------33333333----------3-3-3---|
E|-------------------33333333----------------------------33333333---------|

Bridge
"Im inocent..."
11.
G|------------------------------------------------------------------------|
D|------------------------------------------------------------------------|
A|----------33333333----------33333333----------33333333----------3-3-3---|
E|-11111111----------33333333----------11111111----------33333333---------|

"Ho ho not this time my friend..."
12.
G|--------------------------------------------------------------------------------|
D|--------------------------------------------------------------------------------|
A|----------33333333----------33333333----------33333333----------3-3-3-3-3-3-3-4-|
E|-11111111----------33333333----------11111111----------33333333-----------------|

Chorus
"Hey, in walla, Ill see you in walla walla..."
13.
G|-------------------------------------------------------------------------|
D|----------------22-33333333-33333333-------------------------------------|
A|-55555555-555555---------------------33333333-33333333-------------------|
E|-------------------------------------------------------33333333-33333333-|

"Hey, in walla, Ill see you in walla walla..."
14.
G|-------------------------------------------------------------------------|
D|----------------2--3-3-3-3--3-3-3-3--------------------------------------|
A|-5-5-5-5--5-5-5----------------------33333333-33333333-------------------|
E|-------------------------------------------------------33333333-33333333-|

Outro
"Well Ill see ya..."
15.
G|------------------------------------------------------------------------|
D|-33333333----------------------------33333333---------------------------|
A|----------33333333----------33333333----------33333333----------3-3-3x--|
E|-------------------33333333----------------------------33333333---------|

Lyrics:


Goodbye my friend, you've messed up again
You're going to prison, you're off to the pen
You've gotten off easy so many times
But I guess no one told you how to get a life

The judge wasn't lenient like he was before
You got three to five and a kick out the door
The public defender really did try
Too little, too late, you didn't get a life

Hey, in Walla
I'll see you in Walla Walla
Slap on the wrist? Well, not this time
Folsom prison is the destination
Slap on the wrist? Well, not this time
In the scheme of life, we're all just brothers
Rehabilitate with all the others
Well, I'll see ya

That car looked so tempting, so easy to drive
Just like that apartment that you burglarized
You started to run, but didn't get far
Cause under your arm was a VCR

Ho ho, not this time my friend
You'll be in lockdown by ten
I'm afraid you can't talk your way out of this one, son
Now four walls are your 24-hour-a-day, constant companions.

Have a nice life


___________________________________________________

9. The End Of The Line

Tuning: EADG

Intro
1.
G|-------------------------------------------------------------------------------------|
D|----------0-0----------------0-0-2-222----------0-0-------22222222-------------------|
A|--------------0-2\0---------------------------------0-2\0----------44444444-44444444-|
E|-22-0-2~------------22-0-2~------------22-0-2~---------------------------------------|

Verse
"When the sirens flash is gone..."
2.
G|----------------------------------------------------------------------------|
D|----------0-0----------------0-0-2-222----------0-0-------22222222----------|
A|--------------0-2\0---------------------------------0-2\0----------44444444-|--x2
E|-22-0-2~------------22-0-2~------------22-0-2~------------------------------|

Chorus
"Please stay now, you left me here alone..."
3.
G|-------------------------------------------------------------------------|
D|-------------------22222222----------------------------22222222----------|
A|----------00000000----------22222222----------00000000----------44444444-|
E|-22222222----------------------------22222222----------------------------|

"Woah..."
4.
G|-------------------------------------------------------------------------|
D|-44444444----------22222222----------44444444----------22222222----------|
A|----------00000000----------22222222----------00000000----------44444444-|
E|-------------------------------------------------------------------------|

Verse
"Now that you are dead and gone..."
5.
G|----------------------------------------------------------------------------|
D|----------0-0----------------0-0-2-222----------0-0-------22222222----------|
A|--------------0-2\0---------------------------------0-2\0----------44444444-|--x2
E|-22-0-2~------------22-0-2~------------22-0-2~------------------------------|

Chorus
"Please stay now, you left me here alone..."
6.
G|-------------------------------------------------------------------------|
D|-------------------22222222----------------------------22222222----------|
A|----------00000000----------22222222----------00000000----------44444444-|
E|-22222222----------------------------22222222----------------------------|

"Woah..."
7.
G|----------------------------------------------------------------------------------|
D|-44444444----------22222222----------44444444----------22222222-------------------|
A|----------00000000----------22222222----------00000000----------44444444-44444444-|
E|----------------------------------------------------------------------------------|

Bridge
8.
G|---------------------------------------------------------|
D|---------------------------------------------------------|
A|------------------------------4-4h7-7-77-77-0-22-2-4~-2~-|
E|-0-2-2-22-22-2--2-2h5-5-55-55----------------------------|

9.
G|---------------------------------------------------------|
D|---------------------------------------------------------|
A|-0----------------------------4-4h7-7-77-77-7-44-4-5~-4~-|
E|---2-2-22-22-2--2-2h5-5-55-55----------------------------|

"Finally, you'll your final resting day..."
10.
G|---------------------------------------------------------|
D|---------------------------------------------------------|
A|------------------------------4-4h7-7-77-77-0-22-2-4~-2~-|
E|-0-2-2-22-22-2--2-2h5-5-55-55----------------------------|

11.
G|---------------------------------------------------------|
D|---------------------------------------------------------|
A|-0----------------------------4-4h7-7-77-77-7-44-4-5~-4~-|
E|---2-2-22-22-2--2-2h5-5-55-55----------------------------|

12.
G|---------------------------------------------------------|
D|---------------------------------------------------------|
A|------------------------------4-4h7-7-77-77-0-22-2-4~-2~-|
E|-0-2-2-22-22-2--2-2h5-5-55-55----------------------------|

13.
G|---------------------------------------------------------|
D|---------------------------------------------------------|
A|-0----------------------------4-4h7-7-77-77-7-44-4-5~-4~-|
E|---2-2-22-22-2--2-2h5-5-55-55----------------------------|

"You cant take back..."
14.
G|-------------------------------------------------------------------------|
D|-------------------22222222----------------------------22222222----------|
A|----------00000000----------22222422----------00000000----------44444554-|--x2
E|-22222222----------------------------22222222----------------------------|

Chorus
"Please stay now, you left me here alone..."
15.
G|-------------------------------------------------------------------------|
D|-------------------22222222----------------------------22222222----------|
A|----------00000000----------22222222----------00000000----------44444444-|
E|-22222222----------------------------22222222----------------------------|

"Woah..."
16.
G|----------------------------------------------------------------------------------|
D|-44444444----------22222222----------44444444----------22222222-------------------|
A|----------00000000----------22222222----------00000000----------44444444-44444444-|
E|----------------------------------------------------------------------------------|

Outro
17.
G|----------|
D|----------|
A|----------|
E|-2~-------|

Lyrics:


When the siren's flash is gone
And we're left to carry on
All the memories are too few

When the pastor's music plays
And that casket rolls away
I could live again if you
Just stay alive for me

Please stay now, you left me here alone - it's the end of the line
Please stay I can't make it on my own - it's the end of the line
Make it on my own
It's the end of the line

Now that you are dead and gone
And I'm left to carry on
I could never smile cause you
Won't stay alive for me

Finally,
Your final resting day
Is without me
I weep
And think of brighter days
What about me?

You can't take back, the one mistake
That still lives on after life it takes
In that one day, that changed our lives
And bitter memories are left behind


_____________________________________________

10. No Brakes

Tuning: EADG

Verse
"Lay awake, I dont give a shit..."
1.
G|---------------------------------------------------------------------|
D|-2x----2-----------------5555-4455-2x----2-----------------5555-4455-|
A|-----------------0x----0---------------------------0x----0-----------|
E|---------3x----3---------------------------3x----3-------------------|

"Burned at the stake, inside Im blistering..."
2.
G|---------------------------------------------------------------------------------------|
D|-2222222222-----------------------5555-4455-2222222222-----------------------5555-4455-|
A|-----------------------0000000000---------------------------------0000000000-----------|
E|------------3333333333---------------------------------3333333333----------------------|

Chorus
"Someone said its all right..."
3.
G|------------------------------------------------------------------------------------|
D|------------------------------------------------------------------------------------|
A|------------5555555555-3333333333-3-2-3-5-------------5555555555-3333333333-3-2-3-5-|
E|-3333333333--------------------------------3333333333-------------------------------|

Outro
"No brakes!"
4.
G|------------------22-0------------------22-0-|
D|-2-0-2-55-4-2-0-2------2-0-2-55-4-2-0-2------|
A|---------------------------------------------|
E|---------------------------------------------|

Verse
"Fuses glow, wounds festering..."
5.
G|---------------------------------------------------------------------|
D|-2x----2-----------------5555-4455-2x----2-----------------5555-4455-|
A|-----------------0x----0---------------------------0x----0-----------|
E|---------3x----3---------------------------3x----3-------------------|

"Lay awake, I dont give a shit..."
6.
G|---------------------------------------------------------------------------------------|
D|-2222222222-----------------------5555-4455-2222222222-----------------------5555-4455-|
A|-----------------------0000000000---------------------------------0000000000-----------|
E|------------3333333333---------------------------------3333333333----------------------|

Chorus
"Someone said its all right..."
7.
G|------------------------------------------------------------------------------------|
D|------------------------------------------------------------------------------------|
A|------------5555555555-3333333333-3-2-3-5-------------5555555555-3333333333-3-2-3-5-|
E|-3333333333--------------------------------3333333333-------------------------------|

Outro
"No brakes!"
8.
G|------------------22-0------------------22-0-|
D|-2-0-2-55-4-2-0-2------2-0-2-55-4-2-0-2------|
A|---------------------------------------------|
E|---------------------------------------------|

Bridge
9.
G|------------------22-0------------------22-0-|
D|-2-0-2-55-4-2-0-2------2-0-2-55-4-2-0-2------|
A|---------------------------------------------|--x2
E|---------------------------------------------|

Chorus
"Someone said its all right..."
10.
G|------------------------------------------------------------------------------------|
D|------------------------------------------------------------------------------------|
A|------------5555555555-3333333333-3-2-3-5-------------5555555555-3333333333-3-2-3-5-|--x2
E|-3333333333--------------------------------3333333333-------------------------------|

Outro
"No brakes!"
11.
G|------------------22-0-------------------|
D|-2-0-2-55-4-2-0-2------2-0-2-55-4-2-0-2x-|
A|-----------------------------------------|
E|-----------------------------------------|

Lyrics:

Lay awake
I don't give a shit
If I even ever wake up in the morning
Down below
There's a pile of sin
Always waiting for a
Waiting for a warning

Burned at the stake
Inside I'm blistering
Not a whisper
Looking in you'd never know it
Miles below
I look up again
When you snap they say
Before you never show it

Someone said it's all right
Save it now, don't say it for my sake
Someone said it's all right
Faster now, you know I got no brakes 

Fuses glow
Wounds festering
Till the wind comes up
And takes it to the last pow
Back and forth
Staring at the wall
This room's a cage
I know that something's got to give now


_______________________________________________

11. Why Don't You Get A Job?


Tuning: EADG

Verse
"My friend's got a girlfriend and he hates that bitch..."
1.
G|------------------------------------------------------------------|
D|------------------------------------------------------------------|
A|------------------------------------------------------------------|
E|------------------------------------------------------------------|

"She sits on her ass, he works his hands to the bone..."
2.
G|------------------------------------------------------------------|
D|------------------------------------------------------------------|
A|-----------------1-111-111-111-11----------------3-333-333-333-33-|
E|-1-111-111-111-11----------------1-111-111-111-11-----------------|

"But she wants more dinero just to stay at home..."
3.
G|------------------------------------------------------------------|
D|------------------------------------------------------------------|
A|-----------------1-111-111-111-11--------3-333-33-----------------|
E|-1-111-111-111-11----------------1-111-11--------1-111-111-111-11-|

Chorus
"I wont pay, I wont pay ya, no way..."
4.
G|---------------------------------------------------------|
D|-33-0---0-3-0---------0-3-5-3~-3-0-----0-3~-3-0---0-3~-0-|
A|------3-------3-111-3--------------333----------3--------|--x2
E|---------------------------------------------------------|

Verse
"I guess all his money, well it isnt enough..."
5.
G|------------------------------------------------------------------|
D|------------------------------------------------------------------|
A|-----------------1-111-111-111-11----------------3-333-333-333-33-|
E|-1-111-111-111-11----------------1-111-111-111-11-----------------|

6.
G|------------------------------------------------------------------|
D|------------------------------------------------------------------|
A|-----------------1-111-111-111-11--------3-333-33-----------------|
E|-1-111-111-111-11----------------1-111-11--------1-111-111-111-11-|

Chorus
"I wont pay, I wont pay ya, no way..."
7.
G|---------------------------------------------------------|
D|-33-0---0-3-0---------0-3-5-3~-3-0-----0-3~-3-0---0-3~-0-|
A|------3-------3-111-3--------------333----------3--------|--x2
E|---------------------------------------------------------|

Bridge
"Well I guess it aint easy doing nothing at all..."
8.
G|----------------------------------------------------------|
D|------3-5-3-2-3------3-5-3-2-3----------------33-22-00----|
A|-1~-1-----------1~-1------------------2-3-2-3----------33-|
E|-------------------------------1~-1-1---------------------|

9.
G|--------------------------------------------------------|
D|------3-5-3-2-3------3-5-3-2-3--------------------------|
A|-1~-1-----------1~-1-----------------------3333-3-1-0---|
E|-------------------------------33-33-33-33------------3-|

Verse
"My friend's got a boyfriend and she hates that dick..."
10.
G|------------------------------------------------------------------|
D|------------------------------------------------------------------|
A|-----------------1-111-111-111-11----------------3-333-333-333-33-|
E|-1-111-111-111-11----------------1-111-111-111-11-----------------|

"He wants more dinero just to stay at home..."
11.
G|------------------------------------------------------------------|
D|------------------------------------------------------------------|
A|-----------------1-111-111-111-11--------3-333-33-----------------|
E|-1-111-111-111-11----------------1-111-11--------1-111-111-111-11-|

Chorus
"I wont pay, I wont pay ya, no way..."
12.
G|---------------------------------------------------------|
D|-33-0---0-3-0---------0-3-5-3~-3-0-----0-3~-3-0---0-3~-0-|
A|------3-------3-111-3--------------333----------3--------|--x3
E|---------------------------------------------------------|

"Say no way, say no way ya, no way..."
13.
G|--------------------------------------------------------------------------|
D|-33-0---0-3-0---------0-3-5-3~-3-0-----0----------------------------------|
A|------3-------3-111-3--------------333---3-333333333333-333333-3-1-0------|
E|---------------------------------------------------------------------3-1~-|

Hey
Thats something everyone can enjoy...

Lyrics:


My friend's got a girlfriend
Man he hates that bitch
He tells me every day
He says "man I really gotta lose my chick
In the worst kind of way"

She sits on her ass
He works his hands to the bone
To give her money every payday
But she wants more dinero just to stay at home
Well my friend
You gotta say

I won't pay, I won't pay ya, no way
Why don't you get a job
Say no way, say no way, no way
Why don't you get a job

I guess all his money, well it isn't enough
To keep her bill collectors at bay
I guess all his money, well it isn't enough
Cause that girl's got expensive taste

Well I guess it ain't easy doing nothing at all
But hey man free rides just don't come along
Every day

Let me tell you about my other friend now

My friend's got a boyfriend, man she hates that dick
She tells me every day
He wants more dinero just to stay at home
Well my friend
You gotta say


_________________________________________________

12. Americana

Tuning: Drop D

Intro
1.
G|------------------------------------------------|
D|------------------------------------------------|
A|------------------------------------------------|--x5
D|-5~-55-5~-55-0~-00-0~-00-2~-22-2~-22-2~-2-5~-2~-|

2.
G|---------------------------------------------------|
D|---------------------------------------------------|
A|---------------------------------------------------|
D|-5~-55-5~-55-0~-00-0~-00-2~-22-2-22-22222552-2~----|

Verse
"Well I'd like to tell you all about my dream, its a place.."
3.
G|-------0-2-0-------0-2-0-----------------0-2-0-------0-2-0-|
D|-2-0-2-------2-0-2-----------------2-0-2-------2-0-2-------|
A|-----------------------------------------------------------|
D|-------------------------2~--------------------------------|

Pre-Chorus
"Where culture's defined by the one least refined..."
4.
G|-------------------------------------------------------------0-2-0----|
D|-------------------------------------------------------2-0-2-------2x-| Well fuck
A|-------------------00000000-33335555-77777777-22222222----------------|  you!!
D|-22222222-55555555----------------------------------------------------|

Chorus
"Well my dream has come true..."
5.
G|-------------------------------------------------------------------------------------|
D|-------------------------------------------------------------------------------------|
A|------5555-7777-2233~-------5555-77757777------5555-7777-2233~-------5555-777577757x-|
D|-5555------------------5555---------------5555------------------5555-----------------|

Verse
"Now give me my cable fast food four-by's, tat's right away..."
6.
G|-------0-2-0-------0-2-0-----------------0-2-0-------0-2-0-|
D|-2-0-2-------2-0-2-----------------2-0-2-------2-0-2-------|
A|-----------------------------------------------------------|
D|-------------------------2~--------------------------------|

Pre-Chorus
"My future's determined by thieves, thugs and vermin..."
7.
G|-------------------------------------------------------------0-2-0----|
D|-------------------------------------------------------2-0-2-------2x-| 
A|-------------------00000000-33335555-77777777-22222222----------------|  
D|-22222222-55555555----------------------------------------------------|

Chorus
"Well my dream has come true..."
8.
G|-----------------------------------------------------------------------------------|
D|-----------------------------------------------------------------------------------|
A|------5555-7777-2233~-------5555-77757777------5555-7777-2233~-------5555-77757775-|
D|-5555------------------5555---------------5555------------------5555---------------|

Outro
"Yeah its all coming true..."
9.
G|--------------------|
D|-5555---------------|
A|------5555-77777777-|
D|--------------------|

Bridge
"Im a product of my environment, so dont blame me, I just work here..."
10.
G|-----------------------|
D|-----------------------|
A|-7~x----5-7~x----5-7~x-|
D|-----------------------|

11.
G|-------0-2-0-------0-2-0-------0-2-0-------0-2-0-|
D|-2-0-2-------2-0-2-------2-0-2-------2-0-2-------|
A|-------------------------------------------------|
D|-------------------------------------------------|

Pre-Chorus
"My life's all denied by those least qualified..."
12.
G|-------------------------------------------------------------0-2-0----|
D|-------------------------------------------------------2-0-2-------2x-| 
A|-------------------00000000-33335555-77777777-22222222----------------|  
D|-22222222-55555555----------------------------------------------------|

Here you go up half a step...

Chorus
"My nightmare has come true..."
13.
G|-----------------------------------------------------------------------------------|
D|-----------------------------------------------------------------------------------|
A|------6666-8888-3344~-------6666-88868888------6666-8888-3344~-------6666-88868886-|
D|-6666------------------6666---------------6666------------------6666---------------|

Outro
"Yeah its all coming true..."
14.
G|--------------------------------------|
D|-6666---------------6666--------------|
A|------6666-88888888------6666-888888x-|
D|--------------------------------------|

Lyrics:


Well I'd like to tell you all about my dream, it's a place
Where strip malls abound and diversion's mere moments away

Where culture's defined by the
Ones least refined
And you'll be left behind
If you don't fit in
It's all distorted
In Americana my way

Well my dream has come true
My vision has come true

Now give me my cable, fast food, four-by's, tat's right away
I want it right now cause my generation don't like to wait

My futures determined by
Thieves, thugs, and vermin
It's quite an excursion
But it's okay
Everything's backwards
In Americana my way

Well my dream has come true
My vision has come true

I'm a product
Of my environment
So don't blame me, I just work here

My rights are denied by
Those least qualified
Trading profit for pride
But it's okay
Everything's backwards
In Americana my way

My nightmare has come true
My nightmare has come true
Yeah, it's all coming true


____________________________________________________

13. Pay The Man

Tuning: EADG


Intro  0:43
1.
G|-------------------------------------------|
D|-------------------------------------------|
A|-7~-7~-77--7~-7~-778-8p7~-7~-77-5h7~-7~-77-|--x12
E|-------------------------------------------|

2.
G|---------------------------------------------------------|
D|---------------------------------------------------------|
A|-0~-0-0/8~-8-8---------------0~-0-0/8~-8-8---------------|
E|---------------0~-0~-00~-0-0---------------0~-0~-00~-0-0-|

3.
G|-------------------------------------------|
D|-------------------------------------------|
A|-0~-0-0/8~-8-8---------------0~-0-0/8~-8-8-|
E|---------------0~-0~-00~-0-0---------------|

4.
G|-------------------------------------------|
D|-------------------------------------------|
A|-7~-7~-77--7~-7~-778-8p7~-7~-77-5h7~-7~-77-|--x4
E|-------------------------------------------|

Verse
"See the way the wind blows..."
5.
G|-------------------------------------------|
D|-------------------------------------------|
A|-7~-7~-77--7~-7~-778-8p7~-7~-77-5h7~-7~-77-|--x4
E|-------------------------------------------|

Chorus
"In our souls..."
6.
G|------------------------------------------------------------|
D|------------------------------------------------------------|
A|-5~-5-5~-8~-8-8---------------5~-5-5~-8~-8-8~---------------|
E|----------------0~-0~-00~-0-0-----------------0~-0~-00~-0-0-|

7.
G|----------------------------------------------|
D|----------------------------------------------|
A|-5~-5-5~-8~-8-8---------------5~-5-5~-8~-8-8~-|
E|----------------0~-0~-00~-0-0-----------------|

Verse
"See the way the sun sets..."
8.
G|-------------------------------------------|
D|-------------------------------------------|
A|-7~-7~-77--7~-7~-778-8p7~-7~-77-5h7~-7~-77-|--x4
E|-------------------------------------------|

Chorus
"In our souls..."
9.
G|------------------------------------------------------------|
D|------------------------------------------------------------|
A|-5~-5-5~-8~-8-8---------------5~-5-5~-8~-8-8~---------------|
E|----------------0~-0~-00~-0-0-----------------0~-0~-00~-0-0-|

10.
G|----------------------------------------------|
D|----------------------------------------------|
A|-5~-5-5~-8~-8-8---------------5~-5-5~-8~-8-8~-|
E|----------------0~-0~-00~-0-0-----------------|

Here's where the rock part starts...

4:53

Intro
11.
G|---------------------|
D|---------------------|
A|---------------------|
E|-0~--------0~--------|

12.
G|---------------------------------------------|
D|-----------------------------------------7-6-|
A|-5h7---7-77-5h7-7-3-3h5-5h7---7-77-5h7-7-----|--x2
E|-----0---0------------------0---0------------|

Verse
"Come down to sorry and sable..."
13.
G|---------------------------------------------|
D|-----------------------------------------7-6-|
A|-5h7-7-7-77-5h7-7-3-3h5-5h7-7-7-77-5h7-7-----|--x4
E|---------------------------------------------|

Chorus
"Oh, shut up, you talk too much..."
14.
G|---------------------------------------|
D|---------------------------------------|
A|-5~-555-55-3~-333-33------7~-----5~-0~-|--x4
E|---------------------0-0~----0-0-------|

Outro
"No!"
15.
G|---------------------------------------------|
D|-----------------------------------------7-6-|
A|-5h7---7-77-5h7-7-3-3h5-5h7---7-77-5h7-7-----|--x2
E|-----0---0------------------0---0------------|

Verse
"Look at you and your struggle to freedom..."
16.
G|---------------------------------------------|
D|-----------------------------------------7-6-|
A|-5h7-7-7-77-5h7-7-3-3h5-5h7-7-7-77-5h7-7-----|--x4
E|---------------------------------------------|

Pre-Chorus
"This is life! This is life!..."
17.
G|-------------------------------------------------------------------------------------------|
D|---------------------------------------------------------------------------------------7-6-|
A|-5h7-7-7-77-5h7-7-3-3h5-5h7-7-7-77-5h7-7-3-3h5-5h7-7-7-77-5h7-7-3-3h5-5h7-7-7-77-5h7-7-----|
E|-------------------------------------------------------------------------------------------|

"Pay the man! Pay the man!..."
18.
G|-------------------------------------------------------------------------------------------|
D|---------------------------------------------------------------------------------------7-6-|
A|-5h7-7-7-77-5h7-7-3-3h5-5h7-7-7-77-5h7-7-3-3h5-5h7-7-7-77-5h7-7-3-3h5-5h7-7-7-77-5h7-7-----|
E|-------------------------------------------------------------------------------------------|

Chorus
"Oh, shut up, you talk too much..."
19.
G|---------------------------------------|
D|---------------------------------------|
A|-5~-555-55-3~-333-33------7~-----5~-0~-|--x4
E|---------------------0-0~----0-0-------|

20.
G|---------------------------------------------|
D|-----------------------------------------7-6-|
A|-5h7---7-77-5h7-7-3-3h5-5h7---7-77-5h7-7-----|
E|-----0---0------------------0---0------------|

21.
G|---------------------------------------------|
D|-----------------------------------------7-6-|
A|-5h7-7-7-77-5h7-7-3-3h5-5h7-7-7-77-5h7-7-----|--x2
E|---------------------------------------------|

22.
G|---------------------------------------------|
D|-----------------------------------------7-6-|
A|-5h7---7-77-5h7-7-3-3h5-5h7---7-77-5h7-7-----|--x2
E|-----0---0------------------0---0------------|

Chorus
"Oh, shut up, you talk too much..."
23.
G|---------------------------------------|
D|---------------------------------------|
A|-5~-555-55-3~-333-33------7~-----5~-0~-|--x2
E|---------------------0-0~----0-0-------|

Lyrics:


See the way the wind blows
Lives are intertwined
Watch the way the world goes
The man deals out our plight

Jester in the corner
Laughs without a sound
Jester in the corner
Malady abounds
In our souls

See the way the sun sets
Twilight of this life
The man is making little bets
Playing with our lives

All that I believe now
Anything is possible
A simple explanation
For the evil in this world
And in our souls
In our souls

Come down to sorry and sable
It's always the man
Always keeping you down
Bow down cause I see it before me
Shadow and light
That always keeps you running

Shut up you talk too much
Pay the man
Shut up you talk too much

Look at you and your struggle for freedom
But you ain't nothing
We all pay the man for living

Wouldn't it be nice for a change now
To be unchained
My life is for me now
But this is life
Pay the man

_________________________________________________

Cheers

+++++++++++++++++++++++++++++++++
| RaiLeff                       |
| Underground__Dora@Hotmail.Com |
+++++++++++++++++++++++++++++++++
comments
print report bad tab
2 comments total.
0 reply
zaboomafoo wrote on March 6 2009, 09:00 pm

If you like offsprimg join my group

0 reply
Tanner Streeter wrote on March 29 2013, 11:18 pm

Well done. I just putting on this CD, and playing along with this album. So much fun. 5* rating from me.

I want to post or [tab]
guest
You may want to rate the tab now too:
select rating
Please do not post tabs as comments. Select "correction" instead!