Oops, an error
Loading. Please wait.

Conspiracy Of One Bass Tab

ver1
ver1

Album

Whole song

Interactive

More versions @911Tabs.com
4,277 views 1 this week
2 commentsread comments
1 2 3 4 5
accurate
x 4
Autoscroll
+/-
esc
set tempo
stop
Contributor
Hey! There's an official Ultimate Guitar app which is ideal
for learning songs when you're away from computer. Get the app
WARNING: You are trying to view
                                    content from Ultimate-Guitar.com
                                    in an unauthorized application,
                                    which is prohibited.

                                    Please use an official Ultimate
                                    Guitar Tabs application for iPhone,
                                    iPad or Android to access legitimate
                                    chords, guitar, bass, and drum tabs
                                    from Ultimate-Guitar.com database.

                                    Type "ultimate guitar tabs" in Apple
                                    App Store's or Android Market's
                                    search to find the application.
++++++++++++++++++++++++++++++++++++
| The Offspring- Conspiracy Of One |
++++++++++++++++++++++++++++++++++++

Bass Tab
Tuning: EADG and Drop D#

Key:

/: Slide up
\: Slide down
p: Pull Off
h: Hammer on
x: Mute
~: Let ring

++++++++++++++++++++
Enjoy!

Tracks:

1. Intro
2. Come Out Swinging
3. Original Prankster
4. Want You Bad
5. Million Miles Away
6. Dammit, I Changed Again
7. Living In Chaos
8. Special Delivery
9. One Fine Day
10. All Along
11. Denial, Revisited 
12. Vultures
13. Conspiracy Of One
14. Huck It! (Bonus Track)

++++++++++++++++++++++

1. Intro

No Bass

"When we're ready to sing
We step up the microphones..
And it sounds something like this..."

++++++++++++++++++++++

2. Come Out Swinging

Tuning: EADG

Intro
1.
G|-------------------|
D|-2202-02455-5-0054-|
A|-------------------|--x4
E|-------------------|

2.
G|-------------------------------------------------|
D|-2222-222-22-222-222-22-222-222-22-222-22-2-22-2-|
A|-------------------------------------------------|
E|-------------------------------------------------|

Verse
"You brace and hold it all inside.."
3.
G|------------------------------|
D|------------------------------|
A|------------------------------|--x3
E|-000-002333-023555-023555-023-|

4.
G|-------------------------------|
D|-------------------------------|
A|-----------------------3-3-5-5-|
E|-000-002333-023555-555---------|

Chorus
"Dont turn away.."
5.
G|--------------------------------------------------------------|
D|-220202-------------------------220202------------------------|
A|----------------------3333-5555-----------------------3-3-5-5-|
E|--------33333333-55353-----------------33333333-55353---------|

Outro
6.
G|-------------------|
D|-2202-02455-5-0054-|
A|-------------------|--x2
E|-------------------|

Verse
"Your pacing's wearing out a line..."
7.
G|------------------------------|
D|------------------------------|
A|------------------------------|--x2
E|-000-002333-023555-023555-023-|

"And though you stand in place.."
8.
G|-----------------------------------------------------------|
D|-----------------------------------------------------------|
A|-----------------------------------------------------------|
E|-00000000-00000000-33333333-33333333-55555555-555555333333-|

"Smile's on your face.."
9.
G|-----------------------------------------------------|
D|-----------------------------------------------------|
A|---------------------------------------------3-3-5-5-|
E|-00000000-00000000-33333333-33333333-5x--5x----------|

Chorus
"Dont turn away.."
10.
G|--------------------------------------------------------------|
D|-220202-------------------------220202------------------------|
A|----------------------3333-5555-----------------------3-3-5-5-|
E|--------33333333-55353-----------------33333333-55353---------|

"Dont turn away.."
11.
G|--------------------------------------------------------|
D|-220202-------------------------------------------------|
A|----------------------3333-5555-3~----3~----2~----5~----|
E|--------33333333-55353----------------------------------|

Outro
12.
G|-------------------------------------------------------------------------|
D|-------------------------------------------------------------------------|
A|-------------------------------------------------------------------------|
E|-00000000-33333333-55555555-55555555-00000000-33333333-55555555-55555555-|

"Midnight..No sleep.."
13.
G|----------------------------------------------|
D|----------------------------------------------|
A|-77777777-33333333-00000000-55555555-22222222-|--x3
E|----------------------------------------------|

"Daylight, prove me today..."
14.
G|---------------------------------------------------------------|
D|---------------------------------------------------------------|
A|-777-777-333-333-000-000-555-555-22222222-22222222-22222222-2x-|
E|---------------------------------------------------------------|

Chorus
"Dont turn away.."
15.
G|--------------------------------------------------------------|
D|-220202-------------------------220202------------------------|
A|----------------------3333-5555-----------------------3-3-5-5-|
E|--------33333333-55353-----------------33333333-55353---------|

"Dont turn away.."
16.
G|-----------------------------------------------------------|
D|-220202----------------------------------------------------|
A|----------------------3333-5555-33333333-33333333-55555555-|
E|--------33333333-55353-------------------------------------|

"Leads you.. Leads you..."
17.
G|-----------------------------|
D|-------------------2--0--2x--|
A|-----------------------------|
E|--5--3--5--3--5--3-----------|

Lyrics:

You brace and hold it all inside
Its more than you can stand
No one around even tries
Tries to understand

Dont turn away, Dont turn away
Come out swinging, Come out alone
They're in your way, They're in your way
As long as youre swinging
Strong then youll get by

Your pacings wearing out a line
Right beside your bed
The scene replays a million times
Stuck inside your head

And though you stand in place
Your mind escapes, read between the lies
Smiles on your face, you fake like youre Ok

Dont turn away, Dont turn away
Come out swinging, Out on your own
They're in your way, They're in your way
You may be stinging
You'll get by
The pain inside, can guide your way...

Midnight, No sleep
Inside, you scream to no one
Hears you fall
Daylight, prove me today day...
One more try!

+++++++++++++++++++++++++++++++++++

3. Original Prankster

Tuning: EADG

Intro
1.
G|-----------------------------------|
D|-----------------------------------|
A|-------3----5x----------3----55353-|
E|-03~-55-55--------03~-55-55--------|

2.
G|--------------------------------------------------|
D|--------------------------------------------------|
A|-03/76-55353--03/76-5535----03/76-55353--03/76-5x-|
E|------------------------03------------------------|

Verse
"Until the break of dawn.."
3.
G|------------------------------------------------------|
D|------------------------------------------------------|
A|-03-6-55353--03-6-55353--03-6-55353----------77777777-|--x2
E|---0-----------0-----------0--------33333333----------|

Pre-Chorus
"Knock down the wall!"
4.
G|-----------------------------------------------------------|
D|-----------------------------------------------------------|
A|-03/76-55353--03/76-5535----03/76-55353--------------------|
E|------------------------03--------------33333333-000000000-|

Chorus
"Bust it on it.."
5.
G|--------------------------------------------------------------------|
D|--------------5555--------------5555--------------5555-5--5--555556-|
A|-0x-0~----5555-----0x-0~----5555-----0x-0~----5555------5--5--------|
E|--------------------------------------------------------------------|

Outro
6.
G|--------------------------------------------------|
D|--------------------------------------------------|
A|-03/76-55353--03/76-5535----03/76-55353--03/76-5x-|
E|------------------------03------------------------|

Verse
"You know it smells like shit.."
7.
G|------------------------------------------------------|
D|------------------------------------------------------|
A|-03-6-55353--03-6-55353--03-6-55353----------77777777-|--x2
E|---0-----------0-----------0--------33333333----------|

Pre-Chorus
"Knock down the wall!"
8.
G|-----------------------------------------------------------|
D|-----------------------------------------------------------|
A|-03/76-55353--03/76-5535----03/76-55353--------------------|
E|------------------------03--------------33333333-000000000-|

Chorus
"Bust it on it.."
9.
G|--------------------------------------------------------------------|
D|--------------5555--------------5555--------------5555-5--5--555556-|
A|-0x-0~----5555-----0x-0~----5555-----0x-0~----5555------5--5--------|
E|--------------------------------------------------------------------|

10.
G|-----------------------------------|
D|-----------------------------------|
A|-------3----5x----------3----55353-|
E|-03~-55-55--------03~-55-55--------|

"Dime dime, so good to see ya.."
11.
G|----------------------------------------------------------|
D|----------------------------------------------------------|
A|---3-----55353---3-----5535-----3-----55353---3-----55353-|
E|-55-5555-------55-5555-----03-55-5555-------55-5555-------|

"Crime crime, fine sensimilla.."
12.
G|----------------------------------------------------------|
D|----------------------------------------------------------|
A|-03/76-55353--03/76-55353--03/76-55353----------7x-----7--|
E|---------------------------------------33333333-----------|

Pre-Chorus
"Knock down the wall!"
13.
G|-----------------------------------------------------------|
D|-----------------------------------------------------------|
A|-03/76-55353--03/76-5535----03/76-55353--------------------|
E|------------------------03--------------33333333-000000000-|

Chorus
"Bust it on it.."
14.
G|-------------------------------------------------------------|
D|--------------5555--------------5555--------------5555-5--5--|
A|-0x-0~----5555-----0x-0~----5555-----0x-0~----5555------5--5-|
E|-------------------------------------------------------------|

15.
G|----------------------------|
D|---------5--5--555556-------|
A|-5555555--5--5--------0~----|
E|----------------------------|

Lyrics:

Until the break of dawn
Life life
Cannot go by the letter
Time time
Prozac can make it better
Noise noise
Any kind will do
Can you feel it slip away
When it's all on you

Crime crime
Rockin' like Janet Reno
Time time
Eighteen and life in Chino
Freud Freud
All along it's true
Well you'll see there comes a day
Catches up to you

Knock down the walls, it's alive in you
Knock down the place, you're alone it's true
Knock down the world, it's alive in you
You gotta keep your head up through it all
You're gonna
Bust out on it - original prankster
Break out yeah - original yeah
Bust out on it - original prankster
You never stop now, stop now
That's what the main man say

You know it smells like shit
Goddamn
Tag team the double header
Son of Sam
Fire always makes it better
Navigate
With style and aplomb
Cause wherever you're at
That's the tip you's on

Lies, lies
Says he's down in the Bahamas
Tries tries
Bangin' little hoochie mamas
No way
None of this is true
Well he'll see there comes a day
When the joke's on you yeah

Dime dime
So good to see ya
Nine nine
Don't want to be ya
Crime crime
Fine sensimilla

++++++++++++++++++++++++++++++++++++++

4. Want You Bad

Tuning: EADG

Intro
1.
G|----------------------------------------------------|
D|----------------------------------------------------|
A|-7------------7------------7------------7-----------|
E|---77-55-9-7----77-55-9-7----77-55-9-7----77-55-9-7-|

2.
G|-----------------------------------|
D|-----------------------------------|
A|-7-77777777777777-7777777777777777-|
E|-----------------------------------|

Verse
"If you could only read my mind.."
3.
G|-------------------------------------------------------------------|
D|-------------------------------------------------------------------|
A|-7777777777777777-4444444444444444---------------------------------|
E|-----------------------------------7777777777777777-5~--4~--5~--7~-|

"I know your arms are open wide.."
4.
G|--------------------------------------------------------------------|
D|--------------------------------------------------------------------|
A|-7777777777777777-4444444444444444----------------------------------|
E|-----------------------------------7777777777777777-555-444-555-777-|

Pre-Chorus
"Your one vice..."
5.
G|-------------------------------------------------------------------|
D|-------------------------------------------------------------------|
A|----------------------------77777777-------------------------------|
E|-55555555-77777777-99999999----------55555555-77777777-99999999-7x-|

Chorus
"I want you, all tattooed.."
6.
G|----------------------------------------------------------------|
D|----------------------------------------------------------------|
A|-7777777777777-07-4444444444444-04------------------------------|
E|-----------------------------------7777777777777777-5~-4~-5~-7~-|

"Complete me, mistreat me..."
7.
G|--------------------------------------------------------------------|
D|--------------------------------------------------------------------|
A|-7777777777777-07-4444444444444-04----------------------------------|
E|-----------------------------------7777777777777777-555-444-555-777-|

Outro
8.
G|------------------------------------|
D|------------------------------------|
A|-7-77777777777777-7777777777777777x-|
E|------------------------------------|

Verse
"If you could only read my mind.."
9.
G|-------------------------------------------------------------------|
D|-------------------------------------------------------------------|
A|-7777777777777777-4444444444444444---------------------------------|
E|-----------------------------------7777777777777777-5~--4~--5~--7~-|

"For someone almost just like you..."
10.
G|--------------------------------------------------------------------|
D|--------------------------------------------------------------------|
A|-7777777777777777-4444444444444444----------------------------------|
E|-----------------------------------7777777777777777-555-444-555-777-|

Pre-Chorus
"Get out of clothestime..."
11.
G|-------------------------------------------------------------------|
D|-------------------------------------------------------------------|
A|----------------------------77777777-------------------------------|
E|-55555555-77777777-99999999----------55555555-77777777-99999999-7x-|

Chorus
"I want you, in a vinyl suit..."
12.
G|----------------------------------------------------------------|
D|----------------------------------------------------------------|
A|-7777777777777-07-4444444444444-04------------------------------|
E|-----------------------------------7777777777777777-5~-4~-5~-7~-|

"Complicated, x-rated..."
13.
G|--------------------------------------------------------------------|
D|--------------------------------------------------------------------|
A|-7777777777777-07-4444444444444-04----------------------------------|
E|-----------------------------------7777777777777777-555-444-555-777-|

Outro
14.
G|----------------------------------------------------|
D|----------------------------------------------------|
A|-7------------7------------7------------7-----------|
E|---77-55-9-7----77-55-9-7----77-55-9-7----77-55-9-7-|

15.
G|------------------------------------------------------------|
D|------------------------------------------------------------|
A|------------------------7~----------------------7~----------|
E|--7~--------7~----5~----------7~----7~----5~----------7~----|

16.
G|------------------------------------------------------------------------------|
D|------------------------------------------------------------------------------|
A|-------------------------------7-777777777777----------------4444444444444444-|
E|-7-777777777777-5-555555555555----------------7-777777777777------------------|

17.
G|-------------------------------------|
D|-------------------------------------|
A|-77777777-77777777-77777777-77777777-|
E|-------------------------------------|

Chorus
"I want you, all tattooed.."
18.
G|----------------------------------------------------------------|
D|----------------------------------------------------------------|
A|-7777777777777-07-4444444444444-04------------------------------|
E|-----------------------------------7777777777777777-5~-4~-5~-7~-|

"Complicated, x-rated..."
19.
G|--------------------------------------------------------------------|
D|--------------------------------------------------------------------|
A|-7777777777777-07-4444444444444-04----------------------------------|
E|-----------------------------------7777777777777777-555-444-555-777-|

"I mean it, I need it..."
20.
G|--------------------------------------------------------------------------------------|
D|---------------------------------------------------------------------7777777777777777-|
A|-7777777777777-07-4444444444444-04----------------------------------------------------|
E|-----------------------------------7777777777777777-5555555555555555------------------|

"Bad..."
21.
G|----------------------------------------------------|
D|----------------------------------------------------|
A|-7------------7------------7------------7~----------|
E|---77-55-9-7----77-55-9-7----77-55-9-7--------------|

Lyrics:

If you could only read my mind
You would know that things between us
Ain't right
I know your arms are open wide
But you're a little on the straight side
I can't lie

Your one vice Is you're too nice
Come around now can't you see

I want you All tattooed
I want you bad
Complete me Mistreat me
Want you to be bad

If you could only read my mind
You would know that I've been waiting
So long
For someone almost like you
But with attitude, I'm waiting
So come on

Get out of clothestime Grow out those highlights
Come around now can't you see

I want you In a vinyl suit
I want you bad
Complicated X-rated
I want you bad

Don't get me wrong
I know you're only being good
But that's what's wrong
I guess I just misunderstood

I mean it I need it
I want you bad

+++++++++++++++++++++++++++++

5. Million Miles Away

Tuning: EADG

1.
G|-----------------------------------------------------------------|
D|-----------------------------------------------------------------|
A|---------------------------------22222222222222-5555555-77777777-|
E|-222222222222222-555555555555555---------------------------------|

2.
G|---------------------------------------------------------|
D|---------------------------------------------------------|
A|-99-9999-99-99-00-000-77-777-99-9999-99-99-00-000-77-777-|
E|---------------------------------------------------------|

Verse
"There was a time..."
3.
G|-------------------------------------|
D|-------------------------------------|
A|----------------------------777777-7-|--x4
E|-22222222-222222-2-555555-5----------|

Pre-Chorus
"Its telling me to be on my way.. "
4.
G|-----------------------------------------------------------------------------|
D|-----------------------------------------------------------------------------|
A|-2~-0~-5~-4~-77777777-77777777-2~-0~-5~-4~-7777777777777777-7777777777777777-|
E|-----------------------------------------------------------------------------|

Chorus
"Oh, oh.. Million miles away..."
5.
G|---------------------------------------------------------|
D|---------------------------------------------------------|
A|-99-9999-99-99-00-000-77-777-99-9999-99-99-00-000-77-777-|
E|---------------------------------------------------------|

"I cant stay..."
6.
G|-----------------------------------------------------------------|
D|-----------------------------------------------------------------|
A|---------------------------------22222222222222-5555555-77777777-|
E|-222222222222222-555555555555555---------------------------------|

Outro
7.
G|---------------------------------------------------------|
D|---------------------------------------------------------|
A|-99-9999-99-99-00-000-77-777-99-9999-99-99-00-000-77-777-|
E|---------------------------------------------------------|

Verse
"Each passing face..."
8.
G|-------------------------------------|
D|-------------------------------------|
A|----------------------------777777-7-|--x4
E|-22222222-222222-2-555555-5----------|

Pre-Chorus
"I need to be... "
9.
G|-----------------------------------------------------------------------------|
D|-----------------------------------------------------------------------------|
A|-2~-0~-5~-4~-77777777-77777777-2~-0~-5~-4~-7777777777777777-7777777777777777-|
E|-----------------------------------------------------------------------------|

Chorus
"Oh, oh.. Million miles away..."
10.
G|---------------------------------------------------------|
D|---------------------------------------------------------|
A|-99-9999-99-99-00-000-77-777-99-9999-99-99-00-000-77-777-|
E|---------------------------------------------------------|

"I cant stay..."
11.
G|-----------------------------------------------------------------|
D|-----------------------------------------------------------------|
A|---------------------------------22222222222222-5555555-77777777-|
E|-222222222222222-555555555555555---------------------------------|

Outro
12.
G|---------------------------------------------------------|
D|---------------------------------------------------------|
A|-99-9999-99-99-00-000-77-777-99-9999-99-99-00-000-77-777-|
E|---------------------------------------------------------|

13.
G|-----------------------------------------------------------------|
D|-----------------------------------------------------------------|
A|---------------------------------22222222222222-5555555-77777777-|
E|-222222222222222-555555555555555---------------------------------|

Pre-Chorus
"I need to be... "
14.
G|-----------------------------------------------------------------------------|
D|-----------------------------------------------------------------------------|
A|-2~-0~-5~-4~-77777777-77777777-2~-0~-5~-4~-7777777777777777-7777777777777777-|
E|-----------------------------------------------------------------------------|

Chorus
"I cant take..I cant take... Million miles away..."
15.
G|---------------------------------------------------------|
D|---------------------------------------------------------|
A|-99-9999-99-99-00-000-77-777-99-9999-99-99-00-000-77-777-|
E|---------------------------------------------------------|

16.
G|-------------|
D|-------------|
A|--9~---------|
E|-------------|

Lyrics:

There was a time, looking through myself
Wanting to pretend
If I escaped, I could fill myself
I don't think you can
Been far and wide
But that hole inside
Never really leaves
When I went away, what I really left
Left behind was me

It's telling me
To be on my way home
Million miles away
I can't stay

Each passing day, every passing face
Seems like such a blur
I long to be
Home, silently
Lying next to her
Just to get back, by her side is all
All I need to be
Cause I went away
But what I really left
Left behind was me

I need to be
Getting on my way home
Million miles away
I can't take

++++++++++++++++++++++++++

6. Dammit, I Changed Again

Tuning: EADG

Intro
1.
G|-------------------------------------------------------------------------|
D|-------------------------------------------------------------------------|
A|----------44444444----------66666666----------44444444----------66666666-|
E|-11111111----------44444444----------11111111----------44444444----------|

2.
G|-------------------------------------------------------------------------|
D|-------------------------------------------------------------------------|
A|-88888888-44444444----------66666666-88888888-44444444----------66666666-|
E|-------------------44444444----------------------------44444444----------|

Verse
"Hey, come inside..."
3.
G|-------------------------------------------------------------------|
D|-------------------------------------------------------------------|
A|----------44444444----------66666666----------44444444----------6x-|
E|-11111111----------44444444----------11111111----------44444444----|

Chorus
"Turn around, things have changed..."
4.
G|-------------------------------------------------------------------------|
D|-------------------------------------------------------------------------|
A|-88888888-44444444----------66666666-88888888-44444444----------66666666-|
E|-------------------44444444----------------------------44444444----------|

Outro
5.
G|-------------------------------------------------------------------------|
D|-------------------------------------------------------------------------|
A|-88888888-44444444----------66666666-88888888-44444444----------66666666-|
E|-------------------44444444----------------------------44444444----------|

Verse
"Now I dont see..."
6.
G|-------------------------------------------------------------------------|
D|-------------------------------------------------------------------------|
A|----------44444444----------66666666----------44444444----------66666666-|
E|-11111111----------44444444----------11111111----------44444444----------|

"It doesnt make any sense..."
7.
G|-------------------------------------------------------------------|
D|-------------------------------------------------------------------|
A|----------44444444----------66666666----------44444444----------6x-|
E|-11111111----------44444444----------11111111----------44444444----|

Chorus
"Turn around, things have changed..."
8.
G|-------------------------------------------------------------------------|
D|-------------------------------------------------------------------------|
A|-88888888-44444444----------66666666-88888888-44444444----------66666666-|--x2
E|-------------------44444444----------------------------44444444----------|

Outro
9.
G|--------------------------------------------------------------------------|
D|--------------------------------------------------------------------------|
A|-----------------------------------------------44444444----------66666666-|
E|-1~----------------1~-1/9~-9\4~-4/11~-11111111----------44444444----------|

Chorus
"Turn around, things have changed..."
10.
G|-------------------------------------------------------------------------|
D|-------------------------------------------------------------------------|
A|-88888888-44444444----------66666666-88888888-44444444----------66666666-|--x2
E|-------------------44444444----------------------------44444444----------|

Outro
11.
G|------------------------------------------------------------------------------------------|
D|------------------------------------------------------------------------------------------|
A|-88888888-44444444----------66666666-88888888-44444444----------6-6-6-6-6-6-6-6-6x--------|
E|-------------------44444444----------------------------44444444---------------------11\1~-|

Lyrics:

Hey, come inside
While I stand here acting bold
Can't stand to feel this way
Clear out the cobwebs in my soul

This time I turn around
And things have changed
Now I don't feel the same

Start a fight
I can't defend
One more time
Dammit, I changed again

Now I don't see
Things the way I did before
Can't stand to feel this way
Things I felt yesterday
Don't matter anymore
It doesn't make any sense
To feel so different day to day
Can't stand to feel this way
When nothing's changed except for me

+++++++++++++++++++++

7. Living In Chaos

Tuning: EADG

1.
G|-------------------------------------------|
D|-------------------------------------------|
A|-6h8-88-6h8-6h8-88-6h8-6h8-88-66-8888-9-88-|--x2
E|-------------------------------------------|

2.
G|----------------------------|
D|----------------------------|
A|-44-44--44-44--66-66--66-66-|
E|-------4------4------4------|

Verse
3.
G|-----------------------------|
D|-------------6~-5~-----------|
A|-8x--6h8-6h8-------6~-8x-33~-|--x5
E|-----------------------------|

"When you get up its real..."
4.
G|-------------------------|
D|-------------6x-5x-------|
A|-8x--6h8-6h8-------6x-8x-|
E|-------------------------|

Chorus
"Get on it, up on it..."
5.
G|-------------------------------------------|
D|-------------------------------------------|
A|-6h8-88-6h8-6h8-88-6h8-6h8-88-66-8888-9-88-|--x3
E|-------------------------------------------|

"Get on it, up on it, its on"
6.
G|-------------------------------|
D|-------------------------------|
A|-6h8-88-6h8-6h8-88-6h8-6h8-88x-|
E|-------------------------------|

Verse
"Somewhere along the line..."
7.
G|-----------------------------|
D|-------------6~-5~-----------|
A|-8x--6h8-6h8-------6~-8x-33~-|--x3
E|-----------------------------|

"Embrace the pain and see..."
8.
G|-------------------------|
D|-------------6x-5x-------|
A|-8x--6h8-6h8-------6x-8x-|
E|-------------------------|

Chorus
"Get on it, up on it..."
9.
G|-------------------------------------------|
D|-------------------------------------------|
A|-6h8-88-6h8-6h8-88-6h8-6h8-88-66-8888-9-88-|--x4
E|-------------------------------------------|

Outro
"Falling...."
10.
G|---------------------------------------------|
D|---------------------------------------------|
A|------------4~-------------------------------|--x2
E|-6~-66-6-6~-----------4~-44-4-4~-2~----2~-4~-|

Lyrics:

Somewhere the time was right,
Could have been gone in ten
This world is hard to fight, hitting
You once, hit it again
To know the way it feels, everyone
Gets knocked down
When you get up it's real, by taking
It back, turn it around

Get on it, up on it
Get on it - wouldn't wanna be you
Get on it, out on it
Get on it - no one's gonna free you
You know, when you're keeping it slow
No matter where you wanna go -
Wouldn't wanna be you
Get on it, up on it
It's on, we're living in chaos

Somewhere along the line, things
Get chipped away
This place keeps going down, gets
A little worse every day
I see hate and greed, this world's a
Messed up town
Embrace the pain and see, by taking
It back, you turn it around

++++++++++++++++++++++++++

8. Special Delivery

Tuning: Drop D#

Intro
1.
Gb|------------------------------------------------------------------------|
Db|---------------2242-------------2242-------------2242-------------22424-|
Ab|------------------------------------------------------------------------|
Eb|-14/22-022-022-----0-22-022-022-----0-22-022-022-----0-22-022-022-------|

"Hey now do you see me down the way..."
2.
Gb|---------------------------------------------------------------------|
Db|------------2242-------------2242-------------2242-------------2242--|
Ab|---------------------------------------------------------------------|
Eb|-22-022-022-----0-22-022-022-----0-22-022-022-----0-22-022-022-----0-|

Pre-Chorus
"One day Ill be meeting you for real..."
3.
Gb|------------------------------------|
Db|------------------------------------|
Ab|-22-022-022-020------------77777777-|
Eb|---------------20-55555555----------|

Chorus
"And Ill blow you away..."
4.
Gb|---------------------------------|
Db|-44242-7-4-2-4-------------------|
Ab|------------------------77777777-|--x2
Eb|---------------55555555----------|

Outro
5.
Gb|----------------------------------|
Db|------------2242-------------2242-|
Ab|----------------------------------|
Eb|-22-022-022-----0-22-022-022------|

"Hey now well Im knockin on your door......"
6.
Gb|---------------------------------------------------------------|
Db|------------2242-------------2242-------------2242-------------|
Ab|---------------------------------------------------------------|
Eb|-22-022-022-----0-22-022-022-----0-22-022-022-----0-22-022-02x-|

Chorus
"And Ill blow you away..."
7.
Gb|---------------------------------|
Db|-44242-7-4-2-4-------------------|
Ab|------------------------77777777-|--x3
Eb|---------------55555555----------|

"Then Ill be on my way..."
8.
Gb|-------------------------------------|
Db|-------------------------------------|
Ab|-55555555-55555555-22222222-77777777-|
Eb|-------------------------------------|

Outro
9.
Gb|---------------------------------------------------------------------|
Db|------------2242-------------2242-------------2242-------------2242--|
Ab|---------------------------------------------------------------------|
Eb|-22-022-022-----0-22-022-022-----0-22-022-022-----0-22-022-022-----0-|

"You cant kill a man when hes got no hope..."
10.
Gb|---------------------------------------------------------------|
Db|---------------------------------------------------------------|
Ab|---------------------------------------------------------------|
Eb|-2222222222222222-2222222222222222-2222222222222222-2222222222-|

Chorus
"And Ill blow you away..."
11.
Gb|---------------------------------|
Db|-44242-7-4-2-4-------------------|
Ab|------------------------77777777-|--x3
Eb|---------------55555555----------|

"Then Ill be on my way..."
12.
Gb|-------------------------------------|
Db|-------------------------------------|
Ab|-55555555-55555555-22222222-7-7-7-7--|
Eb|-------------------------------------|

Lyrics:

Hey now do you see me down the way
Been watching you everyday
In my car on your street is where I stay
I know you better that way
One day I'll be meeting you for real
You'll feel bad like I feel

It'll blow you away - You're gonna fall for me
And the voices told me
To blow you away - You're gonna fall for me

Hey now well I'm knocking on your door
This special delivery is yours
My infatuation it's true
Hello, I got something for you

It'll blow you away - You're gonna fall for me
And the voices told me
To blow you away - You're gonna fall for me
If you hadn't sold me
I'd still be away - You're right in front of me
Then, I'll be on my way
Breathing you okay

Can't break from my sins
Cannot pray

But you can't kill a man when he's got no hope
You can't kill a man when he's got no hope

+++++++++++++++++++++++++++++++++++++++++++++

9. One Fine Day

Tuning: EADG

Verse
"Then Id meet up with my friends..."
1.
G|-----------------------------------------------------------------------|
D|-----------------------------------------------------------------------|
A|-22222222-44444444-11111111-66666666-------------------4x--4x--4-4-4-4-|
E|-------------------------------------44444444-44444444-----------------|

Chorus
"Now excitement seems to grow..."
2.
G|------------------------------------------------------------------------|
D|----------------------------------------------------------------4-4-4-4-|
A|----------22222222-44444444-------------------22222222-44444444---------|--x2
E|-22222222-------------------22222222-22222222---------------------------|

Outro
3.
G|---------------------------------------------------------------------------|
D|----------------------------44444444----------------------------8-6-4------|
A|----------22222222-44444444-------------------22222222-44444444-------6-4~-|
E|-22222222----------------------------22222222------------------------------|

Verse
"On that day before were through..."
4.
G|-------------------------------------------------------------------------|
D|-------------------------------------------------------------------------|
A|-22222222-44444444----------66666666-22222222-44444444-------------------|
E|-------------------22222222----------------------------22222222-22222222-|

"Water hoses and batons...."
5.
G|-----------------------------------------------------------------------|
D|-----------------------------------------------------------------------|
A|-22222222-44444444-11111111-66666666-------------------4x--4x--4-4-4-4-|
E|-------------------------------------44444444-44444444-----------------|

Chorus
"Now excitement seems to grow..."
6.
G|------------------------------------------------------------------------|
D|----------------------------------------------------------------4-4-4-4-|
A|----------22222222-44444444-------------------22222222-44444444---------|--x2
E|-22222222-------------------22222222-22222222---------------------------|

Outro
7.
G|---------------------------------------------------------------------------|
D|----------------------------44444444----------------------------8-6-4------|
A|----------22222222-44444444-------------------22222222-44444444-------6-4~-|
E|-22222222----------------------------22222222------------------------------|

Verse
"I believe its my god given right..."
8.
G|------------------------------------|
D|----------------------------4~-4-44-|
A|----------2~--2-22/4~--4-44---------|--x4
E|-2~--2-22---------------------------|

Chorus
"Now excitement seems to grow..."
9.
G|------------------------------------------------------------------------|
D|----------------------------------------------------------------4-4-4-4-|
A|----------22222222-44444444-------------------22222222-44444444---------|--x2
E|-22222222-------------------22222222-22222222---------------------------|

"Then you know that its a one fine day..."
10.
G|---------------------------------------|
D|----------4-4-4-4----------------------|
A|-44444444---------4x--4x--4x-4x----4---|
E|------------------------------------2x-|

Lyrics:

If I had a perfect day
I would have it start this way
Open up the fridge and have a tall boy
Yeah
Then I'd meet up with my friends
Head out to the game again
We don't even really care who wins

Now excitement seems to grow
When we're hangin' with the bro's
When we're chillin' and we pound a case of Stroh's
Now the game is cool to see
You can "High 5" on TV
Count the riot on the one two three
Operation is in sight
And the field is open wide
When you break it then you know you're still alive
If the cops don't make you pay
And you make your getaway
Then you know
That's one fine day

On that day before we're through
We could torch a car or two
Then have ourselves another tall boy
Yeah
Water hoses and batons
That's the real game that's on
I don't really give a shit who wins

I believe it's my god-given right
To destroy everything in my sight
Cause it never gets dull, it never gets old
The only thing it gets is more bold
Drinkin', fightin', going to the game
In our world it's a way to stay sane
If you're asking me
To have it my way, I'd say that's
One fine day

+++++++++++++++++++++++++++++++++++++++++++++

10. All Along

Tuning: EADG

Intro
1.
G|------------------------------------------------------------------|
D|-----------------------------55-5----------------------------55-5-|
A|-77-777-755-5------------33-3----77-777-755-5------------33-3-----|
E|-------------33-355-555-5--------------------33-355-555-5---------|

Verse
"Deep inside secret's burning..."
2.
G|---------------------------------------------------------------------------------------------------------|
D|---------------------------------------------------------------------------------------------------5-555-|
A|-7-777-77-777-5-555-55-555--------------3-333---------7-777-77-777-5-555-55-555--------------3-333-------|
E|---------------------------5-555-55-555-------3-333-3---------------------------5-555-55-555-------------|

Chorus
"All along..."
3.
G|-----------------------------------------------------------|
D|--------------------------555--------------------------555-|
A|-777-77-555-55--------333-----777-77-555-55--------333-----|
E|---------------555-55-----------------------555-55---------|

Outro
4.
G|----------------------------------|
D|-----------------------------55-5-|
A|-77-777-755-5------------33-3-----|
E|-------------33-355-555-5---------|

Verse
"Close my eyes from the burning..."
5.
G|---------------------------------------------------------------------------------------------------------|
D|---------------------------------------------------------------------------------------------------5-555-|
A|-0-000-00-000-5-555-55-555--------------3-333---------0-000-00-000-5-555-55-555--------------3-333-------|
E|---------------------------5-555-55-555-------3-333-3---------------------------5-555-55-555-------------|

Chorus
"All along..."
6.
G|-----------------------------------------------------------|
D|--------------------------555--------------------------555-|
A|-777-77-555-55--------333-----777-77-555-55--------333-----|
E|---------------555-55-----------------------555-55---------|

Outro
7.
G|------------------------------|    |----------------------------------------------------|
D|------------------------------|    |--------------------------------------------7x----5-|
A|-777-77-555-55--------333-----|--x2|--------555-55--------333------------555-55---------|
E|---------------555-55-----333-|    |-000-00--------555-55-----333-000-00----------------|

Chorus
"All along..."
8.
G|-----------------------------------------------------------|
D|--------------------------555--------------------------555-|
A|-777-77-555-55--------333-----777-77-555-55--------333-----|
E|---------------555-55-----------------------555-55---------|

Outro
"All along I still believed in you..."
9.
G|------------------|
D|-----------5-5----|
A|-------3-3-----7x-|
E|-5~---------------|

Lyrics:

Deep inside secret's burning
I Should have known all the while what's true
I went along, to fool myself
Can't go on, I can't escape it

All along
I think I really knew
It was there in the words unspoken
All along
Still believed in you
Now I stand here betrayed and broken

Close my eyes from the burning
All along all the while it's true
Take it on, or turn your back
Either way, you can't escape it

+++++++++++++++++++++++++++++++++++++++++++

11. Denial, Revisited

Tuning: EADG

Intro
1.
G|-----------------------------------------|
D|-----------------------------------------|
A|-------6--6-6-66/8--8-8-8-8-6--6-6-66-8~-|
E|-1/13~-----------------------------------|

Verse
"So here we go..."
2.
G|-------------------------------------------------|
D|-------------------------------------------------|
A|-----------------------6-6-6-6-------------------|--x3
E|-1/13~---8--1/13~---8----------6-6-6-6-1/13~---8-|

"If I could say..."
3.
G|-------------------------------------------------------|
D|-------------------------------------------------------|
A|-----------------------6-6-6-6-------------------------|
E|-1/13~---8--1/13~---8----------6-6-6-6-1-1-1-1-1-1-1-1-|

Chorus
"And If you go..."
4.
G|-----------------------------------------------------|
D|-----------------------------------------------------|
A|-666666-6~-----------------888888-8~----888888-8~----|--x2
E|--------------666666-6~------------------------------|

Outro
5.
G|----------------------------------------|
D|----------------------------------------|
A|-66-6-6~----88-8-8~----66-6-6~----8~----|
E|----------------------------------------|

Verse
"Replay last night..."
6.
G|-------------------------------------------------|
D|-------------------------------------------------|
A|-----------------------6-6-6-6-------------------|
E|-1/13~---8--1/13~---8----------6-6-6-6-1/13~---8-|

"I know she's tried..."
7.
G|-------------------------------------------------------|
D|-------------------------------------------------------|
A|-----------------------6-6-6-6-------------------------|
E|-1/13~---8--1/13~---8----------6-6-6-6-1-1-1-1-1-1-1-1-|

Chorus
"And If you go..."
8.
G|-----------------------------------------------------|
D|-----------------------------------------------------|
A|-666666-6~-----------------888888-8~----888888-8~----|--x2
E|--------------666666-6~------------------------------|

Outro
"I know it'll be..."
9.
G|--------------------------------------------------|
D|--------------------------------------------------|
A|-666666-6~---------------------------------6~--8~-|
E|--------------666666-6~----4-4-4-4-6-6-6-6---6~---|

Outro
10.
G|---------------------------------------------|
D|---------------------------------------------|
A|-66-6-6~----88-8-8~----66-6-6~----88-8-8~----|
E|---------------------------------------------|

11.
G|----------------------------------------|
D|----------------------------------------|
A|-66-6-6~----88-8-8~----66-6-6~----------|
E|----------------------------------------|

12.
G|-----------------------------------------------------------------|
D|-----------------------------------------------------------------|
A|-----------------------------------------------------------------|
E|-1-1-1-1-1-1-1-1-1-1-1-1-1-1-1-1-1-1-1-1-1-1-1-1-1-1-1-1-1-1-1-1-|

Chorus
"And when we wrote this story..."
13.
G|---------------------------------------------|
D|---------------------------------------------|
A|-6-66666666------------8-88888888-8-88888888-|--x3
E|------------6-66666666-----------------------|

"I'd wait here for you..."
14.
G|---------------------------------------------|
D|---------------------------------------------|
A|-6~------------------------------------------|
E|---------11\6~-------------------------------|

Lyrics:

So here we go
Having the same old fight again There she goes
Same old game that never ends If I could say The right words
I know I could make you stay If I could say The right words
Things would work out all right

And if you go, I won't believe
That it's forever
And you can go, But I'll never leave
Cause it's not over

Replay last night
Talking it out don't make it right
I know she's tried, but my whole world
Is her and all we've got now

I won't let go, Even if she say that it's over
I know it'll be different this time if you'd just stay

And when we wrote this story, how did it end?
It was you and me for all our lives
Come on, don't say it, we'll try again
And if I'd just hold you, we could last
But she stands softly, tears down her face
Hitting me, oh god this is the end
I'd wait here for you but there's nothing more now I can do
How did you know
Finally

+++++++++++++++++++++++++++++++++++++++++++++++++++++++++

12. Vultures

Tuning: EADG

Intro
1.
G|-----------------------|
D|-----------------------|
A|------3~--3-232----2---|--x2
E|-5~--5---------0~-0-0~-|

"Now I could lie by your side..."
2.
G|-----------------------|
D|-----------------------|
A|------3~--3-232----2---|--x8
E|-5~--5---------0~-0-0~-|

Pre-Chorus
"And you faded there..."
3.
G|-------------------------------------------------------------------|
D|-------------------------------------------------------------------|
A|-5-5/8-8---------5-5/8-8---------5-5/8-8---------------------------|
E|---------5-5/8-8---------5-5/8-8---------5-5/8-8-00000000-00000000-|

Chorus
"Yeah...I dont know..."
4.
G|------------------|     |-------------------|
D|------------------|     |-------------------|
A|-00-033-3---------|--x3 |-55555555/77777777-|
E|---------00-0x-00-|     |-------------------|

Outro
5.
G|-----------------------|
D|-----------------------|
A|------3~--3-232----2---|--x2
E|-5~--5---------0~-0-0~-|

"And in the sun..."
6.
G|-----------------------|
D|-----------------------|
A|------3~--3-232----2---|--x4
E|-5~--5---------0~-0-0~-|

Pre-Chorus
"And you were unchained..."
7.
G|-------------------------------------------------------------------|
D|-------------------------------------------------------------------|
A|-5-5/8-8---------5-5/8-8---------5-5/8-8---------------------------|
E|---------5-5/8-8---------5-5/8-8---------5-5/8-8-00000000-00000000-|

Chorus
"Yeah...I dont know..."
8.
G|------------------|     |-------------------|
D|------------------|     |-------------------|
A|-00-033-3---------|--x3 |-55555555/77777777-|
E|---------00-0x-00-|     |-------------------|

Chorus
"Yeah...I wont play..."
9.
G|------------------|     |-------------------|
D|------------------|     |-------------------|
A|-00-033-3---------|--x3 |-55555555/77777777-|
E|---------00-0x-00-|     |-------------------|

Outro
10.
G|-----------------------|
D|-----------------------|
A|------3~--3-232----2---|--x4
E|-5~--5---------0~-0-0~-|

Pre-Chorus
"And you were unchained..."
11.
G|-------------------------------------------------------------------|
D|-------------------------------------------------------------------|
A|-5-5/8-8---------5-5/8-8---------5-5/8-8---------------------------|
E|---------5-5/8-8---------5-5/8-8---------5-5/8-8-00000000-00000000-|

Chorus
"Yeah...I dont know..."
12.
G|------------------|     |-------------------|
D|------------------|     |-------------------|
A|-00-033-3---------|--x3 |-55555555/77777777-|
E|---------00-0x-00-|     |-------------------|

Chorus
"Yeah...I wont play..."
13.
G|------------------|     |-------------------|
D|------------------|     |-------------------|
A|-00-033-3---------|--x3 |-55555555/77777777-|
E|---------00-0x-00-|     |-------------------|

14.
G|-----------------------------------------|
D|-----------------------------------------|
A|-0~--------------------------------------|
E|-----------------------------------------|

Lyrics:

Now I could lie by your side
All serrated for you
Down below cancer grows
Weeping waits inside you too
All our rage begs a stage
It's a waste of time though
And you style seems worthwhile
But this lonely road has turned

And you faded there
They pretend to care
Vultures waiting
If you don't like me
Certify Me

Yeah - I don't know
Yeah - I won't go
Yeah - Save it I'm okay

And in the sun a loaded gun
Makes for conversation
All the while in denial
It's too late for me to change

And you were unchained
Nothing more had changed
I could fake it
If you still hate me
Confiscate me

Yeah - I won't play
Yeah - Go away
Yeah - Save it I'm okay

++++++++++++++++++++++++++++++++++++++++++++++++++++++

13. Conspiracy of One

Tuning: EADG

Intro
1.
G|--------------------------------|
D|--------------------------------|
A|--55-355-355-313-55-355-355-313-|
E|--------------------------------|

Verse
"Red over white..." (1 not 11)
2.
G|----------------------------------------------------|
D|----------------------------------------------------|
A|-555-785----33333333----1111111111-3-55-355-355-313-|
E|---------11----------11-----------------------------|

"Bring on the night..."
3.
G|------------------------------------------------|
D|------------------------------------------------|
A|-555-785----33333333----1111111111-3-55-355-35x-|
E|---------11----------11-------------------------|

Chorus
"Nobody wins..."
4.
G|--------------------------------------------------------|
D|--------------------------------------------------------|
A|-555-78-333--3-555-78-333--3-555-78-333--3-111111111111-|
E|------------3-------------3-------------3---------------|

Outro
5.
G|--------------------------------|
D|--------------------------------|
A|--55-355-355-313-55-355-355-313-|
E|--------------------------------|

Verse
"Bring on the night..."
6.
G|----------------------------------------------------|
D|----------------------------------------------------|
A|-555-785----33333333----1111111111-3-55-355-355-313-|
E|---------11----------11-----------------------------|

"Red over white..."
7.
G|------------------------------------------------|
D|------------------------------------------------|
A|-555-785----33333333----1111111111-3-55-355-35x-|
E|---------11----------11-------------------------|

Chorus
"Nobody wins..."
8.
G|--------------------------------------------------------|
D|--------------------------------------------------------|
A|-555-78-333--3-555-78-333--3-555-78-333--3-111111111111-|--x2
E|------------3-------------3-------------3---------------|

Break
9.
G|--------------------------------------|
D|-----------------------------------5~-|
A|-5-5-5-5-5-7-7-8~----1-1-1-1-1--------|--x2
E|-------------------------------1-3----|

10.
G|-------------------------------------------------------------|
D|-------------------------53-------------------------55555555-|
A|-5555555-77-888-1111111-----5555555-77-888-11111111----------|
E|-----------------------13------------------------------------|

Chorus
"Nobody wins..."
11.
G|--------------------------------------------------------|
D|--------------------------------------------------------|
A|-555-78-333--3-555-78-333--3-555-78-333--3-111111111111-|--x2
E|------------3-------------3-------------3---------------|

Outro
12.
G|------------|
D|------------|
A|-55-355-35x-|
E|------------|

Lyrics:

Red over white
It's one last fatal scene
Brought on by someone unseen
Moving on their own
Bring on the night
And bring us all to our knees
All are gone and none agreed
One who acts alone

Nobody wins
Nobody hears us fall
Nobody wins
When it's done
Conspiracy of one

+++++++++++++++++++++++++++++++++++++++++++++++++++++

14. Huck It! (Bonus Track)

Tuning: EADG

Intro
1.
G|------------------------------------------|
D|------------------------------------------|
A|-777-5777-5777-5777-5777-5777-5777-5777-5-|--x2
E|------------------------------------------|

2.
G|--------------------------------------|
D|----------------------------5555-7777-|
A|-77777777-55555555--------------------|--x2
E|-------------------55555555-----------|

Verse
"Hitting walls for a feet..."
3.
G|--------------------------------------------------------|
D|------545--545--------------------545--54---------------|
A|-7~------7----5~-------------7~------7---5~---5555-5555-|
E|-------------------3333-5555----------------------------|

Chorus
"Huck it! You dont have the ties..."
4.
G|-------------------------------------------------------------|
D|------55-77---------55-------55-77---------55---------55-----|
A|-3333-------57777-77---53333-------57777-77---57777-77---35~-|
E|-------------------------------------------------------------|

Verse
"Drop a bomb..."
5.
G|---------------------------------------------------------|
D|------545--545--------------------545--545---------------|
A|-7~------7----5~-------------7~------7----5~-------------|
E|-------------------3333-5555-------------------3333-5555-|

"Broken bombs and baking skin..."
6.
G|---------------------------------------------------------|
D|---------------------------------------------------------|
A|--------------5~--------------------------5~---5555-5555-|
E|-0~---3230-323-----3333-5555-0~---3230-323---------------|

Chorus
"Huck it! Now you feel alive..."
7.
G|-------------------------------------------------------------|
D|------55-77---------55-------55-77---------55---------55-----|
A|-3333-------57777-77---53333-------57777-77---57777-77---35~-|--x2
E|-------------------------------------------------------------|

Outro
8.
G|------------------------------------------|
D|------------------------------------------|
A|-777-5777-5777-5777-5777-5777-5777-5777-5-|--x2
E|------------------------------------------|

Break
9.
G|-------------------------------------------------------------------|
D|-------------------------------------------------------------------|
A|--------------3~-------------------------------3~-3333333-33333333-|
E|-00x--3230--32------33333333-555--00~--3230--32--------------------|

Chorus
"Huck it! Now you feel alive..."
10.
G|-------------------------------------------------------------|
D|------55-77---------55-------55-77---------55---------55-----|
A|-3333-------57777-77---53333-------57777-77---57777-77---35~-|--x2
E|-------------------------------------------------------------|

Outro
11.
G|----|
D|----|
A|-7x-|
E|----|

Lyrics:

Hitting walls for a feet
With our friends and we hear this free
All the dogs, dropping bombs
He see

Huck it You don't have the ties
You won't have the eyes
Huck it Cause you realize
You don't need to justify
That cable show is not the lives we know

Drop a bomb in the publics eye
Fuck the Spartans they always lie
You are pointing to go fast and GO

Broken bombs and baking skin
Notify your next of kin
You'll know you'll come alive some day

Huck it Now you feel alive,
stinks like shit all the time
Huck it Its like you gotta try
risky shit, by the time
You can not practice lay it on the line

Huck it Now you're down in luck
cause you dont give a fuck
Huck it And go by the time
You go out doin what you know 
no talking shit just leave it all and go home

+++++++++++++++++++++++++++++++++++++++++++++++++++++

That's all
Rate me please

+++++++++++++++++++++++++++++++++
| RaiLeff                       |
| Underground__Dora@Hotmail.Com |
+++++++++++++++++++++++++++++++++
comments
print report bad tab
2 comments total.
0 reply
iheart_a7x wrote on May 2 2007, 08:48 pm

Hey the offspring is awesome. 5 stars!

0 reply
L.Hogston wrote on September 17 2014, 10:20 am

Lack of accuracy. Denial revisited is far from accurate. Living in chaos is missing various notes. its ok but can do with some serious adjusting

I want to post or [tab]
guest
You may want to rate the tab now too:
select rating
Please do not post tabs as comments. Select "correction" instead!