Oops, an error
Loading. Please wait.

Conspiracy Of One Tab

ver1
ver1

Album

Whole song

Interactive

More versions @911Tabs.com
20,394 views 15 this week
4 commentsread comments
1 2 3 4 5
excellent!
x 11
Autoscroll
+/-
esc
set tempo
stop
Contributor
Hey! There's an official Ultimate Guitar app which is ideal
for learning songs when you're away from computer. Get the app
WARNING: You are trying to view
                                    content from Ultimate-Guitar.com
                                    in an unauthorized application,
                                    which is prohibited.

                                    Please use an official Ultimate
                                    Guitar Tabs application for iPhone,
                                    iPad or Android to access legitimate
                                    chords, guitar, bass, and drum tabs
                                    from Ultimate-Guitar.com database.

                                    Type "ultimate guitar tabs" in Apple
                                    App Store's or Android Market's
                                    search to find the application.
THE OFFSPRING

CONSPIRACY OF ONE (2000)

Tuning: eBGDAE
Album: Conspiracy of One
Band: The Offspring
Tabbed by: Duncan Usher
Email: IKSOSE3@hotmail.com
Track list:      Intro
            2. Come out swinging
            3. Original Prankster
            4. Want you Bad
            5. Million Miles Away
            6. Dammit, I Changed Again
            7. Living in Chaos
            8. Special Delivery
            9. One Fine Day
           10. All Along
           11. Denial, Revisited
           12. Vultures
           13. Conspiracy of One
           14. Huck It (Bonus Track)

So this is the full tab to Conspiracy of One, the best of The Offspring's
albums I think. Any mistakes tell me, or if you want me to change the songs
stand out lyrics thing just leave a comment and Ill change by demand (if I
get any :p) Anyway, this all works for me, hope it does for you.

Intro

"When we're ready to sing, we step up to the microphones and it comes out
something like this" - The Offspring


1. Come Out Swinging

"Don't turn away, don't turn away, Come out swinging, Out on your own"


Intro
e|---------------------------------------------------------------------------|
B|---------------------------------------------------------------------------|
G|-99-7-9-7-9-11-121212-7-12-11----------------------------------------------|
D|-99-7-9-7-9-11-121212-7-12-11----------------------------------------------|
A|-77-5-7-5-7--9-101010-5-10--9----------------------------------------------|
E|---------------------------------------------------------------------------|

Pre-Verse
e|---------------------------------------------------------------------------|
B|---------------------------------------------------------------------------|
G|-9-999-9-999-9-999-9-999-9-999-9-999-9-999-9-999-9-999-9-999-9-999-99999\--|
D|-9-999-9-999-9-999-9-999-9-999-9-999-9-999-9-999-9-999-9-999-9-999-99999\--|
A|-7-777-7-777-7-777-7-777-7-777-7-777-7-777-7-777-7-777-7-777-7-777-77777\--|
E|---------------------------------------------------------------------------|
     xxx   xxx   xxx   xxx   xxx   xxx   xxx   xxx   xxx   xxx   xxx         
                                
Verse 1
e|---------------------------------------------------------------------------|
B|---------------------------------------------------------------------------|
G|---------------------------------------------------------------------------|
D|---------------------------------------------------------------------------|
A|-7----------5---------7-------------7-------------5----------7-------------|
E|---------------------------------------------------------------------------|
(this part is played during the first verse, with some sort of effect, its quiet
In the background)

Verse 2 
e|---------------------------------------------------------------------------|
B|---------------------------------------------------------------------------|
G|-9999-7777-9999/-11-12-11-7--9999-7777-9999--55-77-------------------------|
D|-xxxx-xxxx-xxxx/--x--x--x-x--xxxx-xxxx-xxxx--55-77-------------------------|
A|-7777-5555-7777/--9-10--9-5--7777-5555-7777--33-55-------------------------|
E|---------------------------------------------------------------------------|

Chorus 1
e|---------------------------------------------------------------------------|
B|---------------------------------------------------------------------------|
G|-9-9-7-9-7----------------------5-5-7-7------------------------------------|
D|-9-9-7-9-7--2-5-5-5---5-7-5-7-5-5-5-7-7------------------------------------|
A|-7-7-5-7-5--2-5-5-5---5-7-5-7-5-3-3-5-5------------------------------------|
E|------------0-3-3-3---3-5-3-5-3--------------------------------------------|

Chorus 2
e|---------------------------------------------------------------------------|
B|---------------------------------------------------------------------------|
G|-9-9-7-9-7-------------------------------7---------------------------------|
D|-9-9-7-9-7--2-5-5-5---5-7-5-7-5--7-5-4-2-7---------------------------------|
A|-7-7-5-7-5--2-5-5-5---5-7-5-7-5--7-5-4-2-5---------------------------------|
E|------------0-3-3-3---3-5-3-5-3--5-3-2-0-----------------------------------|

Verse 3
e|---------------------------------------------------------------------------|
B|---------------------------------------------------------------------------|
G|---------------------------------------------------------------------------|
D|-2-222-2-222-2-222-5-555-5-555-7-777-7-777-7-777-7-777-7-777-7-777---------|
A|-2-222-2-222-2-222-5-555-5-555-7-777-7-777-7-777-7-777-7-777-7-777---------|
E|-0-000-0-000-0-000-3-333-3-333-5-555-5-555-5-555-5-555-5-555-5-555---------|

e|---------------------------------------------------------------------------|
B|---------------------------------------------------------------------------|
G|------------------------------------55-77----------------------------------|
D|-2-222-2-222-2-222-5-555-5-555-7-7--55-77----------------------------------|
A|-2-222-2-222-2-222-5-555-5-555-7-7--33-77----------------------------------|
E|-0-000-0-000-0-000-3-333-3-333-5-5-----------------------------------------|

Pre-Bridge
e|---------------------------------------------------------------------------|
B|---------------------------------------------------------------------------|
G|-5-555-4-444-7-777-9~------------------------------------------------------|
D|-5-555-4-444-7-777-9~------------------------------------------------------|
A|-3-333-2-222-5-555-7~------------------------------------------------------|
E|---------------------------------------------------------------------------|

Pre-Bridge 2
e|---------------------------------------------------------------------------|
B|---------------------------------------------------------------------------|
G|-9999-7777-9999/-11-12-11-7------------------------------------------------|
D|-xxxx-xxxx-xxxx/--x--x--x-x------------------------------------------------|
A|-7777-5555-7777/--9-10--9-5------------------------------------------------|
E|---------------------------------------------------------------------------|

Bridge
e|---------------------------------------------------------------------------|
B|---------------------------------------------------------------------------|
G|-99999999-55555555-222222222-77777777-88888888-----------------------------|
D|-99999999-55555555-222222222-77777777-88888888-----x3----------------------|
A|-77777777-33333333-000000000-55555555-66666666-----------------------------|
E|---------------------------------------------------------------------------|
   xxxxxxxx xxxxxxxx xxxxxxxxx xxxxxxxx xxxxxxxx

e|---------------------------------------------------------------------------|
B|---------------------------------------------------------------------------|
G|-99999-55555-22222-77777---------------------------------------------------|
D|-99999-55555-22222-77777-9-999---------------------------------------------|
A|-77777-33333-00000-55555-9-999-x-10----------------------------------------|
E|-------------------------7-999---------------------------------------------|

Ending
e|---------------------------------------------------------------------------|
B|---------------------------------------------------------------------------|
G|-5-5555-5-5555-7-777-------------------9-----------------------------------|
D|-5-5555-5-5555-7-777--7-5-7-5-7-5-3-2--9-----------------------------------|
A|-3-3333-3-3333-5-555--7-5-7-5-7-5-3-2--7-----------------------------------|
E|----------------------5-3-5-3-5-3-1-0--------------------------------------|

Intro x2
Pre-verse
Verse 1
Verse 2
Chorus 1
Chorus 2
Intro x 2
Verse 1
Verse 3
Chorus 1 x 2
Pre Bridge
Pre Bridge 2
Bridge
Chorus 1 x 3
Ending  

2. Original Prankster

"Knock down the walls, It's alive in you, Knock down the place, You're alone it's true"

Intro 1
e|---------------------------------------------------------------------------|
B|---------------------------------------------------------------------------|
G|---------------------------------------------------------------------------|
D|---------------------7---------------------------------7-------------------|
A|-0-0-3-0-0---0-0-3-0---0-3-0---0-0-3-0-0---5---0-0-3-0---0-0-5-5-3-5-3-----|
E|---------------------------------------------------------------------------|

Intro 2
e|---------------------------------------------------------------------------|
B|---------------------------------------------------------------------------|
G|---------------------------------------------------------------------------|
D|---------7-------------------------------7---------------------------------|
A|-0-0-3-0---0-6-5-5-3-5-3--[-x3-]--0-0-3-0--0-6-5---------------------------|
E|---------------------------------------------------------------------------|

Verse
e|---------------------------------------------------------------------------|
B|---------------------------------------------------------------------------|
G|-------------------------------------------99-999999-----------------------|
D|---------7-----------------------55-555555-99-999999-----------------------|
A|-0-0-3-0---0-6-5-5-3-5-3—[-x3-]--55-555555-77-777777-----------------------|
E|---------------------------------33-333333---------------------------------|
   x x x x x x x x x x x x            xxxxxx

Pre-Chorus
e|---------------------------------------------------------------------------|
B|---------------------------------------------------------------------------|
G|---7-9-8-7-7-5-7-5-----------------99999999--------------------------------|
D|-7-7-9-8-7-7-5-7-5--x-3---5-555555-99999999--------------------------------|
A|-7-5-7-6-5-5-3-5-3--------5-555555-77777777--------------------------------|
E|-5------------------------3-333333-----------------------------------------|
                                                xxxxxx
Chorus
e|---------------------------------------------------------------------------|
B|---------------------------------------------------------------------------|
G|----7/12------12/7--12/7--12-12-12-12-13-----------------------------------|
D|-77-7/12~-x3--12/7--12/7--12-12-12-12-13-----------------------------------|
A|-77-5/10~-----10/5--12/5--10-10-10-10-11-----------------------------------|
E|-55------------------------------------------------------------------------|

Bridge
e|---------------------------------------------------------------------------|
B|---------------------------------------------------------------------------|
G|---------------------------------------------------------------------------|
D|---------7-----------------------------------------------------------------|
A|-0-0-3-0---0-6-5-5-3-5-3--[x6]—(on the 5th time stop muting)----------------|
E|---------------------------------------------------------------------------|
   x x x x x x x x x x x x

e|---------------------------------------------------------------------------|
B|---------------------------------------------------------------------------|
G|-----------9\-9\-----------------------------------------------------------|
D|-5-555555--9\-9\-----------------------------------------------------------|
A|-5-555555--7\-7\-----------------------------------------------------------|
E|-3-333333------------------------------------------------------------------|
     xxxxxx

e|---------------------------------------------------------------------------|
B|---------------------------------------------------------------------------|
G|-12----12/7-1212121212-13-14-----------------------------------------------|
D|-10-x7-12/7-1212121212-11-12-----------------------------------------------|
A|-10----12/5-1010101010-11-12-----------------------------------------------|
E|---------------------------------------------------------------------------|

3. Want you Bad

"I want you, All tattooed, I want you bad"


Intro 1            Intro 2
e|-------------|--|----------------------------------------------------------|
B|-------------|--|----------------------------------------------------------|
G|-9-------6-4-|--|--9-9-----------------------------------------------------|
D|-9-99-77-6-4—|x4|--9-9x20--------------------------------------------------|
A|-7-99-77-4-2-|--|--9-7-----------------------------------------------------|
E|---77-55-----|--|----------------------------------------------------------|
                       x
Verse
e|---------------------------|-------|-second time play----------------------|
B|---------------------------|-------|---------------------------------------|
G|-9-9-----6-6-----4-4----4--|-------|---------------------------------------|
D|-9-9x12--6-6x12--4-4x12-4--|7-6-7-9|-xx7-xx6-xx7-xx9-----------------------|
A|-7-7-----4-4-----2-2----2--|7-6-7-9|-xx7-xx6-xx7-xx9-----------------------|
E|---------------------------|5-4-5-7|-xx5-xx4-xx5-xx7-----------------------|
     x       x       x   

Pre-Chorus
e|---------------------------------------------------------------------------|
B|---------------------------------------------------------------------------|
G|-------------------6-6-6-6--9-9-9-9--------------------6-6-6-6--4-xxxx-----|
D|-7-7-7-7--9-9-9-9--6-6-6-6--9-9-9-9--7-7-7-7--9-9-9-9--6-6-6-6--4-xxxx-----|
A|-7-7-7-7--9-9-9-9--4-4-4-4--7-7-7-7--7-7-7-7--9-9-9-9--4-4-4-4--2-xxxx-----|
E|-5-5-5-5--7-7-7-7--------------------5-5-5-5--7-7-7-7----------------------|

Chorus
e|---------------------------------------------------------|---2nd time play-|
B|---------------------------------------------------------|-----------------|
G|-9-9-9-9-9-9-9-9-6-6-6-6-6-6-6-6-4-4-4-4-4-4-4-4---------|-----------------|
D|-9-9-9-9-9-9-9-9-6-6-6-6-6-6-6-6-4-4-4-4-4-4-4-4-7-6-7-9-|-xx7-xx6-xx7-xx9-|
A|-7-7-7-7-7-7-7-7-4-4-4-4-4-4-4-4-2-2-2-2-2-2-2-2-7-6-7-9-|-xx7-xx6-xx7-xx9-|
E|-------------------------------------------------5-4-5-7-|-xx5-xx4-xx5-xx7-|

Bridge
e|------7+--7+---------------------------------------------------------------|
B|--------7+-----------------------------------------------------------------|
G|-4~----------4~-------9~---4~---4~--------9~---4~--------------------------|
D|-4~----------4~---7~--9~---4~---4~---7~---9~---4~--------------------------|
A|-2~----------2~---7~--7~---2~---2~---7~---7~---2~--------------------------|
E|------------------5~-----------------5~------------------------------------|

Solo
e|---------------------------------------------------------------------------|
B|---------------------------------------------------------------------------|
G|---------------------------------------------------------------------------|
D|---------------------------------------------------------------------------|
A|-6-6-66-6-66-6-66-6-4-4-44-44-44-44-4-2-2-222--7-7-777-6-6-66-6-6-66-66-6--|
E|---------------------------------------------------------------------------|

e|---------------------------------------------------------------------------|
B|---------------------------------------------------------------------------|
G|--------------------2-2-222-4-4-444-6-6-666-9-9-999------------------------|
D|-4-4-44-4-44-4-44-4--------------------------------------------------------|
A|---------------------------------------------------------------------------|
E|---------------------------------------------------------------------------|

Chorus 2
e|---------------------------------------------------------------------------|
B|---------------------------------------------------------------------------|
G|-9-9-9-9-9-9-9-9-6-6-6-6-6-6-6-6-4-4-4-4-4-4-4-4------9~-------------------|
D|-9-9-9-9-9-9-9-9-6-6-6-6-6-6-6-6-4-4-4-4-4-4-4-4--7~--9~-------------------|
A|-7-7-7-7-7-7-7-7-4-4-4-4-4-4-4-4-2-2-2-2-2-2-2-2--7~--7~-------------------|
E|--------------------------------------------------5~-----------------------|

End on
e|---------------------------------------------------------------------------|
B|---------------------------------------------------------------------------|
G|-9~------------------------------------------------------------------------|
D|-9~------------------------------------------------------------------------|
A|-7~------------------------------------------------------------------------|
E|---------------------------------------------------------------------------|

Intro 1 x4
Intro 2
Verse x 2
Pre-Chorus
Chorus
Intro 2
Verse
Pre-Chorus
Chorus
Intro 1 x 4
Bridge
Solo
Chorus
Chorus 2
Intro 1 x 3
End on

4. Million Miles Away

"A Million Miles Away"

Intro

Guitar 1 - Plays this all through the Intro
e|---------------------------------------------------------------------------|
B|---------------------------------------------------------------------------|
G|-----------------4---------------------------------------------------------|
D|-----4-----2-----------2-----2h4-------------------------------------------|
A|-2-2---2-2---2-2---2-2---2-2-----------------------------------------------|
E|---------------------------------------------------------------------------|
   x x   x x   x x   x x   x x 

Guitar 2 Part I
e|---------------------------------------------------------------------------|
B|---------------------------------------------------------------------------|
G|------99-9\----------------------------------------------------------------|
D|-7-77-99-9\----------------------------------------------------------------|
A|-7-77-77-7\----------------------------------------------------------------|
E|-5-55----------------------------------------------------------------------|

Part II
e|---------------------------------------------------------------------------|
B|---------------------------------------------------------------------------|
G|------2-2/4--4/7--7/9---9/-------------------------------------------------|
D|-4-4--2-2/4--4/7--7/9---9/-------------------------------------------------|
A|-4-4--0-0/2--2/5--5/7---7/-------------------------------------------------|
E|-2-2/----------------------------------------------------------------------|

Part III
e|---------------------------------------------------------------------------|
B|---------------------------------------------------------------------------|
G|--11------------999999-----------------------------------------------------|
D|--11-x12--77777-999999-----------------------------------------------------|
A|---9------77777-777777-----------------------------------------------------|
E|----------55555------------------------------------------------------------|

Verse
e|---------------------------------------------------------------------------|
B|---------------------------------------------------------------------------|
G|---------------------------------------------------------------------------|
D|-4-444444444444-4/7-7777-7/14-14141414\------------------------------------|
A|-4-444444444444-4/7-7777-7/14-14141414\------------------------------------|
E|-2-222222222222-2/5-5555-5/12-12121212\------------------------------------|
     xxxxxxxxxxxxx    xxxx      xxxxxxxx

Pre-Chorus
e|------------------------|------|-------------------------------------------|
B|------------------------|------|-------------------------------------------|
G|-4-44--6-66--7-77--6-66-|-9----|-9-------9999------------------------------|
D|-x-xx--x-xx--x-xx--x-xx-|-9-x8-|-9-9-x26-9999------------------------------|
A|-2-22--4-44--5-55--4-44-|-7----|-7-7-----7777------------------------------|
E|------------------------|------|-------------------------------------------|
                                     x     xxxx
Chorus                                     
e|---------------------------------------------------------------------------|
B|---------------------------------------------------------------------------|
G|--11------------999999-----------------------------------------------------|
D|--11-x12--77777-999999-----------------------------------------------------|
A|---9------77777-777777-----------------------------------------------------|
E|----------55555------------------------------------------------------------|

Post-Chorus
e|---------------------------------------------------------------------------|
B|---------------------------------------------------------------------------|
G|----------2-2------4-4------7777--9999-------------------------------------|
D|-4-4------2-2-x14--4-4-x14--7777--9999-------------------------------------|
A|-4-4-x14--0-0------2-2------5555--7777-------------------------------------|
E|-2-2/----------------------------------------------------------------------|
     x        x        x                  

Solo

Guitar 1
e|-------------------------|--|-------------------------------|--|-----------|
B|-------------------------|--|-------------------------------|--|-----------|
G|-16b-14-11---16b--14/16--|--|-------------------------------|--|-----------|
D|-16b-14-11---16b--14/16--|x2|-19\-16-16-1616-14-16/19-19-19-|x3|-----------|
A|-------------------------|--|-------------------------------|--|-----------|
E|-------------------------|--|-------------------------------|--|-----------|

e|---------------------------------------------------------------------------|
B|---------------------------------------------------------------------------|
G|---------------------------------------------------------------------------|
D|-19b—21b-18b-14b-----------------------------------------------------------|
A|---------------------------------------------------------------------------|
E|---------------------------------------------------------------------------|

Guitar 2
e|---------------------------------------------------------------------------|
B|---------------------------------------------------------------------------|
G|--11------------999999-----------------------------------------------------|
D|--11-x12--77777-999999-----------------------------------------------------|
A|---9------77777-777777-----------------------------------------------------|
E|----------55555------------------------------------------------------------|

e|---------------------------------------------------------------------------|
B|---------------------------------------------------------------------------|
G|-------2-----4-----7------9------------------------------------------------|
D|-4-----2-x8--4-x8--7-x4---9-x4---------------------------------------------|
A|-4-x8--0-----2-----5------7------------------------------------------------|
E|-2-------------------------------------------------------------------------|

End On
e|---------------------------------------------------------------------------|
B|---------------------------------------------------------------------------|
G|---------------------------------------------------------------------------|
D|-4~------------------------------------------------------------------------|
A|-4~------------------------------------------------------------------------|
E|-2~------------------------------------------------------------------------|

Intro Guitar 1
Intro Guitar 2 Part I
Intro Guitar 1
Intro Guitar 2 part I
Intro Guitar 1 & Intro Guitar Part II 
Intro Guitar 1 & Intro Guitar Part III x 2
Verse x 4
Pre-Chorus
Chorus x 2
Post-Chorus & Intro Guitar 1
Intro Guitar 1 & Intro Guitar Part III x 2
Verse x 4
Pre-Chorus 
Chorus x 2
Post-Chorus & Intro Guitar 1
Solo
Pre-Chorus
Chorus x 4
Chorus & Intro Guitar 1 x 4
End On

5. Dammit, I Changed Again

"This time I turn around, Things have changed, Now I don't feel the same, yeah,
Start a fight, I can't defend, One more time, Dammit, I changed again"

Intro

Guitar 2
e|---------------------------------------------------------------------------|
B|---------------------------------------------------------------------------|
G|---------------------------------------------------------------------------|
D|-3-----------\\\\\\\\\\\\--------------------------------------------------|
A|-3-----------\\\\\\\\\\\\\-<----Pick Slide---------------------------------|
E|-1------------\\\\\\\\\\\\-------------------------------------------------|

Guitar 1
e|---------------------------------------------------------------------------|
B|---------------------------------------------------------------------------|
G|---------------------------------------------------------------------------|
D|-\3-6-5-6-----6-5-6-----6-5-6---8-6-5--------------------------------------|
A|-----------\4--------\6---------------6------------------------------------|
E|---------------------------------------------------------------------------|

Guitar 2
e|---------------------------------------------------------------------------|
B|---------------------------------------------------------------------------|
G|-10101010101010--6666666------------88888888-------------------------------|
D|-10101010101010--6666666--66666666--88888888-------------------------------|
A|--8-8-8-8-8-8-8--4444444--66666666--66666666-------------------------------|
E|--------------------------44444444-----------------------------------------|

Chorus
e|---------------------------------------------------------------------------|
B|---------------------------------------------------------------------------|
G|-10101010101010--6666666------------88888888-------------------------------|
D|-10101010101010--6666666--66666666--88888888-------------------------------|
A|--8-8-8-8-8-8-8--4444444--66666666--66666666-------------------------------|
E|--------------------------44444444-----------------------------------------|

Verse
e|---------------------------------------------------------------------------|
B|---------------------------------------------------------------------------|
G|--------66-66---------88-88------------------------------------------------|
D|-33-33--66-66--66-66--88-88------------------------------------------------|
A|-33-33--44-44--66-66--66-66------------------------------------------------|
E|-11-11---------44-44-------------------------------------------------------|
   xx xx  xx xx  xx xx  xx xx

Solo
e|---------------------------------------------------------------------------|
B|---------------------------------------------------------------------------|
G|-----------------6---6---6----5--5--5--5-----------------------------------|
D|-10---10---10------6---6---6----6--6--6--6----8--8---8---------------------|
A|----8----8----8--------------------------------6---6---6-------------------|
E|---------------------------------------------------------------------------|

On the fourth time 2nd guitar comes in with
e|---------------------------------------------------------------------------|
B|---------------------------------------------------------------------------|
G|-------------101010101010101010101010--------------------------------------|
D|-------------101010101010101010101010--------------------------------------|
A|--------------8-8-8-8-8-8-8-8-8-8-8-8--------------------------------------|
E|---------------------------------------------------------------------------|
                xxxxxxxxxxxxxxxxxxxxxxx

Bridge                               1____    2______ 
e|-----------------------------------|--------|------------------------------|
B|-----------------------------------|--------|------------------------------|
G|-10101010101010--6666666-----------|88888888|-88888888---8\----------------|
D|-10101010101010--6666666--66666666-|88888888|-88888888---8\--3~------------|
A|--8-8-8-8-8-8-8--4444444--66666666-|66666666|-66666666---6\--3~------------|
E|--------------------------44444444-|--------|----------------1~------------|


Intro Guitar 2
Intro Guitar 1 & Intro Guitar 2 Part II
Chorus x 2
Intro Guitar 1 & Intro Guitar 2 Part II x 2
Verse x 2
Chorus x 2
Chorus & Intro Guitar 1 x 2
Solo x 4
Chorus x 2
Chorus & Intro Guitar 1 x 2
Intro Guitar 1 & Bridge


7. Living in Chaos

"Somewhere along the line, Things get chipped away, This place keeps going down,
gets a little worse every day"

Intro

Guitar 1
e|---------------------------------------------------------------------------|
B|---------------------------------------------------------------------------|
G|-----1-1---------------------1-1-------------------------------------------|
D|-----------------3-3--------------3-1-3-3-3-3b-----------------------------|
A|---------------------------------------------------------------------------|
E|-0h1-----0-0-0h1-----0-0-0h1-----------------------------------------------|

Guitar 2/Chorus
e|---------------------------------------------------------------------------|
B|---------------------------------------------------------------------------|
G|-------10-----------10-----------10---8\10-10-10-10b-10--------------------|
D|-------10-----------10-----------10---6\10-10-10-10b-10--------------------|
A|--------8------------8------------8---6\-8--8--8--8b--8--------------------|
E|-0h1-------0-0-0h1------0-0-0h1--------------------------------------------|

Pre-Verse
e|---------------------------------------------------------------------------|
B|---------------------------------------------------------------------------|
G|-66-6-6--66-6-6-88-8-8--88-8-8-8\10----------------------------------------|
D|-66-6-6--66-6-6-88-8-8--88-8-8-8\10----------------------------------------|
A|-44-4-4--44-4-4-66-6-6--66-6-6-6\-8----------------------------------------|
E|---------------------------------------------------------------------------|

Verse

Guitar 1
e|-8-9-8---------|--|--------------------------------------------------------|
B|-------9-8---6-|--|--------------------------------------------------------|
G|-----------9---|--|--------------------------------------------------------|
D|---------------|--|--------------------------------------------------------|
A|---------------|--|--------------------------------------------------------|
E|---------------|--|--------------------------------------------------------|

Guitar 2
e|---------------------------------------------------------------------------|
B|---------------------------------------------------------------------------|
G|-5--5-/-10------13-13-13---12-12-12---10-10-10~----------------------------|
D|-x--x-/--x-------x--x--x----x--x--x----x--x--x~----------------------------|
A|-3--3-/--8------11-11-11---10-10-10----8--8--8~----------------------------|
E|---------------------------------------------------------------------------|

Bridge
e|---------------------------------------------------------------------------|
B|---------------------------------------------------------------------------|
G|-3-33333-6~----------------------------------------------------------------|
D|-3-33333-6~----6--6666--4~--44-4-6-----------------------------------------|
A|-1-11111-4~----6--6666--4~--44-4-6-----------------------------------------|
E|---------------4--4444--2---22-2-4-----------------------------------------|

Post-Bridge
e|---------------------------------------------------------------------------|
B|---------------------------------------------------------------------------|
G|----10--------10---------10------------------------------------------------|
D|----10--------10---------10---3--6-----------------------------------------|
A|-----8---------8----------8---3--6-----------------------------------------|
E|-0h1---0-0-0h1---0-0-0h1------1--4-----------------------------------------|

Add on
e|---------------------------------------------------------------------------|
B|---------------------------------------------------------------------------|
G|-----1-1-------------------------------------------------------------------|
D|---------------------------------------------------------------------------|
A|---------------------------------------------------------------------------|
E|-0h1-----------------------------------------------------------------------|

e|---------------------------------------------------------------------------|
B|---------------------------------------------------------------------------|
G|--5-5-3h5-5-5-5b-5-5—(I'm sorry this bit aint perfect, but it's the best I-| 
D|--5-5-3h3-5-3-3b-3-3---could do)-------------------------------------------|
A|---------------------------------------------------------------------------|
E|---------------------------------------------------------------------------|

End on
e|---------------------------------------------------------------------------|
B|---------------------------------------------------------------------------|
G|----10--------10-----8/--1010101010----------------------------------------|
D|----10--------10-----8/--1010101010----------------------------------------|
A|-----8---------8-----6/---8-8-8-8-8----------------------------------------|
E|-0h1---0-0-0h1---0-0-------------------------------------------------------|

Intro Guitar 1 x 2
Intro Guitar 1 & 2 x 2
Pre-Verse
Verse x 3
Chorus x 3
Intro Guitar 1 & Chorus x 2
Verse x 2
Chorus x 2
Intro Guitar 1 & Chorus x 2
Bridge x 2
Post-Bridge x 3
Intro Guitar 1
Verse x 2
Add on
Bridge x 2
Post-Bridge x 3
End on


8. Special Delivery

"Hello, I've got something for you"

Chorus
e|---------------------------------------------------------------------------|
B|---------------------------------------------------------------------------|
G|--101010-8-101010-1313-1010-88-1010----------88888888----------------------|
D|--101010-8-101010-1313-1010-88-1010-66666666-88888888----------------------|
A|---8-8-8-6--8-8-8-1111--8-8-66--8-8-66666666-66666666----------------------|
E|------------------------------------44444444-------------------------------|

Post Chorus
e|---------------------------------------------------------------------------|
B|---------------------------------------------------------------------------|
G|-6666666666666666-33333333-88888888----------------------------------------|
D|-6666666666666666-33333333-88888888----------------------------------------|
A|-4444444444444444-11111111-66666666----------------------------------------|
E|---------------------------------------------------------------------------|

Bridge (Ooga shaka, ooga shaka)
e|---------------------------------------------------------------------------|
B|---------------------------------------------------------------------------|
G|-8-------8-8---------------------------------------------------------------|
D|-8—x46---8-8---------------------------------------------------------------|
A|-6-------6-6---------------------------------------------------------------|
E|---------------------------------------------------------------------------|
   x      

Chorus x 2
No Guitar
Chorus x 3
Post Chorus
Bass, Tribal Voice things 
Bridge
Chorus x 3
Post Chorus


9. One Fine Day

"I believe it's my god-given right, To destroy everything in my sight, It never
gets dull, it never gets old, The only it gets is more bold"

Intro
  Every note x8 Palm Mute
e|-------------------------|-------------------------------------------------|
B|-------------------------|-------------------------------------------------|
G|----6-----8--4--6--------|--4--6-----8------------------6-6-666------------|
D|-4--6--4--8--4--6--4--4--|--4--6--8--8--6--66666666666--6-6-666------------|
A|-4--4--4--6--2--4--4--4--|--2--4--8--6--6--66666666666--4-4-444------------|
E|-2-----2-----------2--2--|--------6-----4--44444444444---------------------|
                                             xxxxxxxxxxx

Chorus                                             1____           2___
e|-------------------------------------------------|---------------|---------|
B|-------------------------------------------------|---------------|---------|
G|-----------------4-4-4-4-4-4-4-4-6-6-6-6-6-6-6-6-|---------------|-11-11-11|
D|-4-4-4-4-4-4-4-4-4-4-4-4-4-4-4-4-6-6-6-6-6-6-6-6-|4-4-4-4-4-4-4-4|-11-11-11|
A|-4-4-4-4-4-4-4-4-2-2-2-2-2-2-2-2-4-4-4-4-4-4-4-4-|4-4-4-4-4-4-4-4|--9--9--9|
E|-2-2-2-2-2-2-2-2---------------------------------|2-2-2-2-2-2-2-2|---------|

Solo
e|---------------------------------------------------------------------------|
B|---------------------------------------------------------------------------|
G|---------------------------------------------------------------------------|
D|--------4-4-1---------1-4-----------3-6-4-4-4-4---------4-4-2---------1-4--|
A|--------------4-2-2-4------4-4--4-4---------------------------4-2-2-4------|
E|-2--2-2------------------------------------------2--2-2--------------------|

e|---------------------------------------------------------------------------|
B|---------------------------------------------------------------------------|
G|---------------------------------------------------------------------------|
D|-------3-6-8-6-4-----------------------------------------------------------|
A|-4-4-4-----------6p4-4-----------------------------------------------------|
E|---------------------------------------------------------------------------|

Verse
  Play all notes 8 times with palm mute
e|--------------------------------------------|------------------------------|
B|--------------------------------------------|------------------------------|
G|-4--6-----8---4--6---------4--6-----8-------|--6--6--6-6-6-6---------------|
D|-4--6--4--8---4--6--4--4---4--6--8--8--6--6-|--6--6--6-6-6-6---------------|
A|-2--4--4--6---2--4--4--4---2--4--8--6--6--6-|--4--4--4-4-4-4---------------|
E|-------2------------2--2---------6-----4--4-|------------------------------|

Bridge
e|---------------------------------------------------------------------------|
B|---------------------------------------------------------------------------|
G|-------4-4x--6-6x--------------4-4x--6-6x--11-11---------------------------|
D|-4-4x--4-4x--6-6x--4-4x--4-4x--4-4x--6-6x--11-11---------------------------|
A|-4-4x--2-2x--4-4x--4-4x--4-4x--2-2x--4-4x---9--9---------------------------|
E|-2-2x--------------2-2x--2-2x----------------------------------------------|

Ending
e|--------------------------|----|--------------------------------------------|
B|--------------------------|----|-------------------=------------------------|
G|-6-6-6-6-6-6-6-6--11-11-11|----|-6-6-66-------------------------------------|
D|-6-6-6-6-6-6-6-6--11-11-11|-x2-|-6-6-66--11\4-------------------------------|
A|-4-4-4-4-4-4-4-4---9--9--9|----|-4-4-44--11\4-------------------------------|
E|--------------------------|----|---------9\2--------------------------------|

Intro
Chorus x 2
Solo
Verse 
Chorus x 2
Solo
Bridge x 2
Chorus x 2
Ending

10. All Along


"All along, Think I really knew, It was there in the words unspoken"

Intro
e|---------------------------------------------------------------------------|
B|---------------------------------------------------------------------------|
G|-9-9--9-9-9--9--7-7-7----------------------5-5—5--12-12-12-----------------|
D|-9-9--9-9-9--9--7-7-7--5-5-6-7-7--7-7-7-7--5-5-5--12-12-12-----------------|
A|-7-7--7-7-7--7--5-5-5--5-5-6-7-7--7-7-7-7--3-3-3--10-10-10-----------------|
E|-----------------------3-3-4-5-5--5-5-5-5----------------------------------|

Verse                                             1__    2___
e|------------------------------------------------|-----|--------------------|
B|------------------------------------------------|-----|--------------------|
G|----------------7-7-7-777-777---------------5-5-|-----|-12-12--------------|
D|-2-2-2-222-222--7-7-7-777-777-7-7-7-777-777-5-5-|-5-5-|-12-12--------------|
A|-2-2-2-222-222--5-5-5-555-555-7-7-7-777-777-3-3-|-5-5-|-10-10--------------|
E|-0-0-0-000-000----------------5-5-5-555-555-----|-3-3-|--------------------|
   x x x xxx xxx  x x x xxx xxx x x x xxx xxx x x  x x

Chorus
e|---------------------------------------------------------------------------|
B|---------------------------------------------------------------------------|
G|-99-999-9-77-777-7----------55-5-1212-12-----------------------------------|
D|-99-999-9-77-777-7-77-777-7-55-5-1212-12-----------------------------------|
A|-77-777-7-55-555-5-77-777-7-33-3-1010-10-----------------------------------|
E|-------------------55-555-5------------------------------------------------|

Bridge
e|---------------------------------------------------------------------------|
B|---------------------------------------------------------------------------|
G|-9~---9~-----------------------------77------55---------77--9\--12121212---|
D|-9~---9~--\\\\\--<---Pick Slide--22--77--77--55-55--22--77--9\--12121212---|
A|-7~---7~--\\\\\------------------22--55--77--33-55--22--55--7\--10101010---|
E|------7~-------------------------00------55-----33--00---------------------|

Outro
e|---------------------------------------------------------------------------|
B|---------------------------------------------------------------------------|
G|----5--12--9---------------------------------------------------------------|
D|-7--5--12--9---------------------------------------------------------------|
A|-7--3--10--7---------------------------------------------------------------|
E|-5-------------------------------------------------------------------------|

Intro x 2
Verse
Chorus x 2
Intro 
Verse
Chorus x 2
Bridge 
Chorus x 2
Outro

11. Denial, Revisited

"And if you go, I won't believe, That it's forever, And you can go, I'll never
leave, 'Cause it's not over"


Intro

Guitar 1
e|---------------------------------------------------------------------------|
B|---------------------------------------------------------------------------|
G|-14-14-14-14-15-14-12-10--8-8-8-8/10101010\5-------------------------------|
D|--x--x--x--x--x--x--x--x--x-x-x-x/-x-x-x-x\x-------------------------------|
A|-12-12-12-12/13\12-10--8--6-6-6-6/-8-8-8-8\3-------------------------------|
E|---------------------------------------------------------------------------|

e|---------------------------------------------------------------------------|
B|---------------------------------------------------------------------------|
G|-14-14-14-14-15-14-12-10--8-/10-10-----------------------------------------|
D|--x--x--x--x--x--x--x--x--x-/-x--x-----------------------------------------|
A|-12-12-12-12/13\12-10--8--6-/-8--8-----------------------------------------|
E|---------------------------------------------------------------------------|

Guitar 2
e|---------------------------------------------------------------------------|
B|---------------------------------------------------------------------------|
G|-3~--3~--------------(Not sure if this part exists, but I think I hear it)-|
D|-3~--3~--3~---3~-----------------------------------------------------------|
A|-1~--1~--3~---3~-----------------------------------------------------------|
E|---------1~---1~-----------------------------------------------------------|

Pre-Verse
e|---------------------------------------------------------------------------|
B|-10-1010-10-10-10-10-10-11-10-11/12----------------------------------------|
G|-10-1010-10-10-10-10-10-10-10-10/10----------------------------------------|
D|---------------------------------------------------------------------------|
A|---------------------------------------------------------------------------|
E|---------------------------------------------------------------------------|

Verse
e|---------------------------------------------------------------------------|
B|-10-------10-----8h10--10-------10----8h10-888-6-6666-1010-10101010-101010-|
G|----10-------10-----------10-------10------888-7-7777-1010-10101010-101010-|
D|-------10--------------------10--------------------------------------------|
A|---------------------------------------------------------------------------|
E|---------------------------------------------------------------------------|

Pre-Chorus
e|---------------------------------------------------------------------------|
B|---------------------------------------------------------------------------|
G|-101010101010-101010-------------------------------------------------------|
D|-101010101010-101010-------------------------------------------------------|
A|--8-8-8-8-8-8--8-8-8-------------------------------------------------------|
E|---------------------------------------------------------------------------|
    x x x x x x

Chorus

Guitar 2
e|---------------------------------------------------------------------------|
B|---------------------------------------------------------------------------|
G|-8-88888-7-77777--10-1010101010--10-1010101010-----------------------------|
D|-8-88888-8-88888--10-1010101010--10-1010101010-----------------------------|
A|-6-66666-8-88888---8--8-8-8-8-8---8--8-8-8-8-8-----------------------------|
E|---------6-66666-----------------------------------------------------------|

Guitar 1
e|---------------------------------------------------------------------------|
B|-8-88888-8888-6-66666-6666-10-1010101010-1010-1010-8h10-101010-------------|
G|-8-88888-8888-7-77777-7777-10-1010101010-1010-1010------101010-------------|
D|---------------------------------------------------------------------------|
A|---------------------------------------------------------------------------|
E|---------------------------------------------------------------------------|

Chorus II
e|---------------------------------------------------------------------------|
B|---------------------------------------------------------------------------|
G|-8-88888-7-77777-------------8--3--10--------------------------------------|
D|-8-88888-8-88888--6-6--8-8---8--3--10--------------------------------------|
A|-6-66666-8-88888--6-6--8-8---6--1---8--------------------------------------|
E|---------6-66666--4-4--6-6-------------------------------------------------|

Bridge

Guitar 2
e|---------------------------------------------------------------------------|
B|---------------------------------------------------------------------------|
G|---------------------------------------------------------------------------|
D|-3333333333333333333333333333333-------------------------------------------|
A|-3333333333333333333333333333333-------------------------------------------|
E|-1111111111111111111111111111111-------------------------------------------|
   xxxxxxxxxxxxxxxxxxxxxxxxxxxxxxx

Guitar 1
e|---------------------------------------------------------------------------|
B|--xxx-xxxxx-xxx-xxxxxxx----------------------------------------------------|
G|--xxx-xxxxx-xxx-xxxxxxx----------------------------------------------------|
D|---------------------------------------------------------------------------|
A|---------------------------------------------------------------------------|
E|---------------------------------------------------------------------------|

Ending

Guitar 2
e|--------------||------------------------------------------------||---------|
B|--------------||10-10-1010101010-10-8-8-88888-88-6-6-66-66-666--||---------|
G|-8-------7----||10-10-1010101010-10-8-8-88888-88-7-7-77-77-777--||---------|
D|-8-------8----||------------------------------------------------||---------|
A|-6-------8----||-------------------x2---------------------------||---------|
E|---------6----||------------------------------------------------||---------|

Guitar 1
e|---------------------------------------------------------------------------|
B|-10-11-10-11-11h12---------------------------------------------------------|
G|---------------------------------------------------------------------------|
D|---------------------------------------------------------------------------|
A|---------------------------------------------------------------------------|
E|---------------------------------------------------------------------------|

Intro Guitar 1 
Intro Guitar 1 & Guitar 2
Pre-Verse
Verse x 4
Pre-Chorus
Chorus x 2
Intro Guitar 1 & 2
Verse x 2
Pre-Chorus
Chorus x 2
Chorus 2
Intro Guitar 1 & Guitar 2 x 2
Bridge
Chorus x 3
Ending

12. Vultures

"And you faded there, They pretend to care, Vultures waiting, If you don't like
me, Certify Me"

Intro/Verse
e|---------------------------------------------------------------------------|
B|---------------------------------------------------------------------------|
G|---------------------------------------------------------------------------|
D|---2-----2-----2-----------------------------------------------------------|
A|-0---0-3---3-2---2-----2---------------------------------------------------|
E|-------------------0-3---3-------------------------------------------------|

Pre-Chorus
e|-----------------------|--|------------------------------------------------|
B|-----------------------|--|------------------------------------------------|
G|-7-7-1010-------5-5-5--|--|-9-9-9-9-9-9-9-9-9-9-9-9-9-9-9-9----------------|
D|-7-7-1010-7-7-7-5-5-5--|x3|-9-9-9-9-9-9-9-9-9-9-9-9-9-9-9-9----------------|
A|-5-5--8-8-7-7-7-3-3-3--|--|-7-7-7-7-7-7-7-7-7-7-7-7-7-7-7-7----------------|
E|----------5-5-5--------|--|------------------------------------------------|
                             x x x x x x x x x x x x x x x x

Chorus 
e|-------------------------------|----|--------------------------------------|
B|-------------------------------|----|--------------------------------------|
G|-------------------------------|----|--------------------------------------|
D|-7-7-7/10-10-10-10\2-2-2-2-2-2-|-x3-|-7-7-7-7-7-7-7-7-9-9-9-9-9-9-9-9------|
A|-7-7-7/10-10-10-10\2-2-2-2-2-2-|----|-7-7-7-7-7-7-7-7-9-9-9-9-9-9-9-9------|
E|-5-5-5/-8--8--8--8\0-0-0-0-0-3-|----|-5-5-5-5-5-5-5-5-7-7-7-7-7-7-7-7------|

Solo
e|---------------------------------------------------------------------------|
B|---------------------------------------------------------------------------|
G|-2-5--5-4h-5p-4-------2--5—5/7-5--4-5-4-0----2--5--5-4h-5p-4-------2--5----|
D|----------------5--2------------------------------------------5--2---------|
A|---------------------------------------------------------------------------|
E|---------------------------------------------------------------------------|

e|---------------------------------------------------------------------------|
B|---------5-3---------------------------------------------------------------|
G|-5/7-5-4-----5-4-----------------------------------------------------------|
D|---------------------------------------------------------------------------|
A|---------------------------------------------------------------------------|
E|---------------------------------------------------------------------------|

End On
e|---------------------------------------------------------------------------|
B|---------------------------------------------------------------------------|
G|---------------------------------------------------------------------------|
D|-7~------------------------------------------------------------------------|
A|-7~------------------------------------------------------------------------|
E|-5~------------------------------------------------------------------------|

Intro x 12
Pre-Chorus
Chorus
Verse x 6
Pre-Chorus
Chorus x 2 
Solo
Pre-Chorus 
Chorus x 2
End On

!3. Conspiracy of One

"Nobody wins, Nobody hears us fall, Nobody wins when it's done, Conspiracy of one"

Intro
e|---------------------------------------------------------------------------|
B|---------------------------------------------------------------------------|
G|---7-7\5/7-7\5/7-3-3-5-----------------------------------------------------|
D|---7-7\5/7-7\5/7-3-3-5-----------------------------------------------------|
A|---5-5\3/5-5\3/5-1-1-3-----------------------------------------------------|
E|---------------------------------------------------------------------------|

Verse                                                       1___    2___
e|----------------------------------------------------------|-------|--------|
B|----------------------------------------------------------|-------|--------|
G|-7-7-9-10-7-----5-55-55----3--3-3-3-5-5-5-7-7\5/7-7\5/7-7-|-3-3-5-|-5------|
D|-7-7-9-10-7-5-5-5-55-55-55-3--3-3-3-5-5-5-7-7\5/7-7\5/7-7-|-3-3-5-|-5-\\\\\|
A|-5-5-7--8-5-5-5-3-33-33-55-1--1-1-1-3-3-3-5-5\3/5-5\3/5-5-|-1-1-5-|-3------|
E|------------3-3---------33--------------------------------|-------|--------|
              x x   xx xx xx

Chorus 
e|--------------|----|-------------------------------------------------------|
B|--------------|----|-------------------------------------------------------|
G|-7-9-10-5---5-|----|-------------------------------------------------------|
D|-7-9-10-5-5-5-|-x3-|-8~--10------------------------------------------------|
A|-5-7--8-3-5-3-|----|-8~--10------------------------------------------------|
E|----------3---|----|-6~---8------------------------------------------------|

Bridge
e|-----------------------------|----|--------------------------------|----|--|
B|-----------------------------|----|--------------------------------|----|--|
G|-77777-9-7-10---3333---------|----|-77777-9-7-10--33333---------12-|----|--|
D|-77777-9-7-10---3333-3-5-3-5-|-x2-|-77777-9-7-10--33333-3-5-3-5-12-|-x2-|--|
A|-55555-7-5--8---1111-3-5-3-5-|----|-55555-7-5--8--11111-3-5-3-5-10-|----|--|
E|---------------------1-3-1-3-|----|---------------------1-3-1-3----|----|--|
   xxxxx x x  x   xxxx x x x x 
e|---------------------------------------------------------------------------|
B|---------------------------------------------------------------------------|
G|----------12121212121212---------------------------------------------------|
D|-88888888-12121212121212---------------------------------------------------|
A|-88888888-10101010101010---------------------------------------------------|
E|-66666666------------------------------------------------------------------|

Ending
e|---------------------------------------------------------------------------|
B|---------------------------------------------------------------------------|
G|-7-7\5/7-7\5/7-------------------------------------------------------------|
D|-7-7\5/7-7\5/7-------------------------------------------------------------|
A|-5-5\3/5-5\3/5-------------------------------------------------------------|
E|---------------------------------------------------------------------------|

Intro x 2
Verse
Chorus
Intro x 2
Verse
Chorus x 2
Bridge 
Chorus x 2
Ending

14. Huck It (Bonus Track)


"HUCK IT, Now you're down in luck, cause you dont give a fuck"

Intro Guitar 1
e|-------------------|-----|-------------------------------------------------|
B|-12---8----10---13-|-----|-------------------------------------------------|
G|-------------------|-----|-------------------------------------------------|
D|-------------------|-x-2-|-------------------------------------------------|
A|-------------------|-----|-------------------------------------------------|
E|-------------------|-----|-------------------------------------------------|

Guitar 2
e|---------------------------------------------------------------------------|
B|---------------------------------------------------------------------------|
G|9-9~-------------9-9~------------------------------------------------------|
D|9-9~-------------9-9~------------------------------------------------------|
A|7-7~-------------7-7~--\\\\\\\\--------------------------------------------|
E|---------------------------------------------------------------------------|

Intro II
e|------------------------------------------------|----|---------------------|
B|------------------------------------------------|----|---------------------|
G|-99999999-777777777-222222222-12-12-12-14-14-14-|----|---------------------|
D|-99999999-777777777-222222222-12-12-12-14-14-14-|-x2-|---------------------|
A|-77777777-555555555-000000000-10-10-10-12-12-12-|----|---------------------|
E|------------------------------------------------|----|---------------------|

Verse I
e|---------------------------------------------------------------------------|
B|---------------------------------------------------------------------------|
G|-9--12-11-12-9--12-11-12-7-------------------------------------------------|
D|-9--12-11-12-9--12-11-12-7--5-555555-77777777------------------------------|
A|-7--10--9-10-7--10--9-10-5--5-555555-77777777------------------------------|
E|----------------------------3-333333-55555555------------------------------|
                              x xxxxxx xxxxxxxx
Verse II
e|---------------------------------------------------------------------------|
B|---------------------------------------------------------------------------|
G|-9--12-11-12-9--12-11-7-77777777-------------------------------------------|
D|-9--12-11-12-9--12-11-7-77777777-------------------------------------------|
A|-7--10--9-10-7--10--9-5-55555555-------------------------------------------|
E|---------------------------------------------------------------------------|

Chorus                     
e|---------------------------------------------------------------------------|
B|---------------------------------------------------------------------------|
G|----------1212-1414-999999-1212----------1212-1414-999999/12-99999/12-9-7--|
D|-10101010-1212-1414-999999-1212-10101010-1212-1212-999999/12-99999/12-9-7--|
A|-10101010-1010-1212-777777-1010-10101010-1010-1212-777777/10-77777/10-7-5--|
E|--8-8-8-8------------------------8-8-8-8-----------------------------------|

Verse III
e----------------------|--------------|--------------------------------------|
B----------------------|--------------|--------------------------------------|
G-------------------7--|--------------|-7-7-7-7-7-7-7-7----------------------|
D-2--5-4-5-2--5-4-5-7--|-5-55555-7777-|-7-7-7-7-7-7-7-7----------------------|
A-2--5-4-5-2--5-4-5-5--|-5-55555-7777-|-5-5-5-5-5-5-5-5----------------------|
E-0--3-2-3-0--3-2-3----|-3-33333-5555-|--------------------------------------|
                         x xxxxx xxxx

Bridge             1.____             2____
e-------------------|-----------------|--------------------------------------|
B-------------------|-----------------|--------------------------------------|
G-------------------|-5---------------|-777777777777777----------------------|
D-2--5-4-5-2--5-4-5-|-5--5-55555-7777-|-777777777777777----------------------|
A-2--5-4-5-2--5-4-5-|-3--5-55555-7777-|-555555555555555----------------------|
E-0--3-2-3-0--3-2-3-|----3-33333-5555-|--------------------------------------|
                         x xxxxx xxxx   xxxxxxxxxxxxxxx 

End On
e----------------------------------------------------------------------------|
B----------------------------------------------------------------------------|
G--9\------------------------------------------------------------------------|
D--9\------------------------------------------------------------------------|
A--7\------------------------------------------------------------------------|
E----------------------------------------------------------------------------|
                                        
Intro Guitar 1
Intro Guitar 1 & Intro Guitar 2
Intro II 
Verse I
Verse II
Chorus 
Verse I x 2
Verse III
Chorus x 2
Intro Guitar 1 & Intro Guitar 2
Bridge 
Chorus x 2
End on
comments
print report bad tab
4 comments total. Showing first comments.
0 reply
Tedrick wrote on August 18 2005, 12:00 am

I don't think this tab is perfect, but i do think that it took a lot of effort to tab it out (assuming you didn't copy it out of a tab book) So i'm not going to dis, 4 stars

0 reply
offspring_punk wrote on August 20 2005, 12:00 am

It's not bad..The Want You Bad solo is in octaves though...Living In Chaos and Denial, Revisited are both tuned down half a step. The verse is a lil wrong on Denial, Revisited in the lead part. Other than that decent job.

0 reply
\m/(-_-)\m/ wrote on June 26 2006, 07:23 pm

A easyer way to play that in i want you bad is

G|-9-------6-4-|
D|-9-99-77-6-4?|
A|-7-99-77-4-2-|
E|---77-55-----|


---------------


G|-9------------|
D|-9-99-77-11-9-|
A|-7-99-77-11-9-|
E|---77-55-9--7-|

I want to post or [tab]
guest
You may want to rate the tab now too:
select rating
Please do not post tabs as comments. Select "correction" instead!