Oops, an error
Loading. Please wait.

Cruising California Bumpin In My Trunk Tab

ver1
ver1

Whole song

More versions @911Tabs.com
1,364 views 1 this week
no commentswrite comment
1 2 3 4 5
please rate
add to favorites launch autoscroll
font size
0
reset
Autoscroll
+/-
esc
set tempo
stop
Contributor
Difficulty
novice
WARNING: You are trying to view
                                    content from Ultimate-Guitar.com
                                    in an unauthorized application,
                                    which is prohibited.

                                    Please use an official Ultimate
                                    Guitar Tabs application for iPhone,
                                    iPad or Android to access legitimate
                                    chords, guitar, bass, and drum tabs
                                    from Ultimate-Guitar.com database.

                                    Type "ultimate guitar tabs" in Apple
                                    App Store's or Android Market's
                                    search to find the application.
CRUISING CALIFORNIA (BUMPIN' IN MY TRUNK)
As recorded by The Offspring
(From the 2012 Album DAYS GO BY)

Transcribed by Whoabot

Words and Music by The Offspring
Arranged by The Offspring


Gtr I (E A D G B E) - 'Flute Synth'
Gtr II (E A D G B E) - 'Synth Strings'
Gtr III (E A D G B E) - 'Muted Clean Guitar'
Gtr IV (E A D G B E) - 'Overdriven Guitar'

 Intro
  Q=118
  (G)                          (D)
 4/4
  Gtr I
   E  E   E  E   E   Q     E    E  Q     E   E   Q     E
|--5-(7)----(3)-(5)--------3-|--5-------(3)-(5)--------3-|
|----------------------------|---------------------------|
|----------------------------|---------------------------|
|----------------------------|---------------------------|
|----------------------------|---------------------------|
|----------------------------|---------------------------|
|
| Gtr II
|  W                            W
|----------------------------|---------------------------|
|----------------------------|-10------------------------|
|-12-------------------------|-11------------------------|
|-12-------------------------|-12------------------------|
|----------------------------|---------------------------|
|----------------------------|---------------------------|
|
| Gtr III
|  PM-----------------------------------------------------
|  E  E   E  E   E   E  E  E    E  E  E  E   E   E  E  E
|----------------------------|---------------------------|
|----------------------------|---------------------------|
|----------------------------|---------------------------|
|--9-------------------------|---------------------------|
|-10-10--10-10--10--10-10-10-|-10------------------------|
|----------------------------|----10-10-10--10--10-10-10-|


  (Em)                        (C)
   E  Q     E   E   Q     E    E Q   E E E E E
|--5-------(3)-(5)--------3-|--5-----3-5-7-5-3-|
|---------------------------|------------------|
|---------------------------|------------------|
|---------------------------|------------------|
|---------------------------|------------------|
|---------------------------|------------------|
|
|  W                           W
|---------------------------|------------------|
|-12------------------------|--8---------------|
|-12------------------------|--9---------------|
|-14------------------------|-10---------------|
|---------------------------|------------------|
|---------------------------|------------------|
|
|--------------------------------------------|
|  E  E  E  E   E   E  E  E    E E E E E E E E
|---------------------------|------------------|
|---------------------------|------------------|
|---------------------------|------------------|
|---------------------------|------------------|
|---------------------------|------------------|
|-12-12-12-12--12--12-12-12-|-12-8-8-8-8-8-8-8-|


  (G)                          (D)
   E  E   E  E   E   Q     E    E  Q     E   E   Q     E
|--5-(7)----(3)-(5)--------3-|--5-------(3)-(5)--------3-|
|----------------------------|---------------------------|
|----------------------------|---------------------------|
|----------------------------|---------------------------|
|----------------------------|---------------------------|
|----------------------------|---------------------------|
|
|  W                            W
|----------------------------|---------------------------|
|----------------------------|-10------------------------|
|-12-------------------------|-11------------------------|
|-12-------------------------|-12------------------------|
|----------------------------|---------------------------|
|----------------------------|---------------------------|
|
|  PM-----------------------------------------------------
|  E  E   E  E   E   E  E  E    E  E  E  E   E   E  E  E
|----------------------------|---------------------------|
|----------------------------|---------------------------|
|----------------------------|---------------------------|
|--9-------------------------|---------------------------|
|-10-10--10-10--10--10-10-10-|-10------------------------|
|----------------------------|----10-10-10--10--10-10-10-|


  (Em)                        (C)
   E  Q     E   E   Q     E    E Q   E E E E E
|--5-------(3)-(5)--------3-|--5-----3-8-7-5-3-||
|---------------------------|------------------||
|---------------------------|------------------||
|---------------------------|------------------||
|---------------------------|------------------||
|---------------------------|------------------||
|
|  W                           W
|---------------------------|------------------||
|-12------------------------|--8---------------||
|-12------------------------|--9---------------||
|-14------------------------|-10---------------||
|---------------------------|------------------||
|---------------------------|------------------||
|
|--------------------------------------------|
|  E  E  E  E   E   E  E  E    E E E E E E E E
|---------------------------|------------------||
|---------------------------|------------------||
|---------------------------|------------------||
|---------------------------|------------------||
|---------------------------|------------------||
|-12-12-12-12--12--12-12-12-|-12-8-8-8-8-8-8-8-||


 Chorus
  Q=125
  G5                              D5
   E  E   E  E   E   Q     E    E  Q     E   E   Q     E
|--5-(7)----(3)-(5)--------3-|--5-------(3)-(5)--------3-|
|----------------------------|---------------------------|
|----------------------------|---------------------------|
|----------------------------|---------------------------|
|----------------------------|---------------------------|
|----------------------------|---------------------------|
|
| Gtr III
|  PM-----------------------------------------------------
|  E  E   E  E   E   E  E  E    E  E  E  E   E   E  E  E
|----------------------------|---------------------------|
|----------------------------|---------------------------|
|----------------------------|---------------------------|
|--9-------------------------|---------------------------|
|-10-10--10-10--10--10-10-10-|-10------------------------|
|----------------------------|----10-10-10--10--10-10-10-|
|
| Gtr IV
|  E  E   E  E   E   E  E  E    E  E  E  E   E   E  E  E
|----------------------------|---------------------------|
|----------------------------|---------------------------|
|-12-12--12-12--12--12-12-12-|-12------------------------|
|-12-12--12-12--12--12-12-12-|-12-12-12-12--12--12-12-12-|
|-10-10--10-10--10--10-10-10-|-10-12-12-12--12--12-12-12-|
|----------------------------|----10-10-10--10--10-10-10-|


  E5                             C5
   E  Q     E   E   Q     E    E  Q     E  E  E  E  E
|--5-------(3)-(5)--------3-|--5--------3--5--7--5--3-|
|---------------------------|-------------------------|
|---------------------------|-------------------------|
|---------------------------|-------------------------|
|---------------------------|-------------------------|
|---------------------------|-------------------------|
|
|--------------------------------------------------|
|  E  E  E  E   E   E  E  E    E  E  E  E  E  E  E  E
|---------------------------|-------------------------|
|---------------------------|-------------------------|
|---------------------------|-------------------------|
|---------------------------|-------------------------|
|---------------------------|-------------------------|
|-12-12-12-12--12--12-12-12-|-12--8--8--8--8--8--8--8-|
|
|  E  E  E  E   E   E  E  E    E  E  E  E  E  E  E  E
|---------------------------|-------------------------|
|---------------------------|-------------------------|
|--9--9--9--9---9---9--9--9-|--9----------------------|
|--9--9--9--9---9---9--9--9-|--9-10-10-10-10-10-10-10-|
|--7--7--7--7---7---7--7--7-|--7-10-10-10-10-10-10-10-|
|---------------------------|-----8--8--8--8--8--8--8-|


  G5                              D5
   E  E   E  E   E   Q     E    E  Q     E   E   Q     E
|--5-(7)----(3)-(5)--------3-|--5-------(3)-(5)--------3-|
|----------------------------|---------------------------|
|----------------------------|---------------------------|
|----------------------------|---------------------------|
|----------------------------|---------------------------|
|----------------------------|---------------------------|
|
|  PM-----------------------------------------------------
|  E  E   E  E   E   E  E  E    E  E  E  E   E   E  E  E
|----------------------------|---------------------------|
|----------------------------|---------------------------|
|----------------------------|---------------------------|
|--9-------------------------|---------------------------|
|-10-10--10-10--10--10-10-10-|-10------------------------|
|----------------------------|----10-10-10--10--10-10-10-|
|
|  E  E   E  E   E   E  E  E    E  E  E  E   E   E  E  E
|----------------------------|---------------------------|
|----------------------------|---------------------------|
|-12-12--12-12--12--12-12-12-|-12------------------------|
|-12-12--12-12--12--12-12-12-|-12-12-12-12--12--12-12-12-|
|-10-10--10-10--10--10-10-10-|-10-12-12-12--12--12-12-12-|
|----------------------------|----10-10-10--10--10-10-10-|


  E5                             C5
   E  Q     E   E   Q     E    E  Q     E  E  E  E  E
|--5-------(3)-(5)--------3-|--5--------3--8--7--5--3-||
|---------------------------|-------------------------||
|---------------------------|-------------------------||
|---------------------------|-------------------------||
|---------------------------|-------------------------||
|---------------------------|-------------------------||
|
|--------------------------------------------------|
|  E  E  E  E   E   E  E  E    E  E  E  E  E  E  E  E
|---------------------------|-------------------------||
|---------------------------|-------------------------||
|---------------------------|-------------------------||
|---------------------------|-------------------------||
|---------------------------|-------------------------||
|-12-12-12-12--12--12-12-12-|-12--8--8--8--8--8--8--8-||
|
|  E  E  E  E   E   E  E  E    E  E  E  E  E  E  E  E
|---------------------------|-------------------------||
|---------------------------|-------------------------||
|--9--9--9--9---9---9--9--9-|--9----------------------||
|--9--9--9--9---9---9--9--9-|--9-10-10-10-10-10-10-10-||
|--7--7--7--7---7---7--7--7-|--7-10-10-10-10-10-10-10-||
|---------------------------|-----8--8--8--8--8--8--8-||


   Verse
    Q=118
    (G)                          (D)
     E  E   E  E   E   Q     E    E  Q     E   E   Q     E
||---5-(7)----(3)-(5)--------3-|--5-------(3)-(5)--------3-|
||o----------------------------|---------------------------|
||-----------------------------|---------------------------|
||-----------------------------|---------------------------|
||o----------------------------|---------------------------|
||-----------------------------|---------------------------|
|
|   Gtr II
|    W                            W
||-----------------------------|---------------------------|
||o----------------------------|-10------------------------|
||--12-------------------------|-11------------------------|
||--12-------------------------|-12------------------------|
||o----------------------------|---------------------------|
||-----------------------------|---------------------------|
|
|   Gtr III
|    PM-----------------------------------------------------
|    E  E   E  E   E   E  E  E    E  E  E  E   E   E  E  E
||-----------------------------|---------------------------|
||o----------------------------|---------------------------|
||-----------------------------|---------------------------|
||---9-------------------------|---------------------------|
||o-10-10--10-10--10--10-10-10-|-10------------------------|
||-----------------------------|----10-10-10--10--10-10-10-|


  (Em)                        (C)
   E  Q     E   E   Q     E    E Q   E E E E E
|--5-------(3)-(5)--------3-|--5-----3-5-7-5-3--|
|---------------------------|-------------------|
|---------------------------|-------------------|
|---------------------------|-------------------|
|---------------------------|-------------------|
|---------------------------|-------------------|
|
|  W                           W
|---------------------------|-------------------|
|-12------------------------|--8----------------|
|-12------------------------|--9----------------|
|-14------------------------|-10----------------|
|---------------------------|-------------------|
|---------------------------|-------------------|
|
|--------------------------------------------|
|  E  E  E  E   E   E  E  E    E E E E E E E E
|---------------------------|-------------------|
|---------------------------|-------------------|
|---------------------------|-------------------|
|---------------------------|-------------------|
|---------------------------|-------------------|
|-12-12-12-12--12--12-12-12-|-12-8-8-8-8-8-8-8--|


  (G)                          (D)
   E  E   E  E   E   Q     E    E  Q     E   E   Q     E
|--5-(7)----(3)-(5)--------3-|--5-------(3)-(5)--------3-|
|----------------------------|---------------------------|
|----------------------------|---------------------------|
|----------------------------|---------------------------|
|----------------------------|---------------------------|
|----------------------------|---------------------------|
|
|  W                            W
|----------------------------|---------------------------|
|----------------------------|-10------------------------|
|-12-------------------------|-11------------------------|
|-12-------------------------|-12------------------------|
|----------------------------|---------------------------|
|----------------------------|---------------------------|
|
|  PM-----------------------------------------------------
|  E  E   E  E   E   E  E  E    E  E  E  E   E   E  E  E
|----------------------------|---------------------------|
|----------------------------|---------------------------|
|----------------------------|---------------------------|
|--9-------------------------|---------------------------|
|-10-10--10-10--10--10-10-10-|-10------------------------|
|----------------------------|----10-10-10--10--10-10-10-|


  (Em)                        (C)
   E  Q     E   E   Q     E    E Q   E E E E E
|--5-------(3)-(5)--------3-|--5-----3-8-7-5-3--||
|---------------------------|------------------o||
|---------------------------|-------------------||
|---------------------------|-------------------||
|---------------------------|------------------o||
|---------------------------|-------------------||
|
|  W                           W
|---------------------------|-------------------||
|-12------------------------|--8---------------o||
|-12------------------------|--9----------------||
|-14------------------------|-10----------------||
|---------------------------|------------------o||
|---------------------------|-------------------||
|
|--------------------------------------------|
|  E  E  E  E   E   E  E  E    E E E E E E E E
|---------------------------|-------------------||
|---------------------------|------------------o||
|---------------------------|-------------------||
|---------------------------|-------------------||
|---------------------------|------------------o||
|-12-12-12-12--12--12-12-12-|-12-8-8-8-8-8-8-8--||


 Chorus
  Q=125
  G5                              D5
   E  E   E  E   E   Q     E    E  Q     E   E   Q     E
|--5-(7)----(3)-(5)--------3-|--5-------(3)-(5)--------3-|
|----------------------------|---------------------------|
|----------------------------|---------------------------|
|----------------------------|---------------------------|
|----------------------------|---------------------------|
|----------------------------|---------------------------|
|
| Gtr III
|  PM-----------------------------------------------------
|  E  E   E  E   E   E  E  E    E  E  E  E   E   E  E  E
|----------------------------|---------------------------|
|----------------------------|---------------------------|
|----------------------------|---------------------------|
|--9-------------------------|---------------------------|
|-10-10--10-10--10--10-10-10-|-10------------------------|
|----------------------------|----10-10-10--10--10-10-10-|
|
| Gtr IV
|  E  E   E  E   E   E  E  E    E  E  E  E   E   E  E  E
|----------------------------|---------------------------|
|----------------------------|---------------------------|
|-12-12--12-12--12--12-12-12-|-12------------------------|
|-12-12--12-12--12--12-12-12-|-12-12-12-12--12--12-12-12-|
|-10-10--10-10--10--10-10-10-|-10-12-12-12--12--12-12-12-|
|----------------------------|----10-10-10--10--10-10-10-|


  E5                             C5
   E  Q     E   E   Q     E    E  Q     E  E  E  E  E
|--5-------(3)-(5)--------3-|--5--------3--5--7--5--3-|
|---------------------------|-------------------------|
|---------------------------|-------------------------|
|---------------------------|-------------------------|
|---------------------------|-------------------------|
|---------------------------|-------------------------|
|
|--------------------------------------------------|
|  E  E  E  E   E   E  E  E    E  E  E  E  E  E  E  E
|---------------------------|-------------------------|
|---------------------------|-------------------------|
|---------------------------|-------------------------|
|---------------------------|-------------------------|
|---------------------------|-------------------------|
|-12-12-12-12--12--12-12-12-|-12--8--8--8--8--8--8--8-|
|
|  E  E  E  E   E   E  E  E    E  E  E  E  E  E  E  E
|---------------------------|-------------------------|
|---------------------------|-------------------------|
|--9--9--9--9---9---9--9--9-|--9----------------------|
|--9--9--9--9---9---9--9--9-|--9-10-10-10-10-10-10-10-|
|--7--7--7--7---7---7--7--7-|--7-10-10-10-10-10-10-10-|
|---------------------------|-----8--8--8--8--8--8--8-|


  G5                              D5
   E  E   E  E   E   Q     E    E  Q     E   E   Q     E
|--5-(7)----(3)-(5)--------3-|--5-------(3)-(5)--------3-|
|----------------------------|---------------------------|
|----------------------------|---------------------------|
|----------------------------|---------------------------|
|----------------------------|---------------------------|
|----------------------------|---------------------------|
|
|  PM-----------------------------------------------------
|  E  E   E  E   E   E  E  E    E  E  E  E   E   E  E  E
|----------------------------|---------------------------|
|----------------------------|---------------------------|
|----------------------------|---------------------------|
|--9-------------------------|---------------------------|
|-10-10--10-10--10--10-10-10-|-10------------------------|
|----------------------------|----10-10-10--10--10-10-10-|
|
|  E  E   E  E   E   E  E  E    E  E  E  E   E   E  E  E
|----------------------------|---------------------------|
|----------------------------|---------------------------|
|-12-12--12-12--12--12-12-12-|-12------------------------|
|-12-12--12-12--12--12-12-12-|-12-12-12-12--12--12-12-12-|
|-10-10--10-10--10--10-10-10-|-10-12-12-12--12--12-12-12-|
|----------------------------|----10-10-10--10--10-10-10-|


  E5                             C5
   E  Q     E   E   Q     E    E  Q     E  E  E  E  E
|--5-------(3)-(5)--------3-|--5--------3--8--7--5--3-||
|---------------------------|-------------------------||
|---------------------------|-------------------------||
|---------------------------|-------------------------||
|---------------------------|-------------------------||
|---------------------------|-------------------------||
|
|--------------------------------------------------|
|  E  E  E  E   E   E  E  E    E  E  E  E  E  E  E  E
|---------------------------|-------------------------||
|---------------------------|-------------------------||
|---------------------------|-------------------------||
|---------------------------|-------------------------||
|---------------------------|-------------------------||
|-12-12-12-12--12--12-12-12-|-12--8--8--8--8--8--8--8-||
|
|  E  E  E  E   E   E  E  E    E  E  E  E  E  E  E  E
|---------------------------|-------------------------||
|---------------------------|-------------------------||
|--9--9--9--9---9---9--9--9-|--9----------------------||
|--9--9--9--9---9---9--9--9-|--9-10-10-10-10-10-10-10-||
|--7--7--7--7---7---7--7--7-|--7-10-10-10-10-10-10-10-||
|---------------------------|-----8--8--8--8--8--8--8-||


   Verse
    Q=118
    (G)                          (D)
     E  E   E  E   E   Q     E    E  Q     E   E   Q     E
||---5-(7)----(3)-(5)--------3-|--5-------(3)-(5)--------3-|
||o----------------------------|---------------------------|
||-----------------------------|---------------------------|
||-----------------------------|---------------------------|
||o----------------------------|---------------------------|
||-----------------------------|---------------------------|
|
|   Gtr II
|    W                            W
||-----------------------------|---------------------------|
||o----------------------------|-10------------------------|
||--12-------------------------|-11------------------------|
||--12-------------------------|-12------------------------|
||o----------------------------|---------------------------|
||-----------------------------|---------------------------|
|
|   Gtr III
|    PM-----------------------------------------------------
|    E  E   E  E   E   E  E  E    E  E  E  E   E   E  E  E
||-----------------------------|---------------------------|
||o----------------------------|---------------------------|
||-----------------------------|---------------------------|
||---9-------------------------|---------------------------|
||o-10-10--10-10--10--10-10-10-|-10------------------------|
||-----------------------------|----10-10-10--10--10-10-10-|


  (Em)                        (C)
   E  Q     E   E   Q     E    E Q   E E E E E
|--5-------(3)-(5)--------3-|--5-----3-5-7-5-3--|
|---------------------------|-------------------|
|---------------------------|-------------------|
|---------------------------|-------------------|
|---------------------------|-------------------|
|---------------------------|-------------------|
|
|  W                           W
|---------------------------|-------------------|
|-12------------------------|--8----------------|
|-12------------------------|--9----------------|
|-14------------------------|-10----------------|
|---------------------------|-------------------|
|---------------------------|-------------------|
|
|--------------------------------------------|
|  E  E  E  E   E   E  E  E    E E E E E E E E
|---------------------------|-------------------|
|---------------------------|-------------------|
|---------------------------|-------------------|
|---------------------------|-------------------|
|---------------------------|-------------------|
|-12-12-12-12--12--12-12-12-|-12-8-8-8-8-8-8-8--|


  (G)                          (D)
   E  E   E  E   E   Q     E    E  Q     E   E   Q     E
|--5-(7)----(3)-(5)--------3-|--5-------(3)-(5)--------3-|
|----------------------------|---------------------------|
|----------------------------|---------------------------|
|----------------------------|---------------------------|
|----------------------------|---------------------------|
|----------------------------|---------------------------|
|
|  W                            W
|----------------------------|---------------------------|
|----------------------------|-10------------------------|
|-12-------------------------|-11------------------------|
|-12-------------------------|-12------------------------|
|----------------------------|---------------------------|
|----------------------------|---------------------------|
|
|  PM-----------------------------------------------------
|  E  E   E  E   E   E  E  E    E  E  E  E   E   E  E  E
|----------------------------|---------------------------|
|----------------------------|---------------------------|
|----------------------------|---------------------------|
|--9-------------------------|---------------------------|
|-10-10--10-10--10--10-10-10-|-10------------------------|
|----------------------------|----10-10-10--10--10-10-10-|


  (Em)                        (C)
   E  Q     E   E   Q     E    E Q   E E E E E
|--5-------(3)-(5)--------3-|--5-----3-8-7-5-3--||
|---------------------------|------------------o||
|---------------------------|-------------------||
|---------------------------|-------------------||
|---------------------------|------------------o||
|---------------------------|-------------------||
|
|  W                           W
|---------------------------|-------------------||
|-12------------------------|--8---------------o||
|-12------------------------|--9----------------||
|-14------------------------|-10----------------||
|---------------------------|------------------o||
|---------------------------|-------------------||
|
|--------------------------------------------|
|  E  E  E  E   E   E  E  E    E E E E E E E E
|---------------------------|-------------------||
|---------------------------|------------------o||
|---------------------------|-------------------||
|---------------------------|-------------------||
|---------------------------|------------------o||
|-12-12-12-12--12--12-12-12-|-12-8-8-8-8-8-8-8--||


   Chorus
    Q=125
    G5                              D5
     E  E   E  E   E   Q     E    E  Q     E   E   Q     E
||---5-(7)----(3)-(5)--------3-|--5-------(3)-(5)--------3-|
||o----------------------------|---------------------------|
||-----------------------------|---------------------------|
||-----------------------------|---------------------------|
||o----------------------------|---------------------------|
||-----------------------------|---------------------------|
|
|   Gtr III
|    PM-----------------------------------------------------
|    E  E   E  E   E   E  E  E    E  E  E  E   E   E  E  E
||-----------------------------|---------------------------|
||o----------------------------|---------------------------|
||-----------------------------|---------------------------|
||---9-------------------------|---------------------------|
||o-10-10--10-10--10--10-10-10-|-10------------------------|
||-----------------------------|----10-10-10--10--10-10-10-|
|
|   Gtr IV
|    E  E   E  E   E   E  E  E    E  E  E  E   E   E  E  E
||-----------------------------|---------------------------|
||o----------------------------|---------------------------|
||--12-12--12-12--12--12-12-12-|-12------------------------|
||--12-12--12-12--12--12-12-12-|-12-12-12-12--12--12-12-12-|
||o-10-10--10-10--10--10-10-10-|-10-12-12-12--12--12-12-12-|
||-----------------------------|----10-10-10--10--10-10-10-|


  E5                             C5
   E  Q     E   E   Q     E    E  Q     E  E  E  E  E
|--5-------(3)-(5)--------3-|--5--------3--5--7--5--3--|
|---------------------------|--------------------------|
|---------------------------|--------------------------|
|---------------------------|--------------------------|
|---------------------------|--------------------------|
|---------------------------|--------------------------|
|
|--------------------------------------------------|
|  E  E  E  E   E   E  E  E    E  E  E  E  E  E  E  E
|---------------------------|--------------------------|
|---------------------------|--------------------------|
|---------------------------|--------------------------|
|---------------------------|--------------------------|
|---------------------------|--------------------------|
|-12-12-12-12--12--12-12-12-|-12--8--8--8--8--8--8--8--|
|
|  E  E  E  E   E   E  E  E    E  E  E  E  E  E  E  E
|---------------------------|--------------------------|
|---------------------------|--------------------------|
|--9--9--9--9---9---9--9--9-|--9-----------------------|
|--9--9--9--9---9---9--9--9-|--9-10-10-10-10-10-10-10--|
|--7--7--7--7---7---7--7--7-|--7-10-10-10-10-10-10-10--|
|---------------------------|-----8--8--8--8--8--8--8--|


  G5                              D5
   E  E   E  E   E   Q     E    E  Q     E   E   Q     E
|--5-(7)----(3)-(5)--------3-|--5-------(3)-(5)--------3-|
|----------------------------|---------------------------|
|----------------------------|---------------------------|
|----------------------------|---------------------------|
|----------------------------|---------------------------|
|----------------------------|---------------------------|
|
|  PM-----------------------------------------------------
|  E  E   E  E   E   E  E  E    E  E  E  E   E   E  E  E
|----------------------------|---------------------------|
|----------------------------|---------------------------|
|----------------------------|---------------------------|
|--9-------------------------|---------------------------|
|-10-10--10-10--10--10-10-10-|-10------------------------|
|----------------------------|----10-10-10--10--10-10-10-|
|
| Gtr IV
|  E  E   E  E   E   E  E  E    E  E  E  E   E   E  E  E
|----------------------------|---------------------------|
|----------------------------|---------------------------|
|-12-12--12-12--12--12-12-12-|-12------------------------|
|-12-12--12-12--12--12-12-12-|-12-12-12-12--12--12-12-12-|
|-10-10--10-10--10--10-10-10-|-10-12-12-12--12--12-12-12-|
|----------------------------|----10-10-10--10--10-10-10-|


  E5                             C5
   E  Q     E   E   Q     E    E  Q     E  E  E  E  E
|--5-------(3)-(5)--------3-|--5--------3--8--7--5--3--||
|---------------------------|-------------------------o||
|---------------------------|--------------------------||
|---------------------------|--------------------------||
|---------------------------|-------------------------o||
|---------------------------|--------------------------||
|
|--------------------------------------------------|
|  E  E  E  E   E   E  E  E    E  E  E  E  E  E  E  E
|---------------------------|--------------------------||
|---------------------------|-------------------------o||
|---------------------------|--------------------------||
|---------------------------|--------------------------||
|---------------------------|-------------------------o||
|-12-12-12-12--12--12-12-12-|-12--8--8--8--8--8--8--8--||
|
|  E  E  E  E   E   E  E  E    E  E  E  E  E  E  E  E
|---------------------------|--------------------------||
|---------------------------|-------------------------o||
|--9--9--9--9---9---9--9--9-|--9-----------------------||
|--9--9--9--9---9---9--9--9-|--9-10-10-10-10-10-10-10--||
|--7--7--7--7---7---7--7--7-|--7-10-10-10-10-10-10-10-o||
|---------------------------|-----8--8--8--8--8--8--8--||


 Interlude
  Q=118
  (G)                          (D)
 4/4
   E  E   E  E   E   Q     E    E  Q     E   E   Q     E
|--5-(7)----(3)-(5)--------3-|--5-------(3)-(5)--------3-|
|----------------------------|---------------------------|
|----------------------------|---------------------------|
|----------------------------|---------------------------|
|----------------------------|---------------------------|
|----------------------------|---------------------------|
|
| Gtr II
|  W                            W
|----------------------------|---------------------------|
|----------------------------|-10------------------------|
|-12-------------------------|-11------------------------|
|-12-------------------------|-12------------------------|
|----------------------------|---------------------------|
|----------------------------|---------------------------|
|
| Gtr III
|  PM-----------------------------------------------------
|  E  E   E  E   E   E  E  E    E  E  E  E   E   E  E  E
|----------------------------|---------------------------|
|----------------------------|---------------------------|
|----------------------------|---------------------------|
|--9-------------------------|---------------------------|
|-10-10--10-10--10--10-10-10-|-10------------------------|
|----------------------------|----10-10-10--10--10-10-10-|


  (Em)                         (C)
   E  Q     E   E   Q.          W
|--5-------(3)-(5)-----------|------------------|
|----------------------------|------------------|
|----------------------------|------------------|
|----------------------------|------------------|
|----------------------------|------------------|
|----------------------------|------------------|
|
|  W                            W
|----------------------------|------------------|
|-12-------------------------|--8---------------|
|-12-------------------------|--9---------------|
|-14-------------------------|-10---------------|
|----------------------------|------------------|
|----------------------------|------------------|
|
|                          >
|---------------------------------------------|
|  E  E  E  E   E   E   E  E    E E E E E E E E
|----------------------------|------------------|
|----------------------------|------------------|
|----------------------------|------------------|
|----------------------------|------------------|
|----------------------------|------------------|
|-12-12-12-12--12--12--12-12-|-12-8-8-8-8-8-8-8-|


  (G)                          (D)
   E  E   E  E   E   Q     E    E  Q     E   E   Q     E
|--5-(7)----(3)-(5)--------3-|--5-------(3)-(5)--------3-|
|----------------------------|---------------------------|
|----------------------------|---------------------------|
|----------------------------|---------------------------|
|----------------------------|---------------------------|
|----------------------------|---------------------------|
|
|  W                            W
|----------------------------|---------------------------|
|----------------------------|-10------------------------|
|-12-------------------------|-11------------------------|
|-12-------------------------|-12------------------------|
|----------------------------|---------------------------|
|----------------------------|---------------------------|
|
|  PM-----------------------------------------------------
|  E  E   E  E   E   E  E  E    E  E  E  E   E   E  E  E
|----------------------------|---------------------------|
|----------------------------|---------------------------|
|----------------------------|---------------------------|
|--9-------------------------|---------------------------|
|-10-10--10-10--10--10-10-10-|-10------------------------|
|----------------------------|----10-10-10--10--10-10-10-|


  (Em)                        (C)
   E  Q     E   E   Q     E    E Q   E E E E E
|--5-------(3)-(5)--------3-|--5-----3-8-7-5-3-||
|---------------------------|------------------||
|---------------------------|------------------||
|---------------------------|------------------||
|---------------------------|------------------||
|---------------------------|------------------||
|
|  W                           W
|---------------------------|------------------||
|-12------------------------|--8---------------||
|-12------------------------|--9---------------||
|-14------------------------|-10---------------||
|---------------------------|------------------||
|---------------------------|------------------||
|
|--------------------------------------------|
|  E  E  E  E   E   E  E  E    E E E E E E E E
|---------------------------|------------------||
|---------------------------|------------------||
|---------------------------|------------------||
|---------------------------|------------------||
|---------------------------|------------------||
|-12-12-12-12--12--12-12-12-|-12-8-8-8-8-8-8-8-||


 Out-Chorus
  Q=125
  G5                              D5
   E  E   E  E   E   Q     E    E  Q     E   E   Q     E
|--5-(7)----(3)-(5)--------3-|--5-------(3)-(5)--------3-|
|----------------------------|---------------------------|
|----------------------------|---------------------------|
|----------------------------|---------------------------|
|----------------------------|---------------------------|
|----------------------------|---------------------------|
|
| Gtr III
|  PM-----------------------------------------------------
|  E  E   E  E   E   E  E  E    E  E  E  E   E   E  E  E
|----------------------------|---------------------------|
|----------------------------|---------------------------|
|----------------------------|---------------------------|
|--9-------------------------|---------------------------|
|-10-10--10-10--10--10-10-10-|-10------------------------|
|----------------------------|----10-10-10--10--10-10-10-|
|
| Gtr IV
|  E  E   E  E   E   E  E  E    E  E  E  E   E   E  E  E
|----------------------------|---------------------------|
|----------------------------|---------------------------|
|-12-12--12-12--12--12-12-12-|-12------------------------|
|-12-12--12-12--12--12-12-12-|-12-12-12-12--12--12-12-12-|
|-10-10--10-10--10--10-10-10-|-10-12-12-12--12--12-12-12-|
|----------------------------|----10-10-10--10--10-10-10-|


  E5                             C5
   E  Q     E   E   Q     E    E  Q     E  E  E  E  E
|--5-------(3)-(5)--------3-|--5--------3--5--7--5--3-|
|---------------------------|-------------------------|
|---------------------------|-------------------------|
|---------------------------|-------------------------|
|---------------------------|-------------------------|
|---------------------------|-------------------------|
|
|--------------------------------------------------|
|  E  E  E  E   E   E  E  E    E  E  E  E  E  E  E  E
|---------------------------|-------------------------|
|---------------------------|-------------------------|
|---------------------------|-------------------------|
|---------------------------|-------------------------|
|---------------------------|-------------------------|
|-12-12-12-12--12--12-12-12-|-12--8--8--8--8--8--8--8-|
|
|  E  E  E  E   E   E  E  E    E  E  E  E  E  E  E  E
|---------------------------|-------------------------|
|---------------------------|-------------------------|
|--9--9--9--9---9---9--9--9-|--9----------------------|
|--9--9--9--9---9---9--9--9-|--9-10-10-10-10-10-10-10-|
|--7--7--7--7---7---7--7--7-|--7-10-10-10-10-10-10-10-|
|---------------------------|-----8--8--8--8--8--8--8-|


  G5                              D5
   E  E   E  E   E   Q     E    E  Q     E   E   Q     E
|--5-(7)----(3)-(5)--------3-|--5-------(3)-(5)--------3-|
|----------------------------|---------------------------|
|----------------------------|---------------------------|
|----------------------------|---------------------------|
|----------------------------|---------------------------|
|----------------------------|---------------------------|
|
|  PM-----------------------------------------------------
|  E  E   E  E   E   E  E  E    E  E  E  E   E   E  E  E
|----------------------------|---------------------------|
|----------------------------|---------------------------|
|----------------------------|---------------------------|
|--9-------------------------|---------------------------|
|-10-10--10-10--10--10-10-10-|-10------------------------|
|----------------------------|----10-10-10--10--10-10-10-|
|
|  E  E   E  E   E   E  E  E    E  E  E  E   E   E  E  E
|----------------------------|---------------------------|
|----------------------------|---------------------------|
|-12-12--12-12--12--12-12-12-|-12------------------------|
|-12-12--12-12--12--12-12-12-|-12-12-12-12--12--12-12-12-|
|-10-10--10-10--10--10-10-10-|-10-12-12-12--12--12-12-12-|
|----------------------------|----10-10-10--10--10-10-10-|


  E5                             C5
   E  Q     E   E   Q     E    E  Q     E  E  E  E  E
|--5-------(3)-(5)--------3-|--5--------3--8--7--5--3-|
|---------------------------|-------------------------|
|---------------------------|-------------------------|
|---------------------------|-------------------------|
|---------------------------|-------------------------|
|---------------------------|-------------------------|
|
|--------------------------------------------------|
|  E  E  E  E   E   E  E  E    E  E  E  E  E  E  E  E
|---------------------------|-------------------------|
|---------------------------|-------------------------|
|---------------------------|-------------------------|
|---------------------------|-------------------------|
|---------------------------|-------------------------|
|-12-12-12-12--12--12-12-12-|-12--8--8--8--8--8--8--8-|
|
|  E  E  E  E   E   E  E  E    E  E  E  E  E  E  E  E
|---------------------------|-------------------------|
|---------------------------|-------------------------|
|--9--9--9--9---9---9--9--9-|--9----------------------|
|--9--9--9--9---9---9--9--9-|--9-10-10-10-10-10-10-10-|
|--7--7--7--7---7---7--7--7-|--7-10-10-10-10-10-10-10-|
|---------------------------|-----8--8--8--8--8--8--8-|


    G5                           D5
     E  E  E  E  E  E  E  E    E  E  E  E  E  E  E  E
||---5--7-----3--5-----3--5-|-----3--5--3--5--7--5--3-|
||o-------------------------|-------------------------|
||--------------------------|-------------------------|
||--------------------------|-------------------------|
||o-------------------------|-------------------------|
||--------------------------|-------------------------|
|
|    PM------------------------------------------------
|    E  E  E  E  E  E  E  E    E  E  E  E  E  E  E  E
||--------------------------|-------------------------|
||o-------------------------|-------------------------|
||--------------------------|-------------------------|
||---9----------------------|-------------------------|
||o-10-10-10-10-10-10-10-10-|-10----------------------|
||--------------------------|----10-10-10-10-10-10-10-|
|
|    E  E  E  E  E  E  E  E    E  E  E  E  E  E  E  E
||--------------------------|-------------------------|
||o-------------------------|-------------------------|
||--12-12-12-12-12-12-12-12-|-12----------------------|
||--12-12-12-12-12-12-12-12-|-12-12-12-12-12-12-12-12-|
||o-10-10-10-10-10-10-10-10-|-10-12-12-12-12-12-12-12-|
||--------------------------|----10-10-10-10-10-10-10-|


  E5                           C5
   E  E  E  E  E  E  E  E    E  E  E  E  E  E  E  E   3x
|--5--7-----3--5-----3--5-|-----3--5--3--8--7--5--3---||
|-------------------------|--------------------------o||
|-------------------------|---------------------------||
|-------------------------|---------------------------||
|-------------------------|--------------------------o||
|-------------------------|---------------------------||
|
|------------------------------------------------|
|  E  E  E  E  E  E  E  E    E  E  E  E  E  E  E  E   3x
|-------------------------|---------------------------||
|-------------------------|--------------------------o||
|-------------------------|---------------------------||
|-------------------------|---------------------------||
|-------------------------|--------------------------o||
|-12-12-12-12-12-12-12-12-|-12--8--8--8--8--8--8--8---||
|
|  E  E  E  E  E  E  E  E    E  E  E  E  E  E  E  E   3x
|-------------------------|---------------------------||
|-------------------------|--------------------------o||
|--9--9--9--9--9--9--9--9-|--9------------------------||
|--9--9--9--9--9--9--9--9-|--9-10-10-10-10-10-10-10---||
|--7--7--7--7--7--7--7--7-|--7-10-10-10-10-10-10-10--o||
|-------------------------|-----8--8--8--8--8--8--8---||


 Outro
  Q=118
  (G)                          (D)
 4/4
   E  E   E  E   E   Q     E    E  Q     E   E   Q     E
|--5-(7)----(3)-(5)--------3-|--5-------(3)-(5)--------3-|
|----------------------------|---------------------------|
|----------------------------|---------------------------|
|----------------------------|---------------------------|
|----------------------------|---------------------------|
|----------------------------|---------------------------|
|
| Gtr II
|  W                            W
|----------------------------|---------------------------|
|----------------------------|-10------------------------|
|-12-------------------------|-11------------------------|
|-12-------------------------|-12------------------------|
|----------------------------|---------------------------|
|----------------------------|---------------------------|
|
| Gtr III
|  PM-----------------------------------------------------
|  E  E   E  E   E   E  E  E    E  E  E  E   E   E  E  E
|----------------------------|---------------------------|
|----------------------------|---------------------------|
|----------------------------|---------------------------|
|--9-------------------------|---------------------------|
|-10-10--10-10--10--10-10-10-|-10------------------------|
|----------------------------|----10-10-10--10--10-10-10-|


  (Em)                        (C)
   E  Q     E   E   Q     E    E Q   E E E E E
|--5-------(3)-(5)--------3-|--5-----3-5-7-5-3-|
|---------------------------|------------------|
|---------------------------|------------------|
|---------------------------|------------------|
|---------------------------|------------------|
|---------------------------|------------------|
|
|  W                           W
|---------------------------|------------------|
|-12------------------------|--8---------------|
|-12------------------------|--9---------------|
|-14------------------------|-10---------------|
|---------------------------|------------------|
|---------------------------|------------------|
|
|--------------------------------------------|
|  E  E  E  E   E   E  E  E    E E E E E E E E
|---------------------------|------------------|
|---------------------------|------------------|
|---------------------------|------------------|
|---------------------------|------------------|
|---------------------------|------------------|
|-12-12-12-12--12--12-12-12-|-12-8-8-8-8-8-8-8-|


  (G)                          (D)
   E  E   E  E   E   Q     E    E  Q     E   E   Q     E
|--5-(7)----(3)-(5)--------3-|--5-------(3)-(5)--------3-|
|----------------------------|---------------------------|
|----------------------------|---------------------------|
|----------------------------|---------------------------|
|----------------------------|---------------------------|
|----------------------------|---------------------------|
|
|  W                            W
|----------------------------|---------------------------|
|----------------------------|-10------------------------|
|-12-------------------------|-11------------------------|
|-12-------------------------|-12------------------------|
|----------------------------|---------------------------|
|----------------------------|---------------------------|
|
|  PM-----------------------------------------------------
|  E  E   E  E   E   E  E  E    E  E  E  E   E   E  E  E
|----------------------------|---------------------------|
|----------------------------|---------------------------|
|----------------------------|---------------------------|
|--9-------------------------|---------------------------|
|-10-10--10-10--10--10-10-10-|-10------------------------|
|----------------------------|----10-10-10--10--10-10-10-|


  (Em)                        (C)
   E  Q     E   E   Q     E    E Q   E E E E E
|--5-------(3)-(5)--------3-|--5-----3-8-7-5-3-*|
|---------------------------|------------------*|
|---------------------------|------------------*|
|---------------------------|------------------*|
|---------------------------|------------------*|
|---------------------------|------------------*|
|
|  W                           W
|---------------------------|------------------*|
|-12------------------------|--8---------------*|
|-12------------------------|--9---------------*|
|-14------------------------|-10---------------*|
|---------------------------|------------------*|
|---------------------------|------------------*|
|
|--------------------------------------------|
|  E  E  E  E   E   E  E  E    E E E E E E E E
|---------------------------|------------------*|
|---------------------------|------------------*|
|---------------------------|------------------*|
|---------------------------|------------------*|
|---------------------------|------------------*|
|-12-12-12-12--12--12-12-12-|-12-8-8-8-8-8-8-8-*|
comments
We did not receive enough feedback on this tab! Please rate:
print report bad tab
1 2 3 4 5
I want to post or [tab]
guest
You may want to rate the tab now too:
select rating
Please do not post tabs as comments. Select "correction" instead!