Oops, an error
Loading. Please wait.

Days Go By Tab

ver3
ver3

Whole song

More versions @911Tabs.com
2,970 views 9 this week
1 commentread comment
1 2 3 4 5
accurate
x 2
Autoscroll
+/-
esc
set tempo
stop
Contributor
Difficulty
intermediate
WARNING: You are trying to view
                                    content from Ultimate-Guitar.com
                                    in an unauthorized application,
                                    which is prohibited.

                                    Please use an official Ultimate
                                    Guitar Tabs application for iPhone,
                                    iPad or Android to access legitimate
                                    chords, guitar, bass, and drum tabs
                                    from Ultimate-Guitar.com database.

                                    Type "ultimate guitar tabs" in Apple
                                    App Store's or Android Market's
                                    search to find the application.
----------------------------------------------------------------------------
                             DAYS GO BY - The Offspring
----------------------------------------------------------------------------
Tabbed by: Peedunkey
E-mail: bubbin.rose@gmail.com

Tuning: Standard 


Intro (lead)

e|-----------------------------------------------------------------|
B|-----------------------------------------------------------------|
G|------7p6---6p4---4p2---2---2h4-2-1---7p6---6p4---4-9-9-9-9------| x2
D|-----------------------------------------------------------------| 
A|----7-----7-----7-------------------7-----7-----7----------------|
E|-----------------------------------------------------------------|

Intro (rhythm)

e|-----------------------------------------------------------------|
B|-----------------------------------------------------------------|
G|-7-7-------------------------7-7---------------------------------| x2
D|-7-7-------------------------7-7---------------------------------|
A|-5-5-------------------------5-5---------------------------------|
E|-----------------------------------------------------------------|

Intro riff (lead)

e|--------------------------|
B|--------------------------|
G|-------9---7--------------|
D|-7h9-----------9---7p6----| x3
A|-----7---7---7---7-----7--|
E|--------------------------|

e|------------------------------|
B|------------------------------|
G|-------9---7------------------|
D|-7h9-----------9---7h9-7p6----| x1
A|-----7---7---7---7---------7--|
E|------------------------------|

e|--------------------------|
B|--------------------------|
G|-------9---7--------------|
D|-7h9-----------9---7p6----| x3
A|-----7---7---7---7-----7--|
E|--------------------------|

e|------------------------------|
B|------------------------------|
G|-------9---7------------------|
D|-7h9-----------9---7h9-7p6----| x1
A|-----7---7---7---7---------7--|
E|------------------------------|


Intro riff (rhythm)

e|-----------------------------------------------------------------|
B|-----------------------------------------------------------------|
G|-9-9-9-9-9-9-9-9-7-7-7-7-7-7-7-7-----------------9-9-9-9-9-9-7-7-|
D|-9-9-9-9-9-9-9-9-7-7-7-7-7-7-7-7-7-7-7-7-7-7-7-7-9-9-9-9-9-9-7-7-|
A|-7-7-7-7-7-7-7-7-5-5-5-5-5-5-5-5-7-7-7-7-7-7-7-7-7-7-7-7-7-7-5-5-|
E|---------------------------------5-5-5-5-5-5-5-5-----------------|

e|-----------------------------------------------------------------|
B|-----------------------------------------------------------------|
G|-9-9-9-9-9-9-9-9-7-7-7-7-7-7-7-7-----------------9-9-9-9-9-9-7-7-|
D|-9-9-9-9-9-9-9-9-7-7-7-7-7-7-7-7-7-7-7-7-7-7-7-7-9-9-9-9-9-9-7-7-|
A|-7-7-7-7-7-7-7-7-5-5-5-5-5-5-5-5-7-7-7-7-7-7-7-7-7-7-7-7-7-7-5-5-|
E|---------------------------------5-5-5-5-5-5-5-5-----------------|

Verse (lead)

This part is pretty faint, but listen for the rhythm.

e|-5---4---5-4---5-4----|
B|-------5-----5-----5--|
G|----------------------|      
D|----------------------| x8   Hold 5 on the B string last time
A|----------------------|
E|----------------------|

Verse (rhythm)

e|-----------------------------------------------------------------|
B|-----------------------------------------------------------------|
G|-9-9-9-9-9-9-9-9-7-7-7-7-7-7-7-7---------------------------------|
D|-9-9-9-9-9-9-9-9-7-7-7-7-7-7-7-7-7-7-7-7-7-7-7-7-2-2-2-2-2-2-2-2-|
A|-7-7-7-7-7-7-7-7-5-5-5-5-5-5-5-5-7-7-7-7-7-7-7-7-2-2-2-2-2-2-2-2-|
E|---------------------------------5-5-5-5-5-5-5-5-0-0-0-0-0-0-0-0-|

e|-----------------------------------------------------------------|
B|-----------------------------------------------------------------|
G|-9-9-9-9-9-9-9-9-7-7-7-7-7-7-7-7---------------------------------|
D|-9-9-9-9-9-9-9-9-7-7-7-7-7-7-7-7-7-7-7-7-7-7-7-7-2-2-2-2-2-2-2-2-|
A|-7-7-7-7-7-7-7-7-5-5-5-5-5-5-5-5-7-7-7-7-7-7-7-7-2-2-2-2-2-2-2-2-|
E|---------------------------------5-5-5-5-5-5-5-5-0-0-0-0-0-0-0-0-|

Chorus (lead)

e|-5---4---5-4---5-4----|
B|-------5-----5-----5--|
G|----------------------| 
D|----------------------| x3
A|----------------------|
E|----------------------|

e|-5---4---5-7/5-4------|
B|-------5---5/3-2------|
G|----------------------|
D|----------------------|
A|----------------------|
E|----------------------|

e|-5---4---5-4---5-4----|
B|-------5-----5-----5--|
G|----------------------| 
D|----------------------| x1
A|----------------------|
E|----------------------|

e|-5---4---5-7/5-4-5-5-5-5-5-5-5-5-|
B|-------5---5/3-2-3-3-3-3-3-3-3-3-|
G|---------------------------------|
D|---------------------------------|
A|---------------------------------|
E|---------------------------------|

Chorus (rhythm)

e|-----------------------------------------------------------------|
B|-----------------------------------------------------------------|
G|-7-7-7-7-7-7-7-7---------------------------------4-4-4-4-4-4-4-4-|
D|-7-7-7-7-7-7-7-7-7-7-7-7-7-7-7-7-2-2-2-2-2-2-2-2-4-4-4-4-4-4-4-4-|
A|-5-5-5-5-5-5-5-5-7-7-7-7-7-7-7-7-2-2-2-2-2-2-2-2-2-2-2-2-2-2-2-2-|
E|-----------------5-5-5-5-5-5-5-5-0-0-0-0-0-0-0-0-----------------|

e|-----------------------------------------------------------------|
B|-----------------------------------------------------------------|
G|-7-7-7-7-7-7-7-7-------------------------------------------------| 
D|-7-7-7-7-7-7-7-7-7-7-7-7-7-7-7-7-2-2-2-2-2-2-2-2-2-2-2-2-2-2-2-2-|
A|-5-5-5-5-5-5-5-5-7-7-7-7-7-7-7-7-2-2-2-2-2-2-2-2-2-2-2-2-2-2-2-2-|
E|-----------------5-5-5-5-5-5-5-5-0-0-0-0-0-0-0-0-0-0-0-0-0-0-0-0-|

e|-----------------------------------------------------------------|
B|-----------------------------------------------------------------|
G|-7-7-7-7-7-7-7-7---------------------------------4-4-4-4-4-4-4-4-|
D|-7-7-7-7-7-7-7-7-7-7-7-7-7-7-7-7-2-2-2-2-2-2-2-2-4-4-4-4-4-4-4-4-|
A|-5-5-5-5-5-5-5-5-7-7-7-7-7-7-7-7-2-2-2-2-2-2-2-2-2-2-2-2-2-2-2-2-|
E|-----------------5-5-5-5-5-5-5-5-0-0-0-0-0-0-0-0-----------------|

e|-------------------------------------------------|
B|-------------------------------------------------|
G|-7-7-7-7-7-7-7-7---------------------------------| 
D|-7-7-7-7-7-7-7-7-7-7-7-7-7-7-7-7-2-2-2-2-2-2-2-2-|
A|-5-5-5-5-5-5-5-5-7-7-7-7-7-7-7-7-2-2-2-2-2-2-2-2-|
E|-----------------5-5-5-5-5-5-5-5-0-0-0-0-0-0-0-0-|


Post chorus (lead)

e|--------------------------|
B|--------------------------|
G|-------9---7--------------|
D|-7h9-----------9---7p6----| x3
A|-----7---7---7---7-----7--|
E|--------------------------|

e|------------------------------|
B|------------------------------|
G|-------9---7------------------|
D|-7h9-----------9---7h9-7p6----| x1
A|-----7---7---7---7---------7--|
E|------------------------------|

Post chorus (rhythm)

e|-----------------------------------------------------------------|
B|-----------------------------------------------------------------|
G|-9-9-9-9-9-9-9-9-7-7-7-7-7-7-7-7-----------------9-9-9-9-9-9-7-7-|
D|-9-9-9-9-9-9-9-9-7-7-7-7-7-7-7-7-7-7-7-7-7-7-7-7-9-9-9-9-9-9-7-7-|
A|-7-7-7-7-7-7-7-7-5-5-5-5-5-5-5-5-7-7-7-7-7-7-7-7-7-7-7-7-7-7-5-5-|
E|---------------------------------5-5-5-5-5-5-5-5-----------------|

Verse (lead)

e|-5---4---5-4---5-4----|
B|-------5-----5-----5--|
G|----------------------| x8     Hold 5 on the B string last time
D|----------------------|
A|----------------------|
E|----------------------|

Verse (rhythm)

e|-----------------------------------------------------------------|
B|-----------------------------------------------------------------|
G|-9-9-9-9-9-9-9-9-7-7-7-7-7-7-7-7---------------------------------|
D|-9-9-9-9-9-9-9-9-7-7-7-7-7-7-7-7-7-7-7-7-7-7-7-7-2-2-2-2-2-2-2-2-|
A|-7-7-7-7-7-7-7-7-5-5-5-5-5-5-5-5-7-7-7-7-7-7-7-7-2-2-2-2-2-2-2-2-|
E|---------------------------------5-5-5-5-5-5-5-5-0-0-0-0-0-0-0-0-|

e|-----------------------------------------------------------------|
B|-----------------------------------------------------------------|
G|-9-9-9-9-9-9-9-9-7-7-7-7-7-7-7-7---------------------------------|
D|-9-9-9-9-9-9-9-9-7-7-7-7-7-7-7-7-7-7-7-7-7-7-7-7-2-2-2-2-2-2-2-2-|
A|-7-7-7-7-7-7-7-7-5-5-5-5-5-5-5-5-7-7-7-7-7-7-7-7-2-2-2-2-2-2-2-2-|
E|---------------------------------5-5-5-5-5-5-5-5-0-0-0-0-0-0-0-0-|

Chorus (lead)

e|-5---4---5-4---5-4----|
B|-------5-----5-----5--|
G|----------------------| 
D|----------------------| x3
A|----------------------|
E|----------------------|

e|-5---4---5-7/5-4------|
B|-------5---5/3-2------|
G|----------------------|
D|----------------------|
A|----------------------|
E|----------------------|

e|-5---4---5-4---5-4----|
B|-------5-----5-----5--|
G|----------------------| 
D|----------------------| x1
A|----------------------|
E|----------------------|

e|-5---4---5-7/5-4-5-5-5-5-5-5-5-5-5-5-5-5-5-5-5-5-5-|
B|-------5---5/3-2-----------------------------------|
G|---------------------------------------------------|
D|---------------------------------------------------|
A|---------------------------------------------------|
E|---------------------------------------------------|

Chorus (rhythm)

e|-----------------------------------------------------------------|
B|-----------------------------------------------------------------|
G|-7-7-7-7-7-7-7-7---------------------------------4-4-4-4-4-4-4-4-|
D|-7-7-7-7-7-7-7-7-7-7-7-7-7-7-7-7-2-2-2-2-2-2-2-2-4-4-4-4-4-4-4-4-|
A|-5-5-5-5-5-5-5-5-7-7-7-7-7-7-7-7-2-2-2-2-2-2-2-2-2-2-2-2-2-2-2-2-|
E|-----------------5-5-5-5-5-5-5-5-0-0-0-0-0-0-0-0-----------------|

e|-----------------------------------------------------------------|
B|-----------------------------------------------------------------|
G|-7-7-7-7-7-7-7-7-------------------------------------------------| 
D|-7-7-7-7-7-7-7-7-7-7-7-7-7-7-7-7-2-2-2-2-2-2-2-2-2-2-2-2-2-2-2-2-|
A|-5-5-5-5-5-5-5-5-7-7-7-7-7-7-7-7-2-2-2-2-2-2-2-2-2-2-2-2-2-2-2-2-|
E|-----------------5-5-5-5-5-5-5-5-0-0-0-0-0-0-0-0-0-0-0-0-0-0-0-0-|

e|-----------------------------------------------------------------|
B|-----------------------------------------------------------------|
G|-7-7-7-7-7-7-7-7---------------------------------4-4-4-4-4-4-4-4-|
D|-7-7-7-7-7-7-7-7-7-7-7-7-7-7-7-7-2-2-2-2-2-2-2-2-4-4-4-4-4-4-4-4-|
A|-5-5-5-5-5-5-5-5-7-7-7-7-7-7-7-7-2-2-2-2-2-2-2-2-2-2-2-2-2-2-2-2-|
E|-----------------5-5-5-5-5-5-5-5-0-0-0-0-0-0-0-0-----------------|

e|-----------------------------------------------------------------|
B|-----------------------------------------------------------------|
G|-7-7-7-7-7-7-7-7-------------------------------------------------| 
D|-7-7-7-7-7-7-7-7-7-7-7-7-7-7-7-7-2-2-2-2-2-2-2-2-2-2-2-2-2-2-2-2-|
A|-5-5-5-5-5-5-5-5-7-7-7-7-7-7-7-7-2-2-2-2-2-2-2-2-2-2-2-2-2-2-2-2-|
E|-----------------5-5-5-5-5-5-5-5-0-0-0-0-0-0-0-0-0-0-0-0-0-0-0-0-|

Bridge (lead)

e|-----------------------------------------------------------------|
B|-----------------------------------------------------------------|
G|------7p6---6p4---4p2---2---2h4-2-1---7p6---6p4---4-9-9-9-9------| 
D|-----------------------------------------------------------------| x2
A|----7-----7-----7-------------------7-----7-----7----------------|
E|-----------------------------------------------------------------|

e|--------------------------|
B|--------------------------|
G|-------9---7--------------|
D|-7h9-----------9---7p6----| x3
A|-----7---7---7---7-----7--|
E|--------------------------|

e|------------------------------|
B|------------------------------|
G|-------9---7------------------|
D|-7h9-----------9---7h9-7p6----| x1
A|-----7---7---7---7---------7--|
E|------------------------------|

e|--------------------------|
B|--------------------------|
G|-------9---7--------------|
D|-7h9-----------9---7p6----| x3
A|-----7---7---7---7-----7--|
E|--------------------------|

e|------------------------------|
B|------------------------------|
G|-------9---7------------------|
D|-7h9-----------9---7h9-7p6----| x1
A|-----7---7---7---7---------7--|
E|------------------------------|

Bridge (rhythm)

e|-----------------------------------------------------------------|
B|-----------------------------------------------------------------|
G|-7-7-------------------------------------------------------------|
D|-7-7-------------------------------------------------------------|
A|-5-5-------------------------------------------------------------|
E|-----------------------------------------------------------------|

         Palm muted:
e|-----------------------------------------------------------------|
B|-----------------------------------------------------------------|
G|-7-7---7-7-7-7-7-7-7-7---7-7-------------------------------------|
D|-7-7---7-7-7-7-7-7-7-7---7-7-------------------------------------|
A|-5-5---5-5-5-5-5-5-5-5---5-5-------------------------------------|
E|-----------------------------------------------------------------|

e|-----------------------------------------------------------------|
B|-----------------------------------------------------------------|
G|-9-9-9-9-9-9-9-9-7-7-7-7-7-7-7-7-----------------9-9-9-9-9-9-9-9-|
D|-9-9-9-9-9-9-9-9-7-7-7-7-7-7-7-7-7-7-7-7-7-7-7-7-9-9-9-9-9-9-9-9-|
A|-7-7-7-7-7-7-7-7-5-5-5-5-5-5-5-5-7-7-7-7-7-7-7-7-7-7-7-7-7-7-7-7-|
E|---------------------------------5-5-5-5-5-5-5-5-----------------|

e|-----------------------------------------------------------------|
B|-----------------------------------------------------------------|
G|-9-9-9-9-9-9-9-9-7-7-7-7-7-7-7-7-----------------9-9-9-9-9-9-9-9-|
D|-9-9-9-9-9-9-9-9-7-7-7-7-7-7-7-7-7-7-7-7-7-7-7-7-9-9-9-9-9-9-9-9-|
A|-7-7-7-7-7-7-7-7-5-5-5-5-5-5-5-5-7-7-7-7-7-7-7-7-7-7-7-7-7-7-7-7-|
E|---------------------------------5-5-5-5-5-5-5-5-----------------|

Chorus (lead)

e|-5---4---5-4---5-4----|
B|-------5-----5-----5--|
G|----------------------| x3
D|----------------------|
A|----------------------|
E|----------------------|

e|-5---4---5-7/5-4------|
B|-------5---5/3-2------|
G|----------------------|
D|----------------------|
A|----------------------|
E|----------------------|

e|-5---4---5-4---5-4----|
B|-------5-----5-----5--|
G|----------------------| x1
D|----------------------|
A|----------------------|
E|----------------------|

e|-5---4---5-7/5-4-5-5-5-5-5-5-5-5-5-5-5-5-5-5-5-5-5-|
B|-------5---5/3-2-----------------------------------|
G|---------------------------------------------------|
D|---------------------------------------------------|
A|---------------------------------------------------|
E|---------------------------------------------------|

Chorus (rhythm)

e|-----------------------------------------------------------------|
B|-----------------------------------------------------------------|
G|-7-7-7-7-7-7-7-7---------------------------------4-4-4-4-4-4-4-4-|
D|-7-7-7-7-7-7-7-7-7-7-7-7-7-7-7-7-2-2-2-2-2-2-2-2-4-4-4-4-4-4-4-4-|
A|-5-5-5-5-5-5-5-5-7-7-7-7-7-7-7-7-2-2-2-2-2-2-2-2-2-2-2-2-2-2-2-2-|
E|-----------------5-5-5-5-5-5-5-5-0-0-0-0-0-0-0-0-----------------|

e|-----------------------------------------------------------------|
B|-----------------------------------------------------------------|
G|-7-7-7-7-7-7-7-7-------------------------------------------------| 
D|-7-7-7-7-7-7-7-7-7-7-7-7-7-7-7-7-2-2-2-2-2-2-2-2-2-2-2-2-2-2-2-2-|
A|-5-5-5-5-5-5-5-5-7-7-7-7-7-7-7-7-2-2-2-2-2-2-2-2-2-2-2-2-2-2-2-2-|
E|-----------------5-5-5-5-5-5-5-5-0-0-0-0-0-0-0-0-0-0-0-0-0-0-0-0-|

e|-----------------------------------------------------------------|
B|-----------------------------------------------------------------|
G|-7-7-7-7-7-7-7-7---------------------------------4-4-4-4-4-4-4-4-|
D|-7-7-7-7-7-7-7-7-7-7-7-7-7-7-7-7-2-2-2-2-2-2-2-2-4-4-4-4-4-4-4-4-|
A|-5-5-5-5-5-5-5-5-7-7-7-7-7-7-7-7-2-2-2-2-2-2-2-2-2-2-2-2-2-2-2-2-|
E|-----------------5-5-5-5-5-5-5-5-0-0-0-0-0-0-0-0-----------------|

e|-----------------------------------------------------------------|
B|-----------------------------------------------------------------|
G|-7-7-7-7-7-7-7-7-------------------------------------------------| 
D|-7-7-7-7-7-7-7-7-7-7-7-7-7-7-7-7-2-2-2-2-2-2-2-2-2-2-2-2-2-2-2-2-|
A|-5-5-5-5-5-5-5-5-7-7-7-7-7-7-7-7-2-2-2-2-2-2-2-2-2-2-2-2-2-2-2-2-|
E|-----------------5-5-5-5-5-5-5-5-0-0-0-0-0-0-0-0-0-0-0-0-0-0-0-0-|

Outro (lead)

e|-5---4---5-4---5-4----|
B|-------5-----5-----5--|
G|----------------------| x1
D|----------------------|
A|----------------------|
E|----------------------|

e|-5---4---5-7/5-4------|
B|-------5---5/3-2------|
G|----------------------|
D|----------------------|
A|----------------------|
E|----------------------|

e|-5---4---5-4---5-4----|
B|-------5-----5-----5--|
G|----------------------| x2
D|----------------------|
A|----------------------|
E|----------------------|


e|-5---5-5---5-5-5-----------------4---4-4---4-4-4-2---2-2---2-2-2-|
B|-3---3-3---3-3-3-5---5-5---5-5-5-5---5-5---5-5-5-0---0-0---0-0-0-|
G|-----------------2---2-2---2-2-2---------------------------------|
D|-----------------------------------------------------------------|
A|-----------------------------------------------------------------|
E|-----------------------------------------------------------------|

e|-5---5-5---5-5-5-----------------4---4-4---4-4-4-4---4-4---4-4-4-|
B|-3---3-3---3-3-3-5---5-5---5-5-5-5---5-5---5-5-5-5---5-5---5-5-5-|
G|-----------------2---2-2---2-2-2---------------------------------|
D|-----------------------------------------------------------------|
A|-----------------------------------------------------------------|
E|-----------------------------------------------------------------|


Outro (rhythm)

e|-----------------------------------------------------------------|
B|-----------------------------------------------------------------|
G|-7-7-7-7-7-7-7-7---------------------------------4-4-4-4-4-4-4-4-|
D|-7-7-7-7-7-7-7-7-7-7-7-7-7-7-7-7-2-2-2-2-2-2-2-2-4-4-4-4-4-4-4-4-|
A|-5-5-5-5-5-5-5-5-7-7-7-7-7-7-7-7-2-2-2-2-2-2-2-2-2-2-2-2-2-2-2-2-|
E|-----------------5-5-5-5-5-5-5-5-0-0-0-0-0-0-0-0-----------------|

e|-----------------------------------------------------------------|
B|-----------------------------------------------------------------|
G|-7-7-7-7-7-7-7-7-------------------------------------------------| 
D|-7-7-7-7-7-7-7-7-7-7-7-7-7-7-7-7-2-2-2-2-2-2-2-2-2-2-2-2-2-2-2-2-|
A|-5-5-5-5-5-5-5-5-7-7-7-7-7-7-7-7-2-2-2-2-2-2-2-2-2-2-2-2-2-2-2-2-|
E|-----------------5-5-5-5-5-5-5-5-0-0-0-0-0-0-0-0-0-0-0-0-0-0-0-0-|

e|-----------------------------------------------------------------|
B|-----------------------------------------------------------------|
G|-7-7-7-7-7-7-7-7-----------------9-9-9-9-9-9-9-9-9-9-9-9-9-9-9-9-| 
D|-7-7-7-7-7-7-7-7-7-7-7-7-7-7-7-7-9-9-9-9-9-9-9-9-9-9-9-9-9-9-9-9-|
A|-5-5-5-5-5-5-5-5-7-7-7-7-7-7-7-7-7-7-7-7-7-7-7-7-7-7-7-7-7-7-7-7-|
E|-----------------5-5-5-5-5-5-5-5---------------------------------|

e|-----------------------------------------------------------------|
B|-----------------------------------------------------------------|
G|-7-7-7-7-7-7-7-7-----------------9-9-9-9-9-9-9-9-9-9-9-9-9-9-9-9-| 
D|-7-7-7-7-7-7-7-7-7-7-7-7-7-7-7-7-9-9-9-9-9-9-9-9-9-9-9-9-9-9-9-9-|
A|-5-5-5-5-5-5-5-5-7-7-7-7-7-7-7-7-7-7-7-7-7-7-7-7-7-7-7-7-7-7-7-7-|
E|-----------------5-5-5-5-5-5-5-5---------------------------------|

comments
We did not receive enough feedback on this tab! Please rate:
print report bad tab
1 2 3 4 5
1 comment total.
0 reply
symon.bassi wrote on March 28 2013, 08:42 am

good but leads missing i think?

I want to post or [tab]
guest
You may want to rate the tab now too:
select rating
Please do not post tabs as comments. Select "correction" instead!