Oops, an error
Loading. Please wait.

Greatest Hits Tab

23,343 views 24 this week
6 commentsread comments
1 2 3 4 5
accurate
x 10
Autoscroll
+/-
esc
set tempo
stop
Contributor
Difficulty
intermediate
Hey! There's an official Ultimate Guitar app which is ideal
for learning songs when you're away from computer. Get the app
WARNING: You are trying to view
                                    content from Ultimate-Guitar.com
                                    in an unauthorized application,
                                    which is prohibited.

                                    Please use an official Ultimate
                                    Guitar Tabs application for iPhone,
                                    iPad or Android to access legitimate
                                    chords, guitar, bass, and drum tabs
                                    from Ultimate-Guitar.com database.

                                    Type "ultimate guitar tabs" in Apple
                                    App Store's or Android Market's
                                    search to find the application.
This is my first tab so dont be hatin' if not good

Greatest hits
The track list:

1.Can't repeat
2.Come out and play 
3.Self esteem
4.Gotta get away
5.All I Want
6.Gone Away
7.Pretty fly(for a white guy)
8.Why Don't You Get A Job ?
9.The Kids Aren't Alright
10.Original Prankster
11.Want You Bad
12.Defy You
13.Hit That
14.(Can't Get My) Head Around You



Track 1:Can't repeat
Standard tuning

*: palm mute
/: slide  (for this song, start the slides one fret before)


Intro: (0:14)
2x

e|----------------------------------------------|
B|----------------------------------------------|
G|-/14-12----------------/14-12-----------------|
D|--------14-14-12-12-14--------14-14-12-12-14--|
A|----------------------------------------------|
E|----------------------------------------------|
 
                                      Only 2nd time
e|-----------------------------------|-----|
B|-----------------------------------|-----|
G|-/13-12-----------/13--------------|-----|
D|--------14-12-/14-----14-12-/14-12-|-/14-|
A|-----------------------------------|-----|
E|-----------------------------------|-----|

Verse: (0:32)
2x

e|------------------------------------------------|
B|------------------------------------------------|
G|-----------------------55-5-55-5-55-5-55-5------|
D|--77-7-77-7-77-7-77-7--55-5-55-5-55-5-55-5------|
A|--77-7-77-7-77-7-77-7--33-3-33-3-33-3-33-3------|
E|--55-5-55-5-55-5-55-5--**---**---**---**--------|
    **   **   **   **

e|------------------------------------------------|
B|------------------------------------------------|
G|------------------------------------------------|
D|-33-3-33-3-33-3-33-3--55-5-55-5-55-5-55-5-------|
A|-33-3-33-3-33-3-33-3--55-5-55-5-55-5-55-5-------|
E|-11-1-11-1-11-1-11-1--33-3-33-3-33-3-33-3-------|
   **   **   **   **    **   **   **   **

Chorus: (0:50)
2x

e|----------------------------------------|
B|----------------------------------------|
G|-------5--------------------------------|
D|-7-----5-x7--3-----5--------------------|
A|-7-x7--3-----3-x7--5-x7-----------------|
E|-5-----------1-----3--------------------|


Repeat in order: Intro  (1:08)
		 Verse  (1:26)
		 Chorus (1:45)
		 Intro  (2:03)
		 Verse  (2:21)

During bass solo at (2:39):

e|-----------------------------------------|
B|-----------------------------------------|
G|------5-5-----------------------5--------|
D|-7-7--5-5-3-3-33-3-33-3-33-3-5--5-5------|
A|-7-7--3-5-3-3-33-3-33-3-33-3-5--3-5------|
E|-5-5------1-1-11-1-11-1-11-1-3----3------|
                **   **   ** 

Repeat: Chorus (2:48)

Ending: (3:06) 

e|-----------------------------------------|
B|-----------------------------------------|
G|--2-4-5-7-9-12--/17-16-/17-16-14----/14--|
D|--2-4-5-7-7-12-------------------17------|
A|--0-2-3-5-7-9----------------------------|
E|-----------------------------------------|

e|-----------------------------------------|
B|-----------------------------------------|
G|-----------------------------------------|
D|-77-7-77-7-77-7-77-7-77-7-77-7-7---------|
A|-77-7-77-7-77-7-77-7-77-7-77-7-7---------|
E|-55-5-55-5-55-5-55-5-55-5-55-5-5---------|
   **   **   **   **   **   **


Track 2: Come out and play
Tuning: Standard (E,A,D,G,B,e)
Intro
E ----------------------------------|
B ----------------------------------|
G --9-------------------------------|   During the
D --9-------------------------------|   begginig of the song
A --7-------------------------------|   play this note
E ----------------------------------|

Pre verse
E ----------------------------------|
B ----------------------------------|  
G --4----7-----------4----7---------|  
D --4----7---4-7-----4----7---4-7---|  
A --2----5---4-7-----2----5---4-7---|
E -----------2-5--------------2-5---|

2nd pre verse
E ----------------------------------|
B ----------------------------------|
G -11-11-11--14-14---9--------------|   
D -11-11-11--14-14---9--------------|   
A -9--9--9---12-12---7--------------|
E ----------------------------------|
 
Egyptian riff
E ----------------------------------|
B ----------------------------------|
G ----------------------------------|   
D ----------------------------------|   
A -----6-7-9-7-6--------------------|
E -7-8-----------8-7-8-7------------|
 
Verse
E ----------------------------------|
B ----------------------------------|  
G -4-4-------4-4--7-----------------|  ALL PALM MUTED
D -4-4--4-7--4-4--7--4-7------------|  
A -2-2--4-7--2-2--5--4-7------------|
E ------2-5----------2-5------------|

Pre chorus (After this, play the verse once again, but add a A9 D11 G11 at the end of it)
E ----------------------------------|
B ----------------------------------|  
G -9-9--12-12--11-11-11-----7-------|  
D -9-9--12-12--11-11-11--9--7-------|  
A -7-7--10-10--9--9--9---9--5-------|
E -----------------------7----------|

Chorus
E ----------------------------------|
B ----------------------------------|  
G --4----7-----------4----7---------|  x6
D --4----7---4-7-----4----7---4-7---|  
A --2----5---4-7-----2----5---4-7---|
E -----------2-5--------------2-5---|

Cont. chorus
E ----------------------------------|
B ----------------------------------|  
G -9-9-9-9---5-5-5-5----------------|  
D -9-9-9-9---5-5-5-5----------------|  
A -7-7-7-7---3-3-3-3----------------|
E ----------------------------------|

E ----------------------------------|
B ----------------------------------|  
G --4----7-----------4----7-------4-|  
D --4----7---4-7-4---4----7---4-7-4-|  
A --2----5---4-7-4---2----5---4-7-2-|
E -----------2-5-2------------2-5---|

ORDER

INTRO
PRE VERSE
2nd PRE VERSE
EGYPTIAN
VERSE
PRE CHORUS
VERSE
CHORUS
Cont.chorus
EGYPTIAN
VERSE
PRE CHORUS
VERSE
CHORUS
Cont.chorus
EGYPTIAN
PRE CHORUS
VERSE
CHORUS
Cont.chorus


 Track 3:Self Esteem 





e||--|--FIG 1-------------|---|--FIG 2---|--FIG3--|------------|----FIG 4--|
B||--|--------------------|---|----------|---------|---B--------|-----------|
G||--|------10----5-------|---|----------|---------|----A--O----|-----------|
D||5-|--7---10----5----5--|-%-|-----3----|-5----7--|-----S--N---|--7---5-/--|
A||5-|--7---8-----3----5--|---|-----3----|-5----7--|------S--L--|--7---5-/--|
E||3-|--5--------------3--|---|-----1----|-3----5--|----------Y-|--5---3-/--|
                             P.M.--X 10                                    
                        
I wrote her off....
 
e||---------|-----FIG 5-----|-----|
B||---------|---------------|F----|
G||---------|---------------|-I---|
D||7--5--/--|--3--10--5---7-|--G.-|
A||7--5--/--|--3--10--5---7-|--—--|
E||5--3--/--|--1--8---3---5-|----1|

          P.M.----------   O yeah....


We make plans..

All this rejection….FIG 5+ FIG 1



e||------FIG 6---|-------FIG7---------|-----|-----|-------------|-----|
B||--------------|---------------------|F----|F----|--B---------|F----|
G||--------------|---------------------|-I---|-I---|---A--O-----|-I---|
D||12---8--3--10-|-12----8---10---5--3-|-G.--|-G---| ---S--N----|---G|
A||12---8--3--10-|-12----8---10---5--3-|-----|-----|-----S--L---|-----|
E||10---6--1--8--|-10----6----8---3--1-|----2|----3|---------Y--|-----|
-|----4|
                                     
When she...    The more you suffer...



Lyrics


la la  lalalalala


I wrote her off for the tenth time today
And practiced all the things I would say
But she came over
I lost my nerve
I took her back and made her dessert
Now I know I'm being used
That's okay man cause I like the abuse
I know she's playing with me
That's okay cause I've got no self esteem
We make plans to go out at night
I wait till 2 then I turn out the light
All this rejection's got me so low
If she keeps it up I just might tell her so
When she's saying that she wants only me
Then I wonder why she sleeps with my friends
When she's saying that I'm like a disease
Then I wonder how much more I can spend
Well I guess I should stick up for myself
But I really think it's better this way
The more you suffer
The more it shows you really care Right? 
Now I'll relate this a little bit
That happens more than I'd like to admit
Late at night she knocks on my door
Drunk again and looking to score
Now I know I should say no
But that's kind of hard when she's ready to go
I may be dumb
But I'm not a dweeb
I'm just a sucker with no self esteem 


Track 4:Gotta Get Away 
Intro:
e|-----------------------------------------
B|---------8-8-7--5-------------8-8-10-5---
G|----7-7--7-7-7--4-------------7-7--7-4---    X2
D|-----------------------------------------
A|-----------------------------------------
E|-----------------------------------------

Main riff:

E-------------------------------------------------------------------------------
B-------------------------------------------------------------------------------
G-9-9-7-7--9-9-7-7--9-9-12-12--9-9-12-12--9-9-14-14--9-9-14-14--9-9-10-9-10-9-10
D-9-9-7-7--9-9-7-7--9-9-12-12--9-9-12-12--9-9-14-14--9-9-14-14--9-9-10-9-10-9-10
A-7-7-5-5--7-7-5-5--7-7-10-10--7-7-10-10--7-7-12-12--7-7-12-12--7-7-8--7--8-7--8
E-------------------------------------------------------------------------------


Verse:
     
e|------------------------------------------------------------------------
B|------------------------------------------------------------------------
G|-----7-7-----7-7-----9-9-----9-9-----12-12-----14-14---9-9-10-9-10-9-10-
D|-----7-7-----7-7-----9-9-----9-9-----12-12-----14-14---9-9-10-9-10-9-10-
A|-----5-5-----5-5-----7-7-----7-7-----10-10-----12-12---7-7--8-7--8-7--8-
E|-0-0-----0-0-----0-0-----0-0-----0-0-------0-0--------------------------
 

CHORUS:
  
e|----------------------------------------------------------------
B|----------------------------------------------------------------
G|--9--9--9--9------------------12--12--12--12--------------------
D|--9--9--9--9--10--10--10--10--12--12--12--12--12--12--12--12----
A|--7--7--7--7--10--10--10--10--10--10--10--10--12--12--12--12----
E|---------------8---8---8---8------------------10--10--10--10----


END ON E
E|-----||
B|-----||
G|-----||
D|--2--||
A|--2--||
E|--0--||


Track 5:All I Want 

You will have to find the rythm

INTRO 
---- --- ---- --- --- ---- --- ---- --- ---- ---
---- --- ---- --- --- ---- --- ---- --- ---- ---
-10- -8- -10- -6- -8- -10- -8- -10- -6- -13- -8-
-10- -8- -10- -6- -8- -10- -8- -10- -6- -13- -8-
-8-- -6- -8-- -4- -6- -8-- -6- -8-- -4- -11- -6-
---- --- ---- --- --- ---- --- ---- --- ---- ---

VERSE
---- --- ----                                                  
---- --- ----                   
-10- -8- -10- 
-10- -8- -10-  
-8-- -6- -8-- 
---- --- ---- 
 pm   pm  pm

Then, 

No guitar, only bass

Then 
---- --- ---- --- ---- ---
---- --- ---- --- ---- ---
-10- -8- -10- -6- -13- -8-
-10- -8- -10- -6- -13- -8-
-8-- -6- -8-- -4- -11- -6-
---- --- ---- --- ---- ---
 pm   pm  pm


CHORUS
---- --- --- --- --- 
---- --- --- --- --- 
-10- -8- -6- --- -8-     
-10- -8- -6- -6- -8-     
-8-- -6- -4- -6- -6- 
---- --- --- -4- --- 

BRIDGE
--- --- ---- --- --- --- --- ---
--- --- ---- --- --- --- --- ---
-6- -8- -10- -8- -6- -8- -6- -5-
-6- -8- -10- -8- -6- -8- -6- -5-
-4- -6- -8-- -6- -4- -6- -4- -3-
--- --- ---- --- --- --- --- ---

CHORUS(2)
---- --- --- ---- --- --- ---- --- --- --- --- ----
---- --- --- ---- --- --- ---- --- --- --- --- ----
-10- -8- -6- -10- -8- -6- -10- -8- -6- --- -8- -10-
-10- -8- -6- -10- -8- -6- -10- -8- -6- -6- -8- -10-
-8-- -6- -4- -8-- -6- -4- -8-- -6- -4- -6- -6- -8--
---- --- --- ---- --- --- ---- --- --- -4- --- ----

YA YA YA YA YA
INTRO
VERSE X 2
CHORUS X4
INTRO
VERSE X 2
CHORUS X 2
CHORUS(2) 
YA YA YA YA YA 

pm = PALM MUTE

Intro:
E------------------------------------------|
B------------------------------------------|
G--11-11-11-9--11-11-11---7-7-7-7--9-9-9-9-|
D--11-11-11-9--11-11-11---7-7-7-7--9-9-9-9-|
A--9--9--9--7--9--9--9----5-5-5-5--7-7-7-7-|
E------------------------------------------|


Verse
E----------------------------------------------------|
B----------------------------------------------------|
G------------------------------------7-7-7-7--9-9-9-9|
D--4-4-4-4-4-4-4------4-4-4-4-4-4-4--7-7-7-7--9-9-9-9|
A--4-4-4-4-4-4-4------4-4-4-4-4-4-4--5-5-5-5--7-7-7-7|
E--2-2-2-0-2-2-2------2-2-2-0-2-2-2------------------|

Chorus

E-----------------------------------------
B-----------------------------------------
G-11-11-11-11-11-11-11-11--7-7-7-7-7-7-7-7
D-11-11-11-11-11-11-11-11--7-7-7-7-7-7-7-7
A-9--9--9--9--9--9--9--9---5-5-5-5-5-5-5-5
E-----------------------------------------

E---------------------------------|
B---------------------------------|
G------------------9-9-9-9-9-9-9-9|
D-7-7-7-7-7-7-7-7--9-9-9-9-9-9-9-9|
A-7-7-7-7-7-7-7-7--7-7-7-7-7-7-7-7|
E-5-5-5-5-5-5-5-5-----------------|

Bridge:*

E----------------------------|
B----------------------------|
G-7-7-9--11-11-9--7-7-9--7--6|
D-7-7-9--11-11-9--7-7-9--7--6|
A-5-5-7--9--9--7--5-5-7--5--4|
E----------------------------|

NOTE: The Last D chord and C# in the bridge are played 16 times each



                           Track 6:gone away

main riff

guitar 1

|-------------------------------------------------------------------------|
|-------------------------------------------------------------------------|
|-10-10-10-10-10-10-10-10-----------------8-8-8-8-8-8-8-8-----------------|
|-10-10-10-10-10-10-10-10-6-6-6-6-6-6-6-6-8-8-8-8-8-8-8-8-8-8-8-8-8-8-8-8-|
|--8--8--8--8--8--8--8--8-6-6-6-6-6-6-6-6-6-6-6-6-6-6-6-6-8-8-8-8-8-8-8-8-|
|-------------------------4-4-4-4-4-4-4-4-----------------6-6-6-6-6-6-6-6-|

guitar 2 joins with

|-8-8-8-8-8-8-8-8-8-8-8-8-8-8-8-8-6-6-6-6-6-6-6-6-6-6-6-6-6-6-6-6-|
|-6-6-6-6-6-6-6-6-9-9-9-9-9-9-9-9-4-4-4-4-4-4-4-4-6-6-6-6-6-6-6-6-|
|-----------------------------------------------------------------|
|-----------------------------------------------------------------|
|-----------------------------------------------------------------|
|-----------------------------------------------------------------|

guitar 2 plays

|------------------------------------------------|
|------------------------------------------------|
|--------10:--------8:--------8--8/10--3-3-5-----|
|-8h10--------5h6-------3h5------------------3:--|
|------8----------6---------6--------------------|
|------------------------------------------------|

guitar 1 plays this chord behind the riff above

|-1:--|
|-1:--|
|-2:--|
|-3:--|
|-3:--|
|-1:--|

"i reach to the sky....."

|-----8:------6:------6:--1-----4--3-----|
|---6-------4-------4----------------4/6-|
|-5-------5-------3-----------3----------|
|---------------------------3------------|
|----------------------------------------|
|----------------------------------------|

acoustic guitar

|-1:--1-4:--4-6--6--6-6-6--6--6--6-6-1--1--1-1-4--4--4-4-6--6--6-6--6**---|
|-1:--1-4:--4-6--6--6-6-6--6--6--6-6-1--1--1-1-4--4--4-4-6--6--6-6--6**---|
|-2:--2-5:--5-7--7--7-7-7--7--7--7-7-2--2--2-2-5--5--5-5-7--7--7-7--7**---|
|-3:--3-6:--6-8--8--8-8-8--8--8--8-8-3--3--3-3-6--6--6-6-8--8--8-8--8**---|
|-3:--3-6:--6-8--8--8-8-8--8--8--8-8-3--3--3-3-6--6--6-6-8--8--8-8--8**---|
|-1:--1-4:--4-6--6--6-6-6--6--6--6-6-1--1--1-1-4--4--4-4-6--6--6-6--6**---|

final note

|-1:--|
|-1:--|
|-2:--|
|-3:--|
|-3:--|
|-1:--|



 Track 7:Pretty for a white guy

reapeat 4 times
(distortion)
intro
E:-----------------------------------------------------
B:-----------------------------------------------------
G:-----------------------------------------------------
D:---4--4-4------4-4-9-9-7-----------------------------
A:--2--2-2--4-4-2-2-7-7-5------------------------------
E:---------2-2-----------------------------------------

verse
Clean
reapeat 7 times
E:------------------------------------------------------
B:------------------------------------------------------
G:------------------------------------------------------
D:-x4x4x------------------------------------------------
A:x2x2x-------------------------------------------------
E:------------------------------------------------------

chourus
distortion
reapeat3 times
E:-------------------------------------------------------
B:-------------------------------------------------------
G:-------------------------------------------------------
D:-4--4-10-11-10-11-4--4-10-11-10-11-7-7-7--9-9-9-9-9-9-9
A:2--2-8--9--8--9--2--2-8--9--8--9--5-5-5--7-7-7-7-7-7-7-
E:--------------------------------5-5--------------------


end of chours

E:---------------------------------------------------------
B:---------------------------------------------------------
G:---------------------------------------------------------
D:--7-7-7-7-7-7-9-9-9-9-10-11-10-11-9-9-7-4----------------
A:-5-5-5-5-5-5-7-7-7-7-8--9--8--9--7-7-5-2-----------------
E:---------------------------------------------------------



reapeat intro

reapeat verse

reapeat chourus

distortion
E:---------------------------------------------------------
B:---------------------------------------------------------
G:---------------------------------------------------------
D:--4-4---4-4---4-4---4-4---4-4----------------------------
A:-2-2---2-2---2-2---2-2---2-2-----------------------------
E:---------------------------------------------------------

Reapeat intro

reapeat chorus

ending

E:---------------------------------------------------------
B:---------------------------------------------------------
G:---------------------------------------------------------
D:---------------------------------------------------------
A:-5-5-5-5-5-5-7-7-7-7-5-5-5-5-5-5-7-7-7-7-5-5-5-5-5-5-7-7-7
E:---------------------------------------------------------

E:---------------------------------------------------------
B:---------------------------------------------------------
G:---------------------------------------------------------
D:--7-7-7-7-7-7-9-9-9-9-10-11-10-11-9-9-7-4----------------
A:-5-5-5-5-5-5-7-7-7-7-8--9--8--9--7-7-5-2-----------------
E:---------------------------------------------------------

Track 8:"Why Don't You Get A Job?"


During the chorus, break, and
ending, play the chords in the "ska upstroke" (just
hit the highest 4 strings).

Chords:

    F         Bb         C           G
e---1----------1---------3-----------3------------|
B---1----------3---------5-----------3------------|
G---2----------3---------5-----------4------------|
D---3----------3---------5-----------5------------|
A---3----------1---------3-----------5------------|
E---1--------------------------------3------------|

VERSE 1: (No guitar this verse!!)

My friend's got a girlfriend
Man he hates that bitch
He tells me every day
He says "Man I really gotta lose my chick
In the worst kind of way"

VERSE 2:
F
She sits on her ass
Bb
He works his hands to the bone
F                       C
To give her money every payday
F                                 Bb
But she wants more dinero just to stay at home
F                   C       F
Well my friend, you gotta say

CHORUS:
F                            Bb
I won't pay, I won't pay ya, No Way-ay-ay-ay
F                C             F
Na na, why don't you get a job?
F                          Bb
Say no way, say no way-ah, no way-ay-ay-ay
F                C             F
Na na, why don't you get a job?

VERSE 3:
F                              Bb
I guess all his money, well it isn't enough
F                              C
To keep her bill collectors at bay
F                              Bb
I guess all his money, well it isn't enough
F                     C              F
Cause that girl's got expensive taste

CHORUS

BREAK:
Bb
Well I guess it ain't easy
                 F
Doing nothing at alllllllll  ohhhh yeahhhh
Bb
But hey man free rides just don't
       G            C
Come along every day

(Let me tell you about my other friend now)

VERSE 4:
F
My friend's got a boyfriend
        Bb
Man she hates that dick
F                     C
She tells me every day
F                            Bb
He wants more dinero just to stay at home
F                   C        F
Well my friend, you gotta say

CHORUS (x2)

ENDING:
F                                Bb
I won't give you no money, I'll always pay
F                C             F
Na na, why don't you get a job?
F                          Bb
Say no way, say no way-ah, no way-ay-ay-ay
F                C              END on F
Na na, why don't you get a job?


Track 9:THE KIDS AREN'T ALRIGHT

symbols used in this tab:

/ slide up
\ slide down
b bend
r release


INTRO


You can also play this riff on G and D instead of D and A

E:--------------------------------------------------
B:--------------------------------------------------
G:--------------------------------------------------
D:-----6-----6-----6--5-5-5/6------6-----6-5-5-5\6--
A:-8-8-8-8-8-8-8-8-8--8-8-8-8--4-4-4-4-4-4-4-4-4-4--
E:--------------------------------------------------

E:---------------------------------------
B:---------------------------------------
G:---------------------------------------
D:-----5----5----5-5-5/6---8--6--5-5-5/6-
A:-6-6-6-6-6-6-6-6-6-6/6---6--6--6-6-6/6-
E:--------------------------------------- X2

E:---------------------------------------------------------------
B:---------------------------------------------------------------
G:---------------------------------------------------------------
D:---------------------------------------------------------------
A:-1--1--1/3--3/4------3-4----------3-4-6-4--3/4-------------------
E:----------------2--2-----4--4-4/6------------------------------ X2

VERSE/CHORUS

Strum each chord 8 times:

E:----------------
B:----------------
G:---------6------
D:-8---4---6---6--
A:-8---4---4---6--
E:-6---2-------4--

SOLO


All the bends are full bends,  and where it says 16b 18 16r,
you have to bend 16 to sound like 18, then release it back on 16

                                           FULL BENDS
E:---------------------------------------------------------------
B:-----------------------------------------/-7b--9b----12b----14b
G:---------------------------------------------------------------
D:---------------------------------------------------------------
A:-8-\----1-----1/3--4----4/6---6-6/8--------------------------
E:---------------------------------------------------------------

E:-------------16----------------------------13---13--13----13---
B:------16^----------16b-(18)-16r--14--16--16b---------------------
G:---------------------------------------------------------------
D:---------------------------------------------------------------
A:---------------------------------------------------------------
E:---------------------------------------------------------------

E:--13--13----13--13----13---13---13--------------------------------
B:-------------------------------------16b---16r--14-------14-16-14-
G:------------------------------------------------------15----------
D:------------------------------------------------------------------
A:------------------------------------------------------------------
E:------------------------------------------------------------------

E:---------------------------------------9---9--------------------
B:-----14-\--9--------------------9---9--------------9------------
G:-15-----------11b---11---11---------------------------10---11/13
D:----------------------------------------------------------------
A:----------------------------------------------------------------
E:----------------------------------------------------------------

E:---------------------------------------------------------------
B:---------------14---14---16b--16--16--16--14---16b~~---14\-----
G:-13--13---13/--------------------------------------------------
D:---------------------------------------------------------------
A:---------------------------------------------------------------
E:---------------------------------------------------------------

OUTRO

Repeat as many times as needed:
E:-------------------------------------------
B:--11--9--11--9--11--9--11--9--11--9--11--9-
G:-------------------------------------------
D:-------------------------------------------
A:-------------------------------------------
E:-------------------------------------------

I couldn't stand seeing all of the wrong tabs on there, so I came up with one and added it myself
Intro: Guitar 1 (Noodles)
e|----------------------------------------------------------------------
B|----------------------------------------------------------------------
G|---------------------------------2------------------------------------
D|-----------------------------------------------------------------0----
A|----0-0-3-0-0-----------0-0-3-0-----0-3-0-----------0-0-3-0-0---------
E|----------------------------------------------------------------------

e|------------------------------------------|
B|------------------------------------------|
G|--------------2---------------------------|
D|-----------------------2--0--0----0-------|
A|----0-0-3-0------0-------------3-----3----|
E|------------------------------------------|

Verse: Riff 1 Guitar 1                      Guitar 2 (some kind of ska)
e|----------------------------------------|-------------------------------|
B|----------------------------------------|-------------------------------|
G|-------------2--------------------------|-------------------------------|
D|----------------------2--0--0----0------|---7-7-7-7-------10-10-10-10---|
A|---0-0-3-0------0-------------3-----3---|---7-7-7-7-------10-10-10-10---|
E|----------------------------------------|---5-5-5-5--------8--8--8--8---|

Riff 2 Guitar 1                   Guitar 2
e|-----------------------------|------------------------------|
B|-----------------------------|------------------------------|
G|-----------------99999999----|------------------------------|
D|----55555555-----99999999----|----55555555-----22222222-----|
A|----55555555-----77777777----|----55555555-----22222222-----|
E|----33333333-----------------|----33333333-----00000000-----|

Riff 3 Guitar 1 & 2
e|------------------------------------------|
B|------------------------------------------|
G|------------------------------------------|
D|----7--10--14--13--12--12--10--12--10-----| x3
A|----7--10--14--13--12--12--10--12--10-----|
E|----5---8--12--11--10--10---8--10---8-----|

Riff 4 Guitar 1 & 2                                             Guitar 1
e|-------------------------------|      |--------------------|-----------------------   
B|-------------------------------|      |--------------------|-----------------------   
G|-------------------------------|      |--------------------|-----------------------   
D|----7---7-------10------12-----| x3   |----10/7---10/7-----|-1212121212--13--14----   
A|----7---7-------10------12-----|      |----10/7---10/7-----|-1212121212--13--14----   
E|----5---5--------8------10-----|      |-----8/5----8/5-----|-1010101010--11--12----   

Guitar 2
e|--------------------|
B|--------------------|
G|--------------------|
D|----55555--6--7-----|
A|----55555--6--7-----|
E|----33333--4--5-----|

Track 10: Want You Bad

pm - palm mute 
/ \ - slide 
hr - harmonic 
: - let ring 
x - scratch 


intro / bridge 1 / outro 

|-----------------------| 
|-----------------------| 
|-9-9-9-----------6-6-4-| 
|-9-9-9-9-9-9-7-7-6-6-4-| 
|-7-7-7-9-9-9-7-7-4-4-2-| 
|-------7-7-7-5-5-------| 

post intro / post chorus 
pm________________| 
|---------------------------| 
|---------------------------| 
|-9-9-9-9-9-9-9-9-9-9-9-9-9-| 
|-9-9-9-9-9-9-9-9-9-9-9-9-9-| 
|-7-7-7-7-7-7-7-7-7-7-7-7-7-| 
|---------------------------| 

verse 
pm____________________| |_____________________| |_____________________| 
|------------------------------------------------------------------------------- 
|------------------------------------------------------------------------------- 
|-9-9-9-9-9-9-9-9-9-9-9-9-9\6-6-6-6-6-6-6-6-6-6-6-6-6\4-4-4-4-4-4-4-4-4-4-4-4-4- 
|-9-9-9-9-9-9-9-9-9-9-9-9-9\6-6-6-6-6-6-6-6-6-6-6-6-6\4-4-4-4-4-4-4-4-4-4-4-4-4- 
|-7-7-7-7-7-7-7-7-7-7-7-7-7\4-4-4-4-4-4-4-4-4-4-4-4-4\2-2-2-2-2-2-2-2-2-2-2-2-2- 
|------------------------------------------------------------------------------- 

---------| 
---------| 
---------| 
-7-6-7-9-| 
-7-6-7-9-| 
-5-4-5-7-| 

pre chorus 

|-------------------------------------------------------------------------------| 
|-------------------------------------------------------------------------------| 
|---------------------6-6-6-6-6-9-9-9-9-9---------------------6-6-6-6-6-4-x-x-x-| 
|-7-7-7-7-7-9-9-9-9-9-6-6-6-6-6-9-9-9-9-9-7-7-7-7-7-9-9-9-9-9-6-6-6-6-6-4-x-x-x-| 
|-7-7-7-7-7-9-9-9-9-9-4-4-4-4-4-7-7-7-7-7-7-7-7-7-7-9-9-9-9-9-4-4-4-4-4-2-x-x-x-| 
|-5-5-5-5-5-7-7-7-7-7---------------------5-5-5-5-5-7-7-7-7-7-------------------| 

chorus 

|------------------------------------------------------------------------- 
|------------------------------------------------------------------------- 
|-9-9-9-9-9-9-9-9-9-9-9-9-6-6-6-6-6-6-6-6-6-6-6-6-4-4-4-4-4-4-4-4-4-4-4-4- 
|-9-9-9-9-9-9-9-9-9-9-9-9-6-6-6-6-6-6-6-6-6-6-6-6-4-4-4-4-4-4-4-4-4-4-4-4- 
|-7-7-7-7-7-7-7-7-7-7-7-7-4-4-4-4-4-4-4-4-4-4-4-4-2-2-2-2-2-2-2-2-2-2-2-2- 
|------------------------------------------------------------------------- 

-------------------------| 
-------------------------| 
-------------------------| 
-7-7-7-6-6-6-7-7-7-9-9-9-| 
-7-7-7-6-6-6-7-7-7-9-9-9-| 
-5-5-5-4-4-4-5-5-5-7-7-7-| 

bridge 2 
clean 
|------7hr---------7hr-----------------------------------------| 
|-----------7hr------------------------------------------------| 
|-4:-------------------4:--------9:---4:---4:--------9:---4:---| 
|-4:-------------------4:---7:---9:---4:---4:---7:---9:---4:---| 
|-2:-------------------2:---7:---7:---2:---2:---7:---7:---2:---| 
|---------------------------5:------------------5:-------------| 

riff 

|--------------------------------------------------------------------------------- 
|--------------------------------------------------------------------------------- 
|--------------------------------------------------------------------------------- 
|---------------------------------------------------2-2-2-2-2-1-1-1-1-1-1-1-1-1-1- 
|-6-6-6-6-6-6-6-6-6-6-4-4-4-4-4-4-4-4-4-4-2-2-2-2-2------------------------------- 
|--------------------------------------------------------------------------------- 

-------------------------------------------------------------| 
-------------------------------------------------------------| 
-------------------------------------------------------------| 
---------------------2-2-2-2-2-4-4-4-4-4-6-6-6-6-6-9-9-9-9-9-| 
-4-4-4-4-4-4-4-4-4-4-----------------------------------------| 
-------------------------------------------------------------|  


Track 12: Defy You 

Tuning : Standard 

/ = slide up 
\ = slide down 
* = let ring 


Rhy Fig. 1 
e|---------------------------------------------------| 
b|---------------------------------------------------| 
g|-7/9-9-9-9--9--------------------------------------| 
d|-7/9-9-9-9--9--5--5-5-55-5/7-7-7-7--7--2--2-2--2-2-| 
a|-5/7-7-7-7--7--5--5-5-55-5/7-7-7-7--7--2--2-2--2-2-| 
E|---------------3--3-3-33-3/5-5-5-5--5--0--0-0--0-0-| 

e|--------------------------------------------------| 
b|--------------------------------------------------| 
g|-7/9-9-9-9--9-------------------------------------| 
d|-7/9-9-9-9--9--5--5-5-55--7---75---7---2-2--5-2---| 
a|-5/7-7-7-7--7--5--5-5-55--7---75---7---2-2--5-2---| 
E|---------------3--3-3-33--5---53---5---0-0--3-0---| 
[p.m.] 

Rhy. Fill 1 
e|---------------------------------------| 
b|---------------------------------------| 
g|-7/9-9-9-9--9--------------------------| 
d|-7/9-9-9-9--9--5--5-5-55--7---75---2---| 
a|-5/7-7-7-7--7--5--5-5-55--7---75---2---| 
E|---------------3--3-3-33--5---53---0---| 


Riff 1 
e|-----------------------------------| 
b|-----------------------------------| 
g|-7/9-9-9-9--9-9~---9-9/12-12\9-9-9-| 
d|-----------------------------------| 
a|-----------------------------------| 
E|-----------------------------------| 

Riff 3 
e|---------------------------------------| 
b|---------------------------------------| 
g|-7/9-9-9-9--9-9~--/-14-14-14-12/14-14\-| 
d|---------------------------------------| 
a|---------------------------------------| 
E|---------------------------------------| 


Rhy Fig. 2 
e|-------------------------------------------| 
b|-------------------------------------------| 
g|---7-7-7-9-9-9-----------------------------| 
d|-2-7-7-7-9-9-9-5-5----2-5-5-5-7-7-7-2-2----| 
a|-2-5-5-5-7-7-7-5-5----2-5-5-5-7-7-7-2-2----| 
E|-0-------------3-3----0-3-3-3-5-5-5-0-0----| 
p.m.----------------------------------| 

e|----------------------------------------------| 
b|----------------------------------------------| 
g|---7-7-7-9-9-9--------------------------------| 
d|-2-7-7-7-9-9-9-5-5----2-5-5-5-7-7-7-2-2----5--| 
a|-2-5-5-5-7-7-7-5-5----2-5-5-5-7-7-7-2-2----5--| 
E|-0-------------3-3----0-3-3-3-5-5-5-0-0----3--| 
p.m.----------------------------------| 

e|-------------------------------------------| 
b|-------------------------------------------| 
g|---7-7-7-9-9-9-----------------------------| 
d|-2-7-7-7-9-9-9-5-5----2-5-5-5-7-7-7-2-2----| 
a|-2-5-5-5-7-7-7-5-5----2-5-5-5-7-7-7-2-2----| 
E|-0-------------3-3----0-3-3-3-5-5-5-0-0----| 
p.m.----------------------------------| 

e|----------------------------------------------| 
b|----------------------------------------------| 
g|---7-7-7-9-9-9--------------------------------| 
d|-2-7-7-7-9-9-9-5-5----2-5-5-5-7-7-5-7-7-5-7-7-| 
a|-2-5-5-5-7-7-7-5-5----2-5-5-5-7-7-5-7-7-5-7-7-| 
E|-0-------------3-3----0-3-3-3-5-5-3-5-5-3-5-5-| 
p.m.----------------------------| 


Riff 2 
e|-------------------------------------------------------| 
b|-------------------------------------------------------| 
g|-------------------------------------------------------| 
d|-9*-------------------------7*-------------------------| 
a|-7-7--7-7--7-7--7-7--7-7-7--5-5--5-5--5-5--5-5--5--5-5-| 
E|-------------------------------------------------------| 

e|------------------------------------------------------| 
b|------------------------------[7-5-----5-3------------| 
g|-----------------------------------7-------5]---------| 
d|------------------------------------------------------| 
a|-5*-------------------------7*------------------------| 
E|-3-3--3-3--3-3--3-3--3-3-3--5-5--5-5--5-5--5-5--5-5-5-| 


Rhy. Fill 2 
e|---------------------------------| 
b|---------------------------------| 
g|---------------------------------| 
d|-5-5-5-5-5-5-5-5-7-7-7-7-7-7-7-7-| 
a|-5-5-5-5-5-5-5-5-7-7-7-7-7-7-7-7-| 
E|-3-3-3-3-3-3-3-3-5-5-5-5-5-5-5-5-| 
p.m.----------------------------| 

Rhy. Fill 3 
e|----------------------------| 
b|----------------------------| 
g|-9-9--9-9--9-9--9-9--9--9-9-| 
d|-x-x--x-x--x-x--x-x--x--x-x-| 
a|-7-7--7-7--7-7--7-7--7--7-7-| 
E|----------------------------| 



Order 

Rhy. Fig. 1 
Rhy. Fig. 1 & Rhy. Fill 1 (3x Riff 1) 
Rhy. Fig. 2 
2x Rhy. Fig. 1 
Rhy. Fig. 2 
Riff 2, Rhy Fill 2 
2x Rhy. Fig. 1 
Riff 2 
2x Rhy. Fig. 1 
2x Rhy. Fig. 1 (3x Riff 1) 
2x Rhy. Fig. 1 (2x Riff 1 + Riff 3) 
4x Riff 2 
Riff 2, Rhy. Fill 3 
2x Rhy. Fig. 1 
1x Last part of Rhy. Fig. 1 
1x Rhy. Fill 1 * let ring. 



Track 13: Hit That
Intro

E|------------------| 
B|------------------|
G|------------------|
D|--5--7---2--2--2--|
A|--5--7---2--2--2--|
E|--3--5---0--0--0--|

Hit from time to time:

E|-----|
B|-----|
G|-----|
D|--2--|
A|--2--|
E|--0--|

The first non-guitar part goes like this:

E|---------------------------------------------------|
B|---------------------------------------------------|
G|----7---7-9-------7---7-9-------7---7-9-9-12-12-9--|
D|--9---9---------9---9---------9---9----------------|  x2
A|------------7-------------7------------------------|
E|---------------------------------------------------|

The second non-guitar part goes like this:

E|-7-5---5------------|
B|-----8---8----------|
G|-----------9-9-7-9--|
D|--------------------|  x4
A|--------------------|
E|--------------------|


The small piano part goes like this:

E|-------------|
B|-------------|
G|-------------|
D|-------------|
A|-------------|
E|--7-6-5-3-0--|


Pre Chorus:

E|-------------------------------------|
B|-------------------------------------|
G|-------------------------------------|
D|--5-5-5-5-5-5-5-5---7-7-7-7-7-7-7-7--|
A|--5-5-5-5-5-5-5-5---7-7-7-7-7-7-7-7--|
E|--3-3-3-3-3-3-3-3---5-5-5-5-5-5-5-5--|

Chorus:

E|---------------------------------------------------------|
B|---------------------------------------------------------|
G|-------/9-9-------/9-9-----------------------------------|
D|--2-2--/9-9--2-2--/9-9--5--5-5-4-5-5-5--7-7-7-7-5-7-7-7--| X2
A|--2-2--/7-7--2-2--/7-7--5--5-5-4-5-5-5--7-7-7-7-5-7-7-7--|
E|--0-0--------0-0--------3--3-3-2-3-3-3--5-5-5-5-3-5-5-5--|

Then:

E|---------------------------------------|
B|---------------------------------------|
G|-------/9-9-------/9-9--5--5-5-5-5-5-5-|
D|--2-2--/9-9--2-2--/9-9--5--5-5-5-5-5-5-|
A|--2-2--/7-7--2-2--/7-7--3--3-3-3-3-3-3-|
E|--0-0--------0-0-----------------------|

E|----------------------------------------------------------------------|
B|----------------------------------------------------------------------|
G|------------------------------------4-4-4-4-4-4-4-4-------------------|
D|--7-7-7-7-7-7-7-7--2-2-2-2-2-2-2-2--4-4-4-4-4-4-4-4---5--7---2--2--2--|
A|--7-7-7-7-7-7-7-7--2-2-2-2-2-2-2-2--2-2-2-2-2-2-2-2---5--7---2--2--2--|
E|--5-5-5-5-5-5-5-5--0-0-0-0-0-0-0-0--------------------3--5---0--0--0--|


Interlude:

E|------------------|
B|------------------|
G|--9--9------9--9--|
D|--9--9------9--9--|
A|--7--7------7--7--|
E|------------------|


Song order:

Intro
First Non Guitar Part
Second Non Guitar Part
Pre Chorus
Chorus
First Non Guitar Part 
Pre Chorus 
Chorus
Interlude 
Pre Chorus 
Chorus


 Track14:Can't Get My Head Around You 

Tuning:EADGBe

Intro  (Clean)
e|-0-0---0-0---0-0---0-0---------------------------------------------------|
B|-0-0---0-0---0-0---0-0---------------------------------------------------|
G|-1-1---1-1---1-1---1-1---------------------------------------------------|
D|-2-2---2-2---2-2---2-2---------------------------------------------------|
A|-2-2---2-2---2-2---2-2---------------------------------------------------|
E|-0-0---0-0---0-0---0-0---------------------------------------------------|

Pre-Verse (Clean) x4
e|-------------------------------------------------------------------------|
B|-------------------------------------------------------------------------|
G|------------------4--7-7-7-----------------------------------------------|
D|-2-2-2--4--5-5-5--4--7-7-7--5--7-7-7-------------------------------------|
A|-2-2-2--4--5-5-5--2--5-5-5--5--7-7-7-------------------------------------|
E|-0-0-0--2--3-3-3------------3--5-5-5-------------------------------------|
  |x x x  x  x x x  x  x x x  x  x x x|

Verse (Distorted) x4  
e|-------------------------------------------------------------------------|
B|-------------------------------------------------------------------------|
G|------------------4--7-7-7-----------------------------------------------|
D|-2-2-2--4--5-5-5--4--7-7-7--5--7-7-7-------------------------------------|
A|-2-2-2--4--5-5-5--2--5-5-5--5--7-7-7-------------------------------------|
E|-0-0-0--2--3-3-3------------3--5-5-5-------------------------------------|

Chorus 
e|-------------------------------------------------------------------------|
B|-------------------------------------------------------------------------|
G|-5-5-5-5-5-5-5-5-5-5-5-5-5-5-5-5-----------------------------------------|
D|-5-5-5-5-5-5-5-5-5-5-5-5-5-5-5-5--2-2--2-2--2-2--2-2---------------------|
A|-3-3-3-3-3-3-3-3-3-3-3-3-3-3-3-3--2-2--2-2--2-2--2-2---------------------|
E|----------------------------------0-0--0-0--0-0--0-0---------------------|

Chorus (Continued)
e|-------------------------------------------------------------------------|
B|-------------------------------------------------------------------------|
G|-5-5-5-5-5-5-5-5-5-5-5-5-5-5-5-5--7-7-7-7-7-7-7-7--4-4-4-4-4-4-4-4-------|
D|-5-5-5-5-5-5-5-5-5-5-5-5-5-5-5-5--7-7-7-7-7-7-7-7--4-4-4-4-4-4-4-4-------|
A|-3-3-3-3-3-3-3-3-3-3-3-3-3-3-3-3--5-5-5-5-5-5-5-5--2-2-2-2-2-2-2-2-------|
E|-------------------------------------------------------------------------|

Verse x4   
e|-------------------------------------------------------------------------|
B|--------------------------------------------4th time only----------------|
G|------------------4--7-7-7-----------(-----------------4--5-5-5-------)--|
D|-2-2-2--4--5-5-5--4--7-7-7--5--7-7-7-(2-2-2--4--5-5-5--4--5-5-5--7-7-7)--|
A|-2-2-2--4--5-5-5--2--5-5-5--5--7-7-7-(2-2-2--4--5-5-5--2--3-3-3--7-7-7)--|
E|-0-0-0--2--3-3-3------------3--5-5-5-(0-0-0--2--3-3-3------------5-5-5)--|

Solo x3 (Wah Pedal)
e|-------------------------------------------------------------------|
B|-------------------------------------------------------------------|
G|-12-12-12-12-12-12-12-12--19-19--14-14-(9-9-9-9-9-9-9-9)-----------|
D|-x--x--x--x--x--x--x--x---x--x---x--x--(x-x-x-x-x-x-x-x)-3rd time--|
A|-10-10-10-10-10-10-10-10--17-17--12-12-(7-7-7-7-7-7-7-7)-----------|
E|-------------------------------------------------------------------|

Verse x3 (Played under solo)  
e|-------------------------------------------------------------------------|
B|-------------------------------------------------------------------------|
G|-----------------4--7-7-7------------------------------------------------|
D|-2-2-2--4--5-5-5--4--7-7-7--5--7-7-7--(2-2-2-2-2-2-2-2)------------------|
A|-2-2-2--4--5-5-5--2--5-5-5--5--7-7-7--(2-2-2-2-2-2-2-2)-3rd time only----|
E|-0-0-0--2--3-3-3------------3--5-5-5--(0-0-0-0-0-0-0-0)------------------|

Chorus 
e|-------------------------------------------------------------------------|
B|-------------------------------------------------------------------------|
G|-5-5-5-5-5-5-5-5-5-5-5-5-5-5-5-5-----------------------------------------|
D|-5-5-5-5-5-5-5-5-5-5-5-5-5-5-5-5--2-2--2-2--2-2--2-2---------------------|
A|-3-3-3-3-3-3-3-3-3-3-3-3-3-3-3-3--2-2--2-2--2-2--2-2---------------------|
E|----------------------------------0-0--0-0--0-0--0-0---------------------|

Chorus (Continued)
e|-------------------------------------------------------------------------|
B|-------------------------------------------------------------------------|
G|-5-5-5-5-5-5-5-5-5-5-5-5-5-5-5-5--7-7-7-7-7-7-7-7--4-4-4-4-4-4-4-4-------|
D|-5-5-5-5-5-5-5-5-5-5-5-5-5-5-5-5--7-7-7-7-7-7-7-7--4-4-4-4-4-4-4-4-------|
A|-3-3-3-3-3-3-3-3-3-3-3-3-3-3-3-3--5-5-5-5-5-5-5-5--2-2-2-2-2-2-2-2-------|
E|-------------------------------------------------------------------------|

Pre-Verse (Clean) x3
e|-------------------------------------------------------------------------|
B|-------------------------------------------------------------------------|
G|------------------4--7-7-7-----------------------------------------------|
D|-2-2-2--4--5-5-5--4--7-7-7--5--7-7-7-------------------------------------|
A|-2-2-2--4--5-5-5--2--5-5-5--5--7-7-7-------------------------------------|
E|-0-0-0--2--3-3-3------------3--5-5-5-------------------------------------|
  |x x x  x  x x x  x  x x x  x  x x x|

Verse x4   
e|-------------------------------------------------------------------------|
B|--------------------------------------------4th time only----------------|
G|------------------4--7-7-7-----------(-----------------4--5-5-5-------)--|
D|-2-2-2--4--5-5-5--4--7-7-7--5--7-7-7-(2-2-2--4--5-5-5--4--5-5-5--7-7-7)--|
A|-2-2-2--4--5-5-5--2--5-5-5--5--7-7-7-(2-2-2--4--5-5-5--2--3-3-3--7-7-7)--|
E|-0-0-0--2--3-3-3------------3--5-5-5-(0-0-0--2--3-3-3------------5-5-5)--|

Solo x3 (Wah Pedal)
e|-------------------------------------------------------------------|
B|-------------------------------------------------------------------|
G|-12-12-12-12-12-12-12-12--19-19--14-14-(9-9-9-9-9-9-9-9)-----------|
D|-x--x--x--x--x--x--x--x---x--x---x--x--(x-x-x-x-x-x-x-x)-3rd time--|
A|-10-10-10-10-10-10-10-10--17-17--12-12-(7-7-7-7-7-7-7-7)-----------|
E|-------------------------------------------------------------------|

Verse x3 (Played under solo)  
e|-------------------------------------------------------------------------|
B|-------------------------------------------------------------------------|
G|------------------4--7-7-7-----------------------------------------------|
D|-2-2-2--4--5-5-5--4--7-7-7--5--7-7-7--(2-2-2-2-2-2-2-2)------------------|
A|-2-2-2--4--5-5-5--2--5-5-5--5--7-7-7--(2-2-2-2-2-2-2-2)-3rd time only----|
E|-0-0-0--2--3-3-3------------3--5-5-5--(0-0-0-0-0-0-0-0)------------------|

| /  slide up
| \  slide down
| h  hammer-on
| p  pull-off
| ~  vibrato
| +  harmonic
| x  Mute note


that is the greatest hits
By the Offspring
good luck!!!
any question email at kylewashere@musician.org
Piece out
comments
print report bad tab
6 comments total. Showing first comments.
0 reply
mattant wrote on July 22 2006, 08:18 am

u have just copied these i have seen all of these before

0 reply
mattant wrote on July 22 2006, 08:19 am

however they are mostly correct

0 reply
AliceLikesPie wrote on February 4 2007, 04:07 pm

Meh, its ok

I want to post or [tab]
guest
You may want to rate the tab now too:
select rating
Please do not post tabs as comments. Select "correction" instead!