Oops, an error
Loading. Please wait.

Happy Hour Bass Tab

663 views 3 this week
no commentswrite comment
1 2 3 4 5
please rate
add to favorites launch autoscroll
font size
0
reset
Autoscroll
+/-
esc
set tempo
stop
Contributor
WARNING: You are trying to view
                                    content from Ultimate-Guitar.com
                                    in an unauthorized application,
                                    which is prohibited.

                                    Please use an official Ultimate
                                    Guitar Tabs application for iPhone,
                                    iPad or Android to access legitimate
                                    chords, guitar, bass, and drum tabs
                                    from Ultimate-Guitar.com database.

                                    Type "ultimate guitar tabs" in Apple
                                    App Store's or Android Market's
                                    search to find the application.
+++++++++++++++++++++++++++++
| The Offspring- Happy Hour |
+++++++++++++++++++++++++++++



Bass Tab
Album: "Happy Hour" -- 2010


I really enjoyed listening
to some live Offspring songs
as well as the great covers they made
I didnt bother tabbing out the remixes
at the end cus I thought they were kinda boring
and had no bass...
anyway, great band, we're waiting for your new album!
please rate thanks guys!


Raileff

___________________________________________________________

Tuning:

Standard EADG
Half-Step Down (EbADG)

Keys:

| x: Mute
| ~: Let Ring
| /: Slide Up
| \: Slide Down
| h: Hammer On
| p: Pull Off



Tracks:

1. Come Out And Play (Live)
2. Pretty Fly (For A White Guy) (Live)
3. All I Want (Live)
4. Gone Away (Live)
5. Staring At The Sun (Live)
6. Hit That (Live)
7. Gotta Get Away (Live)
8. Dammit, I Changed Again (Live)
9. D.U.I.
10. Beheaded
11. Sin City
12. I Got A Right
13. Hey Joe
14. 80 Times
15. Autonomy

_______________________________________________________________

1.

+++++++++++++++++++++++++++++++++++++++++
| The Offspring- Come Out And Play LIVE |
+++++++++++++++++++++++++++++++++++++++++


"Man you talkin back to me?"


Tuning: EADG


Intro
1.
G|-------------------------------------------------------------------------|
D|-------------------------------------------------------------------------|
A|-11144----11144----11144----11144----11144----11144----11144----11144----|
E|------144------144------144------144------144------144------144------144-|

2.
G|-------------------------------------------------------------------------|
D|-------------------------------------------------------------------------|
A|-111------111---44-111------111---44-111------111---44-111------1x-------|
E|----11144----114------11144----114------11144----114------11144----------|

Verse
"Like the latest fashion..."
3.
G|-------------------------------------------------------------------------|
D|-------------------------------------------------------------------------|
A|-111------11144----111------11144----111------11144----111------11144----|
E|----11144------144----11144------144----11144------144----11144------144-|

Pre-Chorus
"The gangs stake their own..."
4.
G|-------------------------------------------------------------------------|
D|-11114444-333------11114444-333------------------------33333333-33333333-|
A|-------------11144-------------11144-111------11144----------------------|
E|----------------------------------------11144------144-------------------|

Chorus
"Hey! Man you talkin back to me..."
5.
G|-------------------------------------------------------------------------|
D|-------------------------------------------------------------------------|
A|-11144----11144----11144----1x-------11144----11144----11144----1x-------|
E|------144------144------144---------------144------144------144----------|

"Hey they dont pay no mind..."
6.
G|-------------------------------------------------------------------------|
D|-------------------11111111----------------------------------------------|
A|-11144----11144-------------22222222-11144-------------11144----1x-------|
E|------144------144------------------------144-11111144------144----------|

Outro
7.
G|-------------------------------------------------------------------------|
D|-------------------------------------------------------------------------|
A|-111------111---44-111------111---44-111------111---44-111------1x-------|
E|----11144----114------11144----114------11144----114------11144----------|

Verse
"By the time you hear the siren..."
8.
G|-------------------------------------------------------------------------|
D|-------------------------------------------------------------------------|
A|-111------11144----111------11144----111------11144----111------11144----|
E|----11144------144----11144------144----11144------144----11144------144-|

Pre-Chorus
"It goes out the same..."
9.
G|-------------------------------------------------------------------------|
D|-11114444-333------11114444-333------------------------33333333-33333333-|
A|-------------11144-------------11144-111------11144----------------------|
E|----------------------------------------11144------144-------------------|

Chorus
"Hey! Man you disrespectin me..."
10.
G|-------------------------------------------------------------------------|
D|-------------------------------------------------------------------------|
A|-11144----11144----11144----1x-------11144----11144----11144----1x-------|
E|------144------144------144---------------144------144------144----------|

"Hey they dont pay no mind..."
11.
G|-------------------------------------------------------------------------|
D|-------------------11111111----------------------------------------------|
A|-11144----11144-------------22222222-11144-------------11144----1x-------|
E|------144------144------------------------144-11111144------144----------|

Outro
12.
G|-------------------------------------------------------------------------|
D|-------------------------------------------------------------------------|
A|-111------111---44-111------111---44-111------111---44-111------111---44-|
E|----11144----114------11144----114------11144----114------11144----114---|

Pre-Chorus
"It goes out the same..."
13.
G|-------------------------------------------------------------------------|
D|-11114444-333------11114444-333------------------------33333333-33333333-|
A|-------------11144-------------11144-111------11144----------------------|
E|----------------------------------------11144------144-------------------|

Chorus
"Hey! Man you talkin back to me..."
14.
G|-------------------------------------------------------------------------|
D|-------------------------------------------------------------------------|
A|-11144----11144----11144----1x-------11144----11144----11144----1x-------|
E|------144------144------144---------------144------144------144----------|

"Hey they dont pay no mind..."
15.
G|-------------------------------------------------------------------------|
D|-------------------11111111----------------------------------------------|
A|-11144----11144-------------22222222-11144-------------11144----1x-------|
E|------144------144------------------------144-11111144------144----------|


Lyrics:

You gotta keep 'em separated

Like the latest fashion
Like a spreading disease
The kids are strappin' on their way to the classroom
Getting weapons with the greatest of ease
The gangs stake their own campus locale
And if they catch you slippin' then it's all over pal
If one guy's colors and the other's don't mix
They're gonna bash it up

Hey - man you talkin' back to me?
Take him out
You gotta keep 'em separated
Hey - man you disrespecting me?
Take him out
You gotta keep 'em separated
Hey they don't pay no mind
If you're under 18 you won't be doing any time
Hey come out and play

By the time you hear the siren
It's already too late
One goes to the morgue and the other to jail
One guy's wasted and the other's a waste
It goes down the same as the thousand before
No one's getting smarter
No one's learning the score
Your never ending spree of death and violence and hate
Is gonna tie your own rope

______________________________________________________________________________________

2.

++++++++++++++++++++++++++++++++++++++++++++++++++++
| The Offspring- Pretty Fly (For A White Guy) LIVE |
++++++++++++++++++++++++++++++++++++++++++++++++++++


"Uno dos tres cuatro cinco cinco seis..."


Tuning: EADG


Intro
1.
G|--------------------------------------------------------------------------|
D|---------------1-----------------1-----------------1------------------1---|
A|-1--1-----1--1---4-1--1-----1--1---4-1--1-----1--1---4-1--1-----1x--1---4-|
E|------1-4---------------1-4---------------1-4---------------1-4-----------|

Verse
"You know its kinda hard just to get along today..."
2.
G|--------------------------------------------------------------------------|
D|---------------1-----------------1-----------------1------------------1---|
A|-1--1-----1--1---4-1--1-----1--1---4-1--1-----1--1---4-1--1-----1x--1---4-|
E|------1-4---------------1-4---------------1-4---------------1-4-----------|

Chorus
"So dont debate, a player straight..."
3.
G|--------------------------------------------------|
D|-------2h3-2h3-------2h3-2h3-------------1~-------|
A|-1~--1---------1~--1---------4~--4---4~------4~---|
E|-----------------------------------4------------4-|

"He's gonna play the field..."
4.
G|-------------------------------------------------------|
D|-------2h3-2h3-------2h3-2h3-------------------1h2p1---|
A|-1~--1---------1~--1---------4~--4---4-4h6~--4---------|
E|-----------------------------------4-----------------4-|

"So if you dont rate..."
5.
G|--------------------------------------------------|
D|-------2h3-2h3-------2h3-2h3-------------1~-------|
A|-1~--1---------1~--1---------4~--4---4~------4~---|
E|-----------------------------------4------------4-|

"The world needs wannabe's so..."
6.
G|------------------------------------------|
D|-4~--4---4~----------------3-2-1-----1----|
A|-------4----------------1x-------4-----1x-|
E|-------------4~--4-1-4~------------4------|

Outro
"Give it to me baby..."
7.
G|--------------------------------------------------------------------------|
D|---------------1-----------------1-----------------1------------------1---|
A|-1--1-----1--1---4-1--1-----1--1---4-1--1-----1--1---4-1--1-----1x--1---4-|
E|------1-4---------------1-4---------------1-4---------------1-4-----------|

Verse
"He needs some cool tunes..."
8.
G|--------------------------------------------------------------------------|
D|---------------1-----------------1-----------------1------------------1---|
A|-1--1-----1--1---4-1--1-----1--1---4-1--1-----1--1---4-1--1-----1x--1---4-|
E|------1-4---------------1-4---------------1-4---------------1-4-----------|

Chorus
"So dont debate, a player straight..."
9.
G|--------------------------------------------------|
D|-------2h3-2h3-------2h3-2h3-------------1~-------|
A|-1~--1---------1~--1---------4~--4---4~------4~---|
E|-----------------------------------4------------4-|

"He's gonna play the field..."
10.
G|-------------------------------------------------------|
D|-------2h3-2h3-------2h3-2h3-------------------1h2p1---|
A|-1~--1---------1~--1---------4~--4---4-4h6~--4---------|
E|-----------------------------------4-----------------4-|

"So if you dont rate..."
11.
G|--------------------------------------------------|
D|-------2h3-2h3-------2h3-2h3-------------1~-------|
A|-1~--1---------1~--1---------4~--4---4~------4~---|
E|-----------------------------------4------------4-|

"The world needs wannabe's so..."
12.
G|------------------------------------------|
D|-4~--4---4~----------------3-2-1-----1----|
A|-------4----------------1x-------4-----1x-|
E|-------------4~--4-1-4~------------4------|

Bridge
"Now he's getting a tattoo..."
13.
G|---------------------------------------3~------------|
D|---------------------------------------------1~------|
A|-1x----------1x----------1x----------1-----1-----4~--|
E|-----------4-----------4-----------4-----------------|

"Friends say he's trying too hard..."
14.
G|---------------------------------------3-1---1-------|
D|-------------------------------------------3---3-1---|
A|-1x----------1x----------1x----------1-------------4-|
E|-----------4-----------4-----------4-----------------|

Outro
15.
G|--------------------------------------------------------------------------|
D|---------------1-----------------1-----------------1------------------1---|
A|-1--1-----1--1---4-1--1-----1--1---4-1--1-----1--1---4-1x-----------1---4-|
E|------1-4---------------1-4---------------1-4-----------------------------|

Chorus
"So dont debate, a player straight..."
16.
G|--------------------------------------------------|
D|-------2h3-2h3-------2h3-2h3-------------1~-------|
A|-1~--1---------1~--1---------4~--4---4~------4~---|
E|-----------------------------------4------------4-|

"He's gonna play the field..."
17.
G|-------------------------------------------------------|
D|-------2h3-2h3-------2h3-2h3-------------------1h2p1---|
A|-1~--1---------1~--1---------4~--4---4-4h6~--4---------|
E|-----------------------------------4-----------------4-|

"So if you dont rate..."
18.
G|--------------------------------------------------|
D|-------2h3-2h3-------2h3-2h3-------------1~-------|
A|-1~--1---------1~--1---------4~--4---4~------4~---|
E|-----------------------------------4------------4-|

"The world needs wannabe's so..."
19.
G|------------------------------------------------------------------------|
D|-4~--4---4~--------------4~--4---4~--------------4~--4---4~-------------|
A|-------4-----------------------4-----------------------4----------------|
E|-------------4~--4-1-4~--------------4~--4-1-4~--------------4~--4-1-4~-|

"Hey, hey, do that brand new thing..."
20.
G|-------------------|
D|----3-2-1-----1----|
A|-1x-------4-----1x-|
E|------------4------|


Lyrics:

You know it's kind of hard
Just to get along today
Our subject isn't cool
But he fakes it anyway
He may not have a clue
And he may not have style
But everything he lacks
Well he makes up in denial

So don't debate, a player straight
You know he really doesn't get it anyway
He's gonna play the field, and keep it real
For you no way, for you no way
So if you don't rate, just overcompensate
At least you'll know you can always go on Ricki Lake
The world needs wannabe's
So do that brand new thing

He needs some cool tunes
Not just any will suffice
But they didn't have Ice Cube
So he bought Vanilla Ice
Now cruising in his Pinto, he sees homies as he pass
But if he looks twice
They're gonna kick his lily ass

Now he's getting a tattoo
He's gettin' ink done
He asked for a '13', but they drew a '31'
Friends say he's trying too hard
And he's not quite hip
But in his own mind
He's the dopest trip

The world needs wannabe's
The world loves wannabe's
So let's get some more wannabe's
And do that brand new thing

________________________________________________________

3.

+++++++++++++++++++++++++++++
| The Offspring- All I Want |
+++++++++++++++++++++++++++++

Tuning: EADG

"Ok
Ya ya ya ya ya..."

Intro
1.
G|------------------------------------11---|
D|-333-1333-1-----111-1333-1333-1-------11-|
A|-----------444-4---------------444-4-----|
E|-----------------------------------------| 

Verse
"Day after day..."
2.
G|-------------------------------------11----------------------------------------11---|
D|-33-1-3~---------1111-33-1-3~----------11-33-1-3~---------1111-33-1-3~-----------11-|
A|------------4444-----------------44-4----------------4444-----------------44-4------|
E|------------------------------------------------------------------------------------|

Pre-Chorus
"So back of your rules..."
3.
G|-----------------------------------------------------------------|
D|-33333-1-----------------11111-1-33333-1-----------------11111-1-|
A|---------44444-1-------4-----------------44444-1-------4---------|
E|-----------------44444---------------------------44444-----------|

Chorus
"Its all I want..."
4.
G|-----------------------------------------------------------------|
D|-33333-1-----------------11111-1-33333-1-----------------11111-1-|
A|---------44444-1-------4-----------------44444-1-------4---------|
E|-----------------44444---------------------------44444-----------|

Outro
5.
G|------------------------------------11---|
D|-333-1333-1-----111-1333-1333-1-------11-|
A|-----------444-4---------------444-4-----|
E|-----------------------------------------| 

Verse
"How many times..."
6.
G|-------------------------------------11----------------------------------------11---|
D|-33-1-3~---------1111-33-1-3~----------11-33-1-3~---------1111-33-1-3~-----------11-|
A|------------4444-----------------44-4----------------4444-----------------44-4------|
E|------------------------------------------------------------------------------------|

Pre-Chorus
"So back of your rules..."
7.
G|-----------------------------------------------------------------|
D|-33333-1-----------------11111-1-33333-1-----------------11111-1-|
A|---------44444-1-------4-----------------44444-1-------4---------|
E|-----------------44444---------------------------44444-----------|

Chorus
"Its all I want..."
8.
G|-----------------------------------------------------------------|
D|-33333-1-----------------11111-1-33333-1-----------------11111-1-|
A|---------44444-1-------4-----------------44444-1-------4---------|
E|-----------------44444---------------------------44444-----------|

Bridge
"I said it before..."
9.
G|-----------------------------------------------------------------------|
D|------1x----33-3-1x---------11-----------------------------------------|
A|-44-4------------------44-4----44444444-444444444-44444444-33-11-------|
E|-----------------------------------------------------------------44-33-|

Pre-Chorus
"So back of your rules..."
10.
G|-----------------------------------------------------------------|
D|-33333-1-----------------11111-1-33333-1-----------------11111-1-|
A|---------44444-1-------4-----------------44444-1-------4---------|
E|-----------------44444---------------------------44444-----------|

Chorus
"Its all I want..."
11.
G|---------------------------------------------------------------------|
D|-33333-1-------1-33333-1-------1-33333-1-----------------11-1-1-1-3x-|
A|---------44444-----------44444-----------44444-1-------4-------------|
E|-------------------------------------------------44444---------------|

Lyrics:

Day after day your home life's a wreck The powers that be just
Breathe down your neck
You get no respect You get no relief
You gotta speak up
And yell out your peace

So back off your rules
Back off your jive
Cause I'm sick of not living To stay alive
Leave me alone, I'm not asking a lot
I just don't want to be controlled

That's all I want
All I want

How many times is it gonna take
Till someone around you hears what you say
You've tried being cool, You feel like a lie
You've played by their rules Now it's their turn to try

I said it before
I'll say it again
If you could just listen
Then it might make sense

_______________________________________________________________________________

4.

++++++++++++++++++++++++++++
| The Offspring- Gone Away |
++++++++++++++++++++++++++++


Tuning: EADG



Intro
1.
G|-------------------------------------------------------------------------|
D|-22222222----------00000002----------22222222----------00000002----------|
A|----------------------------00000000----------------------------00000000-|
E|----------33333333----------------------------33333333-------------------|

2.
G|-------------------------------------|
D|-------------------00000002----------|
A|-----------------2----------000000---|
E|-00000002-3333333-----------------32-|

Verse
"Maybe in another life..."
3.
G|-------------------------------------------------------------------------|
D|-------------------00000002----------------------------00000002----------|
A|-----------------2----------000000-------------------2----------00000000-|
E|-00000002-3333333-----------------32-00000002-3333333--------------------|

Chorus
"And it feels..."
4.
G|-------------------------------------------------------------------------|
D|-22222222----------00000002----------22222222----------00000002----------|
A|----------------------------00000000----------------------------00000000-|
E|----------33333333----------------------------33333333-------------------|

Outro
5.
G|-------------------------------------------------------------------------|
D|-22222222----------00000002----------22222222----------00000002----------|
A|----------------------------00000000----------------------------00000000-|
E|----------33333333----------------------------33333333-------------------|

Verse
"Leaving flowers on your grave..."
6.
G|-------------------------------------------------------------------------|
D|-------------------00000002----------------------------00000002----------|
A|-----------------2----------000000-------------------2----------00000000-|
E|-00000002-3333333-----------------32-00000002-3333333--------------------|

Pre-Chorus
"I reach to the sky..."
7.
G|-------------------------------------------------------------------------|
D|-------------------00000002----------------------------00000002----------|
A|-----------------2----------000000-------------------2----------00000000-|
E|-00000002-3333333-----------------32-00000002-3333333--------------------|

Chorus
"And it feels..."
8.
G|-------------------------------------------------------------------------|
D|-22222222----------00000002----------22222222----------00000002----------|
A|----------------------------00000000----------------------------00000000-|
E|----------33333333----------------------------33333333-------------------|

Outro
"Gone away..."
9.
G|-------------------------------------------------------------------------|
D|-22222222----------00000002----------22222222----------00000002----------|
A|----------------------------00000000----------------------------00000000-|
E|----------33333333----------------------------33333333-------------------|

Bridge
10.
G|--------------------------------------------------------------------------|
D|-----------------0~----2-------------------------0~-0-2-------------------|
A|---------------2---------0~--------------------2--------00000000-00000000-|
E|-0~----2-3~--------------------3-0~----2-3~-------------------------------|

"Woah..."
11.
G|-------------------------------------------------------------------------|
D|-22222222----------00000002----------22222222----------00000002----------|
A|----------------------------00000000----------------------------00000000-|
E|----------33333333----------------------------33333333-------------------|

Pre-Chorus"
"I reach to the sky..."
12.
G|-------------------------------------------------------------------------|
D|-------------------00000002----------------------------00000002----------|
A|-----------------2----------000000-------------------2----------00000000-|
E|-00000002-3333333-----------------32-00000002-3333333--------------------|

Chorus
"And it feels..."
13.
G|-------------------------------------------------------------------------|
D|-22222222----------00000002----------22222222----------00000002----------|
A|----------------------------00000000----------------------------00000000-|
E|----------33333333----------------------------33333333-------------------|

Outro
"Gone away..."
14.
G|-------------------------------------------------------------------------|
D|-22222222----------00000002----------22222222----------00000002----------|
A|----------------------------00000000----------------------------00000000-|
E|----------33333333----------------------------33333333-------------------|

"Yeah hoooh..."
15.
G|--------------------------------------------------------|
D|-22222222----------00000002-----------------------------|
A|----------------------------00000000-00000000-----------|
E|----------33333333----------------------------0~--------|

Lyrics:

Maybe in another life
I could find you there
Pulled away before your time
I can't deal it's so unfair

And it feels
And it feels like
Heaven's so far away
And it feels
Yeah it feels like
The world has grown cold
Now that you've gone away

Leaving flowers on your grave
Show that I still care
But black roses and Hail Mary's
Can't bring back what's taken from me
I reach to the sky
And call out your name
And if I could trade
I would

And it feels
And it feels like
Heaven's so far away
And it stings
Yeah it stings now
The world is so cold
Now that you've gone away

_____________________________________________________________________________________

5.

+++++++++++++++++++++++++++++++++++++
| The Offspring- Staring At The Sun |
+++++++++++++++++++++++++++++++++++++


Tuning: EADG


Verse
"If I seem bleak..."
1.
G|-----------------------------------------------------------------------------------|
D|-----2222-2----------------2222-2----------------2222-2----------------2-2-4-4-6-6-|
A|-444--------------2223-444--------------2223-444--------------2223-4-4-------------|
E|------------222-2-----------------222-2-----------------222-2----------------------|

Chorus
"As you're staring at the sun..."
2.
G|-----------------------------------------------------------------------------------|
D|-----2222-2----------------2222-2----------------2222-2----------------2-2-4-4-6-6-|
A|-444--------------2223-444--------------2223-444--------------2223-4-4-------------|
E|------------222-2-----------------222-2-----------------222-2----------------------|

Outro
3.
G|-----------------|
D|-----------------|
A|-444-442-444-442-|
E|-----------------|

Verse
"When I ran I didnt feel like a runaway..."
4.
G|-----------------------------------------------------------------------------|
D|----------------------------------------------------------2-22-222-----------|
A|-4-44----------2222-4-44----------2222-4-44----------2222----------0000-2222-|
E|------000-2222-----------000-2222-----------000-2222-------------------------|

"Though you hear me..."
5.
G|-----------------------------------------------------------------------------|
D|---------------------------------------------------------------2-2-24-4-46-6-|
A|-4-44----------2222-4-44----------2222-4-44----------2222-4-4-4--------------|
E|------000-2222-----------000-2222-----------000-2222-------------------------|

Chorus
"As you're staring at the sun..." (Fast picking...)
6.
G|-------------------------------------------------------------------------|
D|----------22222222-44444444-------------------22222222-44444444----------|
A|-44444444-------------------22222222-44444444-------------------22222222-|
E|-------------------------------------------------------------------------|

Verse
"When I ran I didnt feel like a runaway..."
7.
G|-----------------------------------------------------------------------------|
D|----------------------------------------------------------2-22-222-----------|
A|-4-44----------2222-4-44----------2222-4-44----------2222----------0000-2222-|
E|------000-2222-----------000-2222-----------000-2222-------------------------|

"Though you hear me..."
8.
G|-----------------------------------------------------------------------------|
D|---------------------------------------------------------------2-2-24-4-46-6-|
A|-4-44----------2222-4-44----------2222-4-44----------2222-4-4-4--------------|
E|------000-2222-----------000-2222-----------000-2222-------------------------|

Chorus
"As you're staring at the sun..." 
9.
G|-------------------------------------------------------------------------|
D|----------22222222-44444444-------------------22222222-44444444----------|
A|-44444444-------------------22222222-44444444-------------------22222222-|
E|-------------------------------------------------------------------------|

Bridge
"Maybe life is like a ride on a freeway..."
10.
G|------------------------------------------------------------|
D|-----------------------------------------22222222-----------|
A|-4x--------2-4x--------223-4x--------224----------0000-2222-|
E|------------------------------------------------------------|

Verse
"If I seem bleak..."
11.
G|--------------------------------------------------------------------------------|
D|------------------------------------------------------------------2-2-24-4-46-6-|
A|-4444-----------2222-4444-----------2222-4444-----------2222-4-4-4--------------|
E|------0000-2222-----------0000-2222-----------0000-2222-------------------------|

Chorus
"As you're staring at the sun..."
12.
G|--------------------------------------------------------------------------------|
D|------------------------------------------------------------------2-2-24-4-46-6-|
A|-4444-----------2222-4444-----------2222-4444-----------2222-4-4-4--------------|
E|------0000-2222-----------0000-2222-----------0000-2222-------------------------|

Outro
13.
G|-----------|
D|-----------|
A|-4x--------|
E|-----------|


Lyrics:

Maybe life is like a ride on a freeway
Dodging bullets while you're trying to find your way
Everyone's around, but no one does a damn thing
It brings me down, but I won't let them

If I seem bleak
Well you'd be correct
And if I don't speak
It's cause I can't disconnect
But I won't be burned by the reflection
Of the fire in your eyes
As you're staring at the sun

When I ran I didn't feel like a runaway
When I escaped I didn't feel like I got away
There's more to living than only surviving
Maybe I'm not there, but I'm still trying

Though you hear me
I don't think that you relate
My will is something
That you can't confiscate
So forgive me, but I won't be frustrated
By destruction in your eyes
As you're staring at the sun

___________________________________________________________________________________________

6.

+++++++++++++++++++++++++++
| The Offspring- Hit That |
+++++++++++++++++++++++++++


"Thats the way things go..."


Tuning: EADG


Intro
1.
G|----------------------|
D|----------------------|
A|----------------------|
E|-3~----5~----0x-0x-0x-|

2.
G|-------------------------------------------|
D|-------------------------------------------|
A|--7-7-7-7-7-7-2-1-0----7-7-7-7-7-7-2-1-0---|--x2
E|-0-0-0-0-0-0--------3-0-0-0-0-0-0--------3-|

Verse
"The winds of fortune..."
3.
G|-------------------------------------------|
D|-------------------------------------------|
A|--7-7-7-7-7-7-2-1-0----7-7-7-7-7-7-2-1-0---|
E|-0-0-0-0-0-0--------3-0-0-0-0-0-0--------3-|

"She had a kid now..."
4.
G|-------------------------------------------|
D|----------------------2-2-2-2--------------|
A|--7-7-7-7-7-7-2-1-0------------7-7-2-1-0---|
E|-0-0-0-0-0-0--------3-3-3-3-3-5-5--------3-|

Chorus
"Im on a roll..."
5.
G|--------------------------------------------------------------------|
D|-------------------5-5-5-5-7-7-7-7------------------5-5-5-5-7-7-7-7-|
A|--7-7-7-7-7-7-7-7------------------7-7-7-7-7-7-7-7------------------|
E|-0-0-0-0-0-0-0-0--3-3-3-3-5-5-5-5-0-0-0-0-0-0-0-0--3-3-3-3-5-5-5-5--|

"All the world is getting with..."
6.
G|------------------------------------------------------------------------|
D|------------------------------------------------------------------------|
A|--7-7-7-7-7-7-7-7-3-3-3-3-0-0-0-0--7-7-7-7-2-2-2-2----------------------|
E|-0-0-0-0-0-0-0-0------------------0-0-0-0----------3~----5~----0x-0x-0x-|

Outro
7.
G|-------------------------------------------|
D|-------------------------------------------|
A|--7-7-7-7-7-7-2-1-0----7-7-7-7-7-7-2-1-0---|--x2
E|-0-0-0-0-0-0--------3-0-0-0-0-0-0--------3-|

Verse
"What was a family..."
8.
G|-------------------------------------------|
D|-------------------------------------------|
A|-----------------------------------2-1-0---|
E|-0---------------------------------------3-|

"Sex is a weapon..."
9.
G|-------------------------------------------|
D|----------------------2-2-2-2--------------|
A|--7-7-7-7-7-7-2-1-0------------7-7-2-1-0---|
E|-0-0-0-0-0-0--------3-3-3-3-3-5-5--------3-|

Chorus
"Im on a run..."
10.
G|--------------------------------------------------------------------|
D|-------------------5-5-5-5-7-7-7-7------------------5-5-5-5-7-7-7-7-|
A|--7-7-7-7-7-7-7-7------------------7-7-7-7-7-7-7-7------------------|
E|-0-0-0-0-0-0-0-0--3-3-3-3-5-5-5-5-0-0-0-0-0-0-0-0--3-3-3-3-5-5-5-5--|

"Everybody is getting with..."
11.
G|------------------------------------------------------------------------|
D|------------------------------------------------------------------------|
A|--7-7-7-7-7-7-7-7-3-3-3-3-0-0-0-0--7-7-7-7-2-2-2-2----------------------|
E|-0-0-0-0-0-0-0-0------------------0-0-0-0----------3~----5~----0x-0x-0x-|

Bridge
"Well it winds up..."
12.
G|---------------------------------------------|
D|---------------------------------------------|
A|-7~x---------------------------------2-1-0---|
E|------------------------0x-----------------3-|

"And it dont stop..."
13.
G|-------------------------------------------|
D|----------------------2-2-2-2--------------|
A|--7-7-7-7-7-7-2-1-0------------7-7-2-1-0---|
E|-0-0-0-0-0-0--------3-3-3-3-3-5-5--------3-|

Chorus
"Im on a roll..."
14.
G|--------------------------------------------------------------------|
D|-------------------5-5-5-5-7-7-7-7------------------5-5-5-5-7-7-7-7-|
A|--7-7-7-7-7-7-7-7------------------7-7-7-7-7-7-7-7------------------|
E|-0-0-0-0-0-0-0-0--3-3-3-3-5-5-5-5-0-0-0-0-0-0-0-0--3-3-3-3-5-5-5-5--|

"Everybody is getting with..."
15.
G|------------------------------------------------------------------------|
D|------------------------------------------------------------------------|
A|--7-7-7-7-7-7-7-7-3-3-3-3-0-0-0-0--7-7-7-7-2-2-2-2----------------------|
E|-0-0-0-0-0-0-0-0------------------0-0-0-0----------3~----5~----0x-0x-0x-|


Lyrics:

The winds of fortune
Don't blow the same
She had to get out
And make a change
She had a kid now
But much too young
That baby daddy's out having fun

He's saying
I'm on a roll
With all the girls I know
His baby momma
She ain't so slow
He's saying
I'm on a roll
With all the girls I know
I know you wanna hit that
I know you wanna hit that
All the world is gettin' with, I say
Consequences are a lot, but hey
That's the way it
That's the way things go

What was family
Is now a shell
We're raising kids now
Who raise themselves
Sex is a weapon
And it's like a drug
It gets him right into that grave that he just dug

She's saying
I'm on the run
I'm chasing guys for fun
Her baby daddy
It ain't his only one
She's saying
I'm on the run
I'm chasing guys for fun
I know you wanna hit that
I know you wanna hit that
Everybody's gettin' with, I say
Consequences are a lot, but hey
That's the way it
That's the way things go

Well it winds up
Broken up
Really such a shame
But why not
Take a chance
Everything's a game
And it don't stop
Hooking up
Nothing's gonna change
The more he's trying
The more he's buying

__________________________________________________________

7.

+++++++++++++++++++++++++++++++++
| The Offspring- Gotta Get Away |
+++++++++++++++++++++++++++++++++


"Sitting on the bed or lying wide awake..."


Tuning: Half-Step Down (EbADG)

Intro
1.
G||---------------------------------------------------------------------------|
D||-------------------4-----------------4-----------------4-----------------4-|
A||-1/444444-4-6666666--444444-4-6666666--444444-4-6666666--444444-4-6666666--|--x2
Eb|---------7-----------------7-----------------7-----------------7-----------|

2.
G||-----------------------------------------------------------------------|
D||---------------------44--6------------------------------44--6----------|
A||---44--44---66--66---------6~-67676---44--44---66--66---------6~-67676-|
Eb|-00--00---00--00---00--00-----------00--00---00--00---00--00-----------|

Verse
"Getting edgy all the time..."
3.
G||-----------------------------------------------------------------------|
D||---------------------44--6------------------------------44--6----------|
A||---44--44---66--66---------6~-67676---44--44---66--66---------6~-67676-|--x2
Eb|-00--00---00--00---00--00-----------00--00---00--00---00--00-----------|

Chorus
"Sitting on the bed or lying wide awake..."
4.
G||-------------------------------------------------------------------------|
D||-111---------------111---------------111---------------111---------------|
A||----12222----34444----12222----34444----12222----34444----12222----34444-|
Eb|----------333---------------333---------------444---------------333------|

Outro
5.
G||-----------------------------------------------------------------------|
D||---------------------44--6------------------------------44--6----------|
A||---44--44---66--66---------6~-67676---44--44---66--66---------6~-67676-|
Eb|-00--00---00--00---00--00-----------00--00---00--00---00--00-----------|

Verse
"Tell you something just aint right..."
6.
G||-----------------------------------------------------------------------|
D||---------------------44--6------------------------------44--6----------|
A||---44--44---66--66---------6~-67676---44--44---66--66---------6~-67676-|--x2
Eb|-00--00---00--00---00--00-----------00--00---00--00---00--00-----------|

Chorus
"Sitting on the bed or lying wide awake..."
7.
G||-------------------------------------------------------------------------|
D||-111---------------111---------------111---------------111---------------|
A||----12222----34444----12222----34444----12222----34444----12222----34444-|
Eb|----------333---------------333---------------444---------------333------|

"Gotta get away from me..."
8.
G||-------------------------------------|
D||-111---------------111---------------|
A||----12222----34444----12222----34444-|
Eb|----------333---------------333------|

9.
G||-----------------------------------------------------------------------|
D||---------------------44--6------------------------------44--6----------|
A||---44--44---66--66---------6~-67676---44--44---66--66---------6~-67676-|--x2
Eb|-00--00---00--00---00--00-----------00--00---00--00---00--00-----------|

Chorus
"Sitting on the bed or lying wide awake..."
10.
G||-------------------------------------------------------------------------|
D||-111---------------111---------------111---------------111---------------|
A||----12222----34444----12222----34444----12222----34444----12222----34444-|--x2
Eb|----------333---------------333---------------444---------------333------|

Outro
11.
G||-------------------|
D||-------------------|
A||-------------------|
Eb|-0~----------------|


Lyrics:

I'm getting edgy all the time
There's someone around me just a step behind
It's kinda scary, the shape I'm in
The walls are shakin' and they're closing in
Too fast or a bit too slow
I'm paranoid of people and it's starting to show
There's one guy that I can't shake
Over my shoulder is a big mistake

Sitting on the bed
Or lying wide awake
There's demons in my head
And it's more than I can take
I think I'm on a roll
But I think it's kinda weak
Saying all I know is
I gotta get away from me

I tell you something just ain't right
My head is on loose but my shoes are tight
Avoiding my friends cause they all bug
Life is a riddle and I'm really stumped
If you reason, don't you know
Your own preoccupation is where you'll go
I think I'm being followed, I look around
It's only my shadow creepin' on the ground

_______________________________________________________________________________________

8.

++++++++++++++++++++++++++++++++++++++++++
| The Offspring- Dammit, I Changed Again |
++++++++++++++++++++++++++++++++++++++++++


Tuning: EADG

Intro
1.
G|-------------------------------------------------------------------------|
D|-------------------------------------------------------------------------|
A|----------33333333----------55555555----------33333333----------55555555-|
E|-00000000----------33333333----------00000000----------33333333----------|

2.
G|-------------------------------------------------------------------------|
D|-22222222----------------------------22222222----------------------------|
A|----------33333333----------55555555----------33333333----------55555555-|
E|-------------------33333333----------------------------33333333----------|

Verse
"Hey, come inside..."
3.
G|-------------------------------------------------------------------------|
D|-------------------------------------------------------------------------|
A|----------33333333----------55555555----------33333333----------5x-------|
E|-00000000----------33333333----------00000000----------33333333----------|

Chorus
"Turn around, things have changed..."
4.
G|-------------------------------------------------------------------------|
D|-22222222----------------------------22222222----------------------------|
A|----------33333333----------55555555----------33333333----------55555555-|
E|-------------------33333333----------------------------33333333----------|

Outro
5.
G|-------------------------------------------------------------------------|
D|-22222222----------------------------22222222----------------------------|
A|----------33333333----------55555555----------33333333----------55555555-|
E|-------------------33333333----------------------------33333333----------|

Verse
"Now I dont see..."
6.
G|-------------------------------------------------------------------------|
D|-------------------------------------------------------------------------|
A|----------33333333----------55555555----------33333333----------55555555-|
E|-00000000----------33333333----------00000000----------33333333----------|

"It doesnt make any sense..."
7.
G|-------------------------------------------------------------------------|
D|-------------------------------------------------------------------------|
A|----------33333333----------55555555----------33333333----------5x-------|
E|-00000000----------33333333----------00000000----------33333333----------|

Chorus
"Turn around, things have changed..."
8.
G|-------------------------------------------------------------------------|
D|-22222222----------------------------22222222----------------------------|
A|----------33333333----------55555555----------33333333----------55555555-|--x2
E|-------------------33333333----------------------------33333333----------|

Outro
9.
G|--------------------------------------------------------------------------|
D|--------------------------------------------------------------------------|
A|-----------------------------------------------33333333----------55555555-|
E|-0~----------------0~-0/8~-8\3~-3/10~-00000000----------33333333----------|

Chorus
"Turn around, things have changed..."
10.
G|-------------------------------------------------------------------------|
D|-22222222----------------------------22222222----------------------------|
A|----------33333333----------55555555----------33333333----------55555555-|--x2
E|-------------------33333333----------------------------33333333----------|

Outro
11.
G|------------------------------------------------------------------------------------------|
D|-22222222----------------------------22222222---------------------------------------------|
A|----------33333333----------55555555----------33333333----------5-5-5-5-5-5-5-5-5~--------|
E|-------------------33333333----------------------------33333333--------------------10/0~--|


Lyrics:

Hey, come inside
While I stand here acting bold
Can't stand to feel this way
Clear out the cobwebs in my soul

This time I turn around
And things have changed
Now I don't feel the same

Start a fight
I can't defend
One more time
Dammit, I changed again

Now I don't see
Things the way I did before
Can't stand to feel this way
Things I felt yesterday
Don't matter anymore
It doesn't make any sense
To feel so different day to day
Can't stand to feel this way
When nothing's changed except for me

_____________________________________________________________________________________________

9.

+++++++++++++++++++++++++
| The Offspring- D.U.I. |
+++++++++++++++++++++++++


"Feel so alive doing 95..."


Tuning: Standard EADG


Intro
1.
G|----------------------------------------------|
D|----------------------------------------------|
A|-2----55----77----0001-2----55----77----0001--|
E|----------------------------------------------|

Verse
"Three in the morning..."
2.
G|-----------------------------------------|
D|-----------------------------------------|
A|-2222-5555-7777-0001-2222-5555-7777-0001-|--x2
E|-----------------------------------------|

Pre-Chorus
"Cops they took my licence away..."
3.
G|-------------------------------------------------------------------------|
D|-------------------------------------------------------------------------|
A|-2-22----555-------2-22----555-------2-22----555-------2-22----5x--------|
E|-----3-33----5-555-----3-33----5-555-----3-33----5-555-----3-33----------|

Chorus
"Feel so alive..."
4.
G|---------------------------------------------------------------------------------|
D|---------------------------------------------------------------------------------|
A|-2-22-555-7-777-0001-2-22-555-7-777-0001-2-22-555-7-777-0001-2-22-555-7-777-0001-|
E|---------------------------------------------------------------------------------|

Outro
5.
G|---------------------------------------------------------------|
D|---------------------------------------------------------------|
A|-2----55----------0001-2----55----------0001--2~---------------|
E|------------00--------------------00---------------------------|

Verse
"Early in the morning..."
6.
G|-----------------------------------------|
D|-----------------------------------------|
A|-2222-5555-7777-0001-2222-5555-7777-0001-|--x4
E|-----------------------------------------|

Pre-Chorus
"Designate someone other than me..."
7.
G|-------------------------------------------------------------------------|
D|-------------------------------------------------------------------------|
A|-2-22----555-------2-22----555-------2-22----555-------2-22----5x--------|
E|-----3-33----5-555-----3-33----5-555-----3-33----5-555-----3-33----------|

Chorus
"Feel so alive..."
8.
G|---------------------------------------------------------------------------------|
D|---------------------------------------------------------------------------------|
A|-2-22-555-7-777-0001-2-22-555-7-777-0001-2-22-555-7-777-0001-2-22-555-7-777-0001-|
E|---------------------------------------------------------------------------------|

"My friends all cringe..."
9.
G|--------------------------------------------------------------------------|
D|-------------------------------------------------------44444444-4x--------|
A|-2-22222-5-5555555-------------------2-22222-5-5555555--------------------|
E|-------------------3-33333-5-5555555--------------------------------------|

Bridge
10.
G|---------------------------------------------|
D|---------------------------------------------|
A|-2----55----------0001-2----55----------0001-|--x2
E|------------00--------------------00---------|

Pre-Chorus
"Cops they took my licence away..."
11.
G|-------------------------------------------------------------------------|
D|-------------------------------------------------------------------------|
A|-2-22----555-------2-22----555-------2-22----555-------2-22----5x--------|
E|-----3-33----5-555-----3-33----5-555-----3-33----5-555-----3-33----------|

Chorus
"Feel so alive..."
12.
G|---------------------------------------------------------------------------------|
D|---------------------------------------------------------------------------------|
A|-2-22-555-7-777-0001-2-22-555-7-777-0001-2-22-555-7-777-0001-2-22-555-7-777-0001-|
E|---------------------------------------------------------------------------------|

"My friends all cringe..."
13.
G|--------------------------------------------------------------------------|
D|-------------------------------------------------------44444444-4x--------|
A|-2-22222-5-5555555-------------------2-22222-5-5555555--------------------|
E|-------------------3-33333-5-5555555--------------------------------------|

Outro
14.
G|----------------------------------|
D|----------------------------------|
A|-2~-------------------------------|
E|----------------------------------|


Lyrics:

Three in the morning and I gotta be someplace, 
I don't remember where 
friends try to make me stay, or call me a cab home, 
I grab my keys and a beer 

Cops they took my licence away, 
got my car out of impound today 
I've been drunk since last saturday, 
better stay out of my way 

I drink and drive 
Feel so alive 
Never take that dive 
Feel so alive 
Doing 95 
I drink and drive 
Feel so alive 
I drink and drive 

Early in the morning and the freeway's deserted, like its all mine 
I'm trying to set a new drunken speed record, 
but I can't drive a straight line 
Flashing lights, split the night 
I'm tossing bottles as I swerve to the right 
now I've slammed my face into the back of a big rig 
At least you'll never get me, you fucking pigs! 
Designate someone other than me, 
Im so drunk I can hardly see 
Another shot of jager and I turn the key, 
I got so many places to be 

When Im on a binge, my friends all cringe 
They won't drive at night 
Cause way down on the freeway it's such a fright 
But I think I drive alright

_______________________________________________________________________

10.

+++++++++++++++++++++++++++
| The Offspring- Beheaded |
+++++++++++++++++++++++++++


"Night brings bad dreams..."


Tuning: Standard EADG


Intro
1.
G|-----------------|
D|-----------------|
A|-5~----12/17~----|
E|-----------------|

Verse
"Mommy doesnt have her head anymore..."
2.
G|-----------------------------------------------------------------|
D|-----------------------------------------------------------------|
A|-55-33-6-65-555-55-33-6-65-555-----------------------------------|--x2
E|-------------------------------3-33333-6-666666-5-55555555555555-|

Chorus
"Beheaded..."
3.
G|---------------------------------------------------------------|
D|-55553-33-3333------------------55553-33-3333------------------|
A|---------------5-555-6-5-5555-5---------------5~---------------|
E|---------------------------------------------------------------|

Outro
4.
G|------------------------------------------|
D|------------------------------------------|
A|-5-555-555-555-5/17-171717-171717-171717\-|
E|------------------------------------------|

Verse
"Watch my girlfriend come to the door..."
5.
G|-----------------------------------------------------------------|
D|-----------------------------------------------------------------|
A|-55-33-6-65-555-55-33-6-65-555-----------------------------------|--x2
E|-------------------------------3-33333-6-666666-5-55555555555555-|

Chorus
"Beheaded..."
6.
G|-------------------------------------------------------77777777-|
D|-55553-33-3333------------------55553-33-3333-------------------|
A|---------------5-555-6-5-5555-5---------------55555555----------|
E|----------------------------------------------------------------|

Outro
7.
G|----------------------------------------------------------------------|
D|-55553-33-3333------------------55553-33-3333-------------------------|
A|---------------5-555-6-5-5555-5---------------5~--------5-5-5x--------|
E|----------------------------------------------------------------------|

Bridge
"All my collection..."
8.
G|---------------------------------------------------------------------------------|
D|---------------------------------------------------------------------------------|
A|-5555-8887--776--66--5555-8887--776--66--5555-8887--776--66--5555-8887--776--66--|--x2
E|---------------------------------------------------------------------------------|

"Off with her head..."
9.
G|-------------------------------------------------------------|
D|-------------------------------------------------------------|
A|-5~--------5~--------5~--------5~--------5~--------5~--------|
E|-------------------------------------------------------------|

10.
G|------------------------------------------|
D|------------------------------------------|
A|-5-555-555-555-5/17-171717-171717-171717\-|
E|------------------------------------------|

Verse
"Find another victim for my machine..."
11.
G|-----------------------------------------------------------------|
D|-----------------------------------------------------------------|
A|-55-33-6-65-555-55-33-6-65-555-----------------------------------|--x2
E|-------------------------------3-33333-6-666666-5-55555555555555-|

Chorus
"Beheaded..."
12.
G|-------------------------------------------------------77777777-|
D|-55553-33-3333------------------55553-33-3333-------------------|
A|---------------5-555-6-5-5555-5---------------55555555----------|
E|----------------------------------------------------------------|

Outro
13.
G|---------------------------------------------------------------|
D|-55553-33-3333------------------55553-33-3333------------------|
A|---------------5-555-6-5-5555-5---------------5-555-6-5-555-5x-|
E|---------------------------------------------------------------|


Lyrics:

Mommy doesn't have her head any more
Keep it underneath my bed on the floor
Well that's all right though
That's OK
She never really used her head anyway

Daddy called me a silly bore
Bet he won't say that any more
Because the way his body's severed in two
His vocal chords are gonna be hard to use

Beheaded
Watch you spurt like a garden hose
Beheaded
Bloody mess all over my clothes

Watch my girlfriend come to the door
Chop off her head, she falls to the floor
Watching my baby's jugular flow
Really makes my motor go

Wrap a towel around the bloody stump
Take my baby's body to the city dump
Then wipe the mess off the bloody axe
Scoop all the heads in my burlap sack

All my collection
Adorns my room on bamboo poles
Use to be a little
But a little got more and more
Now I'm craving yours
Night brings bad dreams
Bad dreams with guillotines

Off with her head

Find another victim for my machine
Put him in a homemade guillotine
Blade falls, gonna need a casket
Watch the head plop in a wicker basket

Leave the house at a quarter to four
Come back with sixteen or more
Cause the more I want, the more I see
I got a funny feeling coming over me

_________________________________________________

11.

+++++++++++++++++++++++++++
| The Offspring- Sin City |
+++++++++++++++++++++++++++


"Ladders and snakes..."


A great AC/DC song covered by a great band


Tuning: EADG


Intro
1.
G|-----------------------|
D|-----------------------|
A|---0-2-5-0-2-----------|
E|-3-----------0~--------|

2.
G|-----------------------------------------------------------------------------|
D|-----------------------------------------------------------------------------|
A|-----2~--5~--0~--------2~--5~--0~--------2~--5~--0~--------2~--5~--0~--------|
E|-0~----------------0~----------------0~----------------0~--------------0-3~--|

3.
G|------------------------------------------------------------------------------------|
D|------------------------------------------------------------------------------------|
A|---7--2--5--0---------7--2--5--0---------7--2--5--0---------7--2--55555555-55555555-|
E|-00-00-00-00-00-3~--00-00-00-00-00-3~--00-00-00-00-00-3~--00-00-00------------------|

4.
G|-------------------|
D|-------------------|
A|-55555555-55555555-|
E|-------------------|

Verse
"Diamonds and dust..."
5.
G|-----------------------------------------------------------------------------|
D|-----------------------------------------------------------------------------|
A|-----------------------------------------------------------------------------|--x2
E|-00000000000000-3~--00000000000000-3~--00000000000000-3~--00000000000000-3~--|

Pre-Chorus
"I got a burning feeling..."
6.
G|-------------------------------------------------------------------------|
D|-------------------------------------------------------------------------|
A|-00000000-00000000-00000000-00000000-22222222-22222222-22222222-22222222-|
E|-------------------------------------------------------------------------|

Chorus
"Im going in to sin city..."
7.
G|-----------------------------------------------------------------------------|
D|-----------------------------------------------------------------------------|
A|---7--2--5--0---------7--2--5--0---------7--2--5--0---------7--2--5--0-------|
E|-00-00-00-00-00-3~--00-00-00-00-00-3~--00-00-00-00-00-3~--00-00-00-00-00-3~--|

8.
G|------------------------------------------------------------------------------------|
D|------------------------------------------------------------------------------------|
A|---7--2--5--0---------7--2--5--0---------7--2--5--0---------7--2--55555555-55555555-|
E|-00-00-00-00-00-3~--00-00-00-00-00-3~--00-00-00-00-00-3~--00-00-00------------------|

9.
G|-------------------|
D|-------------------|
A|-55555555-55555555-|
E|-------------------|

Outro
10.
G|-----------------------------------------------------------------------------|
D|-----------------------------------------------------------------------------|
A|-----------------------------------------------------------------------------|
E|-00000000000000-3~--00000000000000-3~--00000000000000-3~--00000000000000-3~--|

11.
G|----------------------------------------------------------------------------------|
D|----------------------------------------------------------------------------------|
A|----------------------------------------------------------------55555555-55555555-|
E|-00000000000000-3~--00000000000000-3~--00000000000000-3~--000000------------------|

12.
G|-------------------|
D|-------------------|
A|-55555555-55555555-|
E|-------------------|

Bridge
13.
G|-------------------------------------------------|
D|-------------------------------------------------|
A|----7x--2x--5--0~-----------7x--2x--5--0~--------|--x6
E|-0~----------------0-33~-0~----------------0-33~-|

"Fingers freddy..."
14.
G|-----------------------------------------------------------------------------|
D|-----------------------------------------------------------------------------|
A|-----2~--5~--0~--------2~--5~--0~--------2~--5~--0~--------2~--5~--0~--------|
E|-0~----------------0~----------------0~----------------0~--------------0-3~--|

Pre-Chorus
"So spin that wheel, cut that pack..."
15.
G|-------------------------------------------------------------------------|
D|-------------------------------------------------------------------------|
A|-00000000-00000000-00000000-00000000-22222222-22222222-22222222-22222222-|
E|-------------------------------------------------------------------------|

Chorus
"Im going in to sin city..."
16.
G|-----------------------------------------------------------------------------|
D|-----------------------------------------------------------------------------|
A|---7--2--5--0---------7--2--5--0---------7--2--5--0---------7--2--5--0-------|
E|-00-00-00-00-00-3~--00-00-00-00-00-3~--00-00-00-00-00-3~--00-00-00-00-00-3~--|

17.
G|------------------------------------------------------------------------------------|
D|------------------------------------------------------------------------------------|
A|---7--2--5--0---------7--2--5--0---------7--2--5--0---------7--2--55555555-55555555-|
E|-00-00-00-00-00-3~--00-00-00-00-00-3~--00-00-00-00-00-3~--00-00-00------------------|

18.
G|-------------------|
D|-------------------|
A|-55555555-5~-------|
E|-------------------|

Outro
19.
G|------------------------------------------|
D|------------------------------------------|
A|-----0~--2~--5~--0~--2~-------------------|
E|-3~----------------------0~---------------|


Lyrics:


Diamonds and dust
(home at last)
Poor man last, rich man first 
Lamborghinis, caviar
Dry martinis, Shangri-la
I got a burning feeling
Deep inside of me
It's yearning
But I'm going to set it free

I'm going in to sin city
I'm gonna win in sin city
Where the lights are bright
Do the town tonight
I'm gonna win in sin city

Ladders and snakes
Ladders give, snakes take
Rich man, poor man, beggarman, thief
Ain't got a hope in hell, that's my belief

Fingers Freddy, Diamond Jim
They're getting ready, 
Look out I'm coming in 
So spin that wheel, cut that pack
And roll those loaded dice
Bring on the dancing girls
And put the champaign on ice

_________________________________________________

12.

++++++++++++++++++++++++++++++++
| The Offspring- I Got A Right |
++++++++++++++++++++++++++++++++


"I got a right to sing..."

Tuning: EADG


Intro
1.
G|-----------------------------8h9~----|
D|-------------------------------------|
A|-3~/4/15~--------------7/------------| Slowly slide the fretboard
E|-------------3~/15~------------------|

2.
G|---------------------------|
D|-2-22-22~-----2-22-22~-----|
A|----------3-3----------3-3-|
E|-----------3------------3--|

Verse
"Anytime I want I got a right to move..."
3.
G|-----------------------------------------------------------------------------------------------|
D|-2-22-22~-------------2-22-22~-----2-22-22~-----2-22-22~-------------2-22-22~-----2-22-22~-----|
A|----------3-3-5-0-5-0----------3-3----------3-3----------3-3-5-0-5-0----------3-3----------3-3-|
E|-----------3--------------------3------------3------------3--------------------3------------3--|

Chorus
"Cus I got a right, right to move..."
4.
G|-----1234----------------------------------1234-----------------------------|
D|-2-2------0-0-4567---------------------2-2------0-0-4567--------------------|
A|--2--------0-------333-------555--------2--------0-------333-------22222222-|
E|-----------------------3-333-----5-555-----------------------3-333----------|

Outro
5.
G|-----------------------------------------------------|
D|-2-22-22~-----2-22-22~-----2-22-22~-----2-22-22~-----|
A|----------3-3----------3-3----------3-3----------3-3-|
E|-----------3------------3------------3------------3--|

Verse
"Anytime I want I got a right to sing..."
6.
G|-----------------------------------------------------------------------------------------------|
D|-2-22-22~-------------2-22-22~-----2-22-22~-----2-22-22~-------------2-22-22~-----2-22-22~-----|
A|----------3-3-5-0-5-0----------3-3----------3-3----------3-3-5-0-5-0----------3-3----------3-3-|
E|-----------3--------------------3------------3------------3--------------------3------------3--|

Chorus
"Cus I got a right, right to sing..."
7.
G|-----1234----------------------------------1234-----------------------------|
D|-2-2------0-0-4567---------------------2-2------0-0-4567--------------------|
A|--2--------0-------333-------555--------2--------0-------333-------2~-------|
E|-----------------------3-333-----5-555-----------------------3-333----------|

Bridge
8.
G|-----------------------------------------------------|
D|-2-22-22~-----2-22-22~-----2-22-22~-----2-22-22~-----|
A|----------3-3----------3-3----------3-3----------3-3-|--x2
E|-----------3------------3------------3------------3--|

9.
G|-----------------------------------------------------|
D|-2-22-22~-----2-22-22~-----2-22-22~-----2-22-22~-----|
A|----------3-3----------3-3----------3-3----------3-3-|
E|-----------3------------3------------3------------3--|

Verse
"Anytime I want I got a right to move..."
10.
G|-----------------------------------------------------------------------------------------------|
D|-2-22-22~-------------2-22-22~-----2-22-22~-----2-22-22~-------------2-22-22~-----2-22-22~-----|
A|----------3-3-5-0-5-0----------3-3----------3-3----------3-3-5-0-5-0----------3-3----------3-3-|
E|-----------3--------------------3------------3------------3--------------------3------------3--|

Chorus
"Cus I got a right, right to move..."
11.
G|-----1234----------------------------------1234-----------------------------|
D|-2-2------0-0-4567---------------------2-2------0-0-4567--------------------|
A|--2--------0-------333-------555--------2--------0-------333-------22222222-|
E|-----------------------3-333-----5-555-----------------------3-333----------|

"I got a feeling..."
12.
G|-----1234----------------------------------1234-----------------------------|
D|-2-2------0-0-4567---------------------2-2------0-0-4567--------------------|
A|--2--------0-------333-------555--------2--------0-------333-------2~-------|
E|-----------------------3-333-----5-555-----------------------3-333----------|


Lyrics:


Anytime I want I got a right to move
No matter what they say
Cus I got a right, right to move
Anytime I want, anytime
Anytime I want I got a right to sing
No matter what they say
Cus I got a right, right to sing
Anytime I want
I got a feeling...

_________________________________________________________________________________________

13.

++++++++++++++++++++++++++
| The Offspring- Hey Joe |
++++++++++++++++++++++++++



Tuning: EADG



Verse
"Hey Joe where you going with that gun in your hand..."
1.
G|----------------------------------------------------------------------------|
D|-----------------------------------------------------5~---------------------|
A|-33333333-------33-55555555-------55-7777777777---5-----7777777777---7~-7-5-|--x4
E|----------333333------------555555--------------7--7---------------7--------|

Chorus
"Hey Joe I heard that you shot your old lady down..."
2.
G|---------------------------------------------------|
D|---------------------------------5~----------------|
A|-3333------5555------7-7-7----5-----7-7-7---7~-7-5-|
E|------3333------5555-00000--7--7----00000-7--------|

"Well you know I guess that's true..."
3.
G|---------------------|
D|---------------------|
A|-3333------5555------|
E|------3333------5555-|

Outro
4.
G|-----------------------------------------------------------------------------------|
D|------5~------------------5~------------------5~------------------5~---------------|
A|-7777-----7777-7-5~--7777-----7777-7-5~--7777-----7777-7-5~--7777-----7777-7-5~----|
E|-----------------------------------------------------------------------------------|

Verse
"Hey Joe where you going with that gun in your hand..."
5.
G|----------------------------------------------------------------------------|
D|-----------------------------------------------------5~---------------------|
A|-33333333-------33-55555555-------55-7777777777---5-----7777777777---7~-7-5-|--x6
E|----------333333------------555555--------------7--7---------------7--------|

Outro
6.
G|-------------------------------------------------------------------------|
D|--------------------------------------------------5~---------------------|
A|-3---------2-3-4-5---------4-5-6-77777777777---5-----7777777777---7~-7-5-|
E|---0-1-2-3---------2-3-4-5-------------------7--7---------------7--------|

7.
G|-------------------------------------------------------------------|
D|-------------------------------------------------9~----------------|
A|-3---------2-3-4-5---------4-5-6-7~--77777-777---7~----------------|
E|---0-1-2-3---------2-3-4-5-----------------------------------------|



Lyrics:

Hey Joe, 
Where you goin' with that gun in your hand? 
Hey Joe, 
Where you goin' with that gun in your hand? 
Goin' down to shoot my old lady 
You know I caught her messing around with another man, 
Goin' down to shoot my old lady 
You know I caught her messing around on me, 

Hey Joe, 
I heard that you shot your old lady down, 
Yes I did, I shot her her 
You know, I caught that girl messing around town 

Yes I did, I shot her her 
You know, I caught that girl messing around town 
I took out my gun, 
Then I shot her! 

I shot her! 

Hey Joe, 
Where you gonna run to now? 
Hey Joe, 
Where you gonna run to now? 
Where you gonna go? 

Ain't no hangman gonna, 
Get a rope around me, 
Ain't no hangman gonna, 
Get a rope around me. 

Goin' way down south, 
Way down to Mexico way 
Goin' way down south, 
Way down where I can be free 

___________________________________________________________________________

14.

+++++++++++++++++++++++++++
| The Offspring- 80 Times |
+++++++++++++++++++++++++++


"Help help..."


Tuning: EADG


Intro
1.
G|-------------------------------------------------|
D|-5~----3~----5~----3~----5~----3~----5~----3~----|
A|-------------------------------------------------|
E|-------------------------------------------------|

Verse
"80 times was all it took for him..."
2.
G|-------------------------------------------------------------------------|
D|-55555555-55778855-33333333-33556633-55555555-55778855-33333333-33556633-|
A|-------------------------------------------------------------------------|--x4
E|-------------------------------------------------------------------------|

Chorus
"Help help..."
3.
G|-------------------------------------------------------------------------|
D|-------------------------------------------------------------------------|
A|-0-00000-3-3333333-0-00000-5-5-3-2---0-00000-3-3333333-5-555555-55555555-|
E|-----------------------------------3-------------------------------------|

Outro
4.
G|-------------------------------------------------|
D|-5~----3~----5~----3~----5~----3~----5~----3~----|
A|-------------------------------------------------|
E|-------------------------------------------------|

Verse
"80 times was all it took for him..."
5.
G|-------------------------------------------------------------------------|
D|-55555555-55778855-33333333-33556633-55555555-55778855-33333333-33556633-|
A|-------------------------------------------------------------------------|--x4
E|-------------------------------------------------------------------------|

Chorus
"Help help..."
6.
G|-------------------------------------------------------------------------------------------|
D|-------------------------------------------------------------------------------------------|
A|-0-00000-3-3333333-0-00000-5-5-3-2---0-00000-3-3333333-5-555555-5555-7---5-555555-5555-7---|
E|-----------------------------------3-----------------------------------5-----------------5-|

7.
G|-------------------------------------------------------|
D|-------------------------------------------------------|
A|-5-555555-5555-7---5-555555-5555-7---5-555555-5555-7---|
E|-----------------5-----------------5-----------------5-|

Chorus
"Help help..."
8.
G|-------------------------------------------------------------------------|
D|-------------------------------------------------------------------------|
A|-0-00000-3-3333333-0-00000-5-5-3-2---0-00000-3-3333333-5-555555-55555555-|
E|-----------------------------------3-------------------------------------|

Outro
9.
G|-------------------------------------------------|
D|-5~----3~----5~----3~----5~----3~----5~----3~----|
A|-------------------------------------------------|
E|-------------------------------------------------|


Lyrics:

80 times was all it took for him he has no more tries
No one seems to care too much for him
You can see it in his eyes

Drive down the street that he's on
Don't look his way
You keep going on and on and on
But you can't hear him say

Help Help
Help Me

___________________________________________________________________________________

15.

+++++++++++++++++++++++++++
| The Offspring- Autonomy |
+++++++++++++++++++++++++++

"I, I want you..."


Tuning: EADG


Intro
1.
G|-----------------------------------------|
D|-44~-------44~-------44~-------44~-------|
A|-----------------------------------------|
E|-----22222-----22222-----22222-----22222-|

2.
G|-------------------------------------------------------------------|
D|--4~--------------4~--------------4~--------------4~---------------|
A|-4---------------4---------------4---------------4---------------4-|
E|-----222-222-222-----222-222-222-----222-222-222-----222-222-222---|

3.
G|--------------------------------------|
D|-4-4-4-4--4-4-4-4--4-4-4-4--4-4-4-4---|
A|---------4--------4--------4--------4-|
E|--------------------------------------|

Verse
"Its a thing that's worth having..."
4.
G|----------4-3-------------------4-3----------|
D|--------------6-4~-44---------------6-4~-44--|
A|---------------------4---------------------4-|
E|-22222222--------------22222222--------------|

5.
G|--------------------------------------|
D|-4-4-4-4--4-4-4-4--4-4-4-4--4-4-4-4---|
A|---------4--------4--------4--------4-|
E|--------------------------------------|

6.
G|---------------------|
D|----------3h44444444-|
A|---------------------|
E|-22222222------------|

Chorus
"I, I want you, autonomy..."
7.
G|------------------------------------------------------------------------------------|
D|-----------------------------------------------4~--------4~---------4~--------4~----|
A|------5~--------5~---------7~--------7~---2~-22---2~-2222---2~-2~-22---2~-2222---2~-|
E|-3~-33---3~-3333---3~-5~-55---5~-5555---5-------------------------------------------|

Outro
8.
G|--------------------------------------|
D|-4-4-4-4--4-4-4-4--4-4-4-4--4-4-4-4---|
A|---------4--------4--------4--------4-|
E|--------------------------------------|

Verse
"It leaves us all wondering..."
9.
G|----------4-3-------------------4-3----------|
D|--------------6-4~-44---------------6-4~-44--|
A|---------------------4---------------------4-|
E|-22222222--------------22222222--------------|

10.
G|--------------------------------------|
D|-4-4-4-4--4-4-4-4--4-4-4-4--4-4-4-4---|
A|---------4--------4--------4--------4-|
E|--------------------------------------|

11.
G|---------------------|
D|----------3h44444444-|
A|---------------------|
E|-22222222------------|

Chorus
"I, I want you, autonomy..."
12.
G|------------------------------------------------------------------------------------|
D|-----------------------------------------------4~--------4~---------4~--------4~----|
A|------5~--------5~---------7~--------7~---2~-22---2~-2222---2~-2~-22---2~-2222---2~-|--x2
E|-3~-33---3~-3333---3~-5~-55---5~-5555---5-------------------------------------------|

Outro
13.
G|-----------------------------------------4~-44-34--4~-44-34--4~-44-34--4~-44-34--|
D|-5~-55-45--5~-55-45--7~-77-67--7~-77-67-------4--4------4--4------4--4------4--4-|
A|------5--5------5--5------7--7------7--7-----------------------------------------|
E|---------------------------------------------------------------------------------|

14.
G|----------------------------------------------11~--------11~---------11~--------11~----|
D|-5~-55-45--5~-55-45--7~-77-67--7~-77-67--9~-99----9~-9999----9~-9~-99----9~-9999----9~-|
A|------5--5------5--5------7--7------7--7-----------------------------------------------|
E|---------------------------------------------------------------------------------------|

(slowing down)
15.
G|------------------------------------------------------------------------------------|
D|-----------------------------------------------4~--------4~-------------------------|
A|------5~--------5~---------7~--------7~---2~-22---2~-2222---2~-2~-------------------|
E|-3~-33---3~-3333---3~-5~-55---5~-5555---5-------------------------------------------|



Lyrics:

It's a thing that's worth having
Yes I would
Buys you your life sir
If it could

I, I want you
Autonomy 

It leaves us all wondering
And it should
This awkward something
For the good

________________________________________________________________________________________________


I hope you enjoyed
thanks for rating :D
see ya around


+++++++++++++++++++++++++++++++++
| Raileff                       |
| Underground__Dora@Hotmail.Com |
+++++++++++++++++++++++++++++++++
comments
We did not receive enough feedback on this tab! Please rate:
print report bad tab
1 2 3 4 5
I want to post or [tab]
guest
You may want to rate the tab now too:
select rating
Please do not post tabs as comments. Select "correction" instead!