Oops, an error
Loading. Please wait.

Ignition Bass Tab

1,666 views 1 this week
no commentswrite comment
1 2 3 4 5
excellent!
x 1
add to favorites launch autoscroll
font size
0
reset
Autoscroll
+/-
esc
set tempo
stop
Contributor
WARNING: You are trying to view
                                    content from Ultimate-Guitar.com
                                    in an unauthorized application,
                                    which is prohibited.

                                    Please use an official Ultimate
                                    Guitar Tabs application for iPhone,
                                    iPad or Android to access legitimate
                                    chords, guitar, bass, and drum tabs
                                    from Ultimate-Guitar.com database.

                                    Type "ultimate guitar tabs" in Apple
                                    App Store's or Android Market's
                                    search to find the application.
+++++++++++++++++++++++++++
| The Offspring- Ignition |
+++++++++++++++++++++++++++

Bass Tab, Album: "Ignition" 1992
Tabbed by: RaiLeff
E-Mail: Underground__Dora@Hotmail.Com

Here are some of the first and best The Offspring songs
on bass, enjoy :D


Tuning: EADG

Tracks:

1.  Session 
2.  We Are One
3.  Kick Him When He's Down
4.  Take It Like A Man
5.  Get It Right
6.  Dirty Magic
7.  Hypodermic
8.  Burn It Up
9.  No Hero
10. L.A.P.D.
11. Nothing From Something
12. Forever And A Day


____________________________________________

1. Session

Tuning: EADG

Intro
1.
G|--------------------------------------------|
D|--00--033--3----------00--033--3------------|
A|------------33--3---------------33--3-------|
E|-----------------33--3----------------33--3-|

Verse
"Dont know when..."
2.
G|-------------------------------------------------------------------|
D|--00x----033x----3----------------00x----033x----3-----------------|
A|------------------33x----3------------------------33x----3---------|
E|--------------------------33x----3------------------------33x----3-|

Pre-Chorus
"Here I go..."
3.
G|------------------------------------------------------------------------------------------|
D|--0000000000-3333333333-----------------------0000000000-3333333333-----------------------|
A|------------------------3333333333----------------------------------3333333333------------|
E|-----------------------------------3333333333----------------------------------3333333333-|

Chorus
"Session, Ill never learn..."
4.
G|------------------------------------------|
D|--0000-2233-0000-2233-0000-2233-----------|
A|--------------------------------3333------|
E|-------------------------------------3333-|

"Session. Ill never learn..."
5.
G|----------------------------------------------------|
D|--0000-2233-0000-2233-0000-2233---------------------|
A|--------------------------------3333-3333-----------|
E|------------------------------------------3333-3333-|

Outro
6.
G|-------------------|
D|-------------------|
A|--5-345-345-345-34-|
E|-------------------|

Verse
"Some might say..."
7.
G|-------------------------------------------------------------------|
D|--00x----033x----3----------------00x----033x----3-----------------|
A|------------------33x----3------------------------33x----3---------|
E|--------------------------33x----3------------------------33x----3-|

Pre-Chorus
"Here I go..."
8.
G|------------------------------------------------------------------------------------------|
D|--0000000000-3333333333-----------------------0000000000-3333333333-----------------------|
A|------------------------3333333333----------------------------------3333333333------------|
E|-----------------------------------3333333333----------------------------------3333333333-|

Chorus
"Session, Ill never learn..."
9.
G|------------------------------------------|
D|--0000-2233-0000-2233-0000-2233-----------|
A|--------------------------------3333------|
E|-------------------------------------3333-|

"Session. Ill never learn..."
10.
G|----------------------------------------------------|
D|--0000-2233-0000-2233-0000-2233---------------------|
A|--------------------------------3333-3333-----------|
E|------------------------------------------3333-3333-|

Outro
11.
G|---------------------|
D|---------------------|
A|--5-345-345-345-3455-|
E|---------------------|

Bridge
12.
G|---------------------------------------------------------|
D|---------333-----------333-----------333-----------------|
A|--555-33-----33-555-33-----33-555-33-----33-1~--------3~-|
E|---------------------------------------------------------|

Pre-Chorus
"Here I go..."
13.
G|------------------------------------------------------------------------------------------|
D|--0000000000-3333333333-----------------------0000000000-3333333333-----------------------|
A|------------------------3333333333----------------------------------3333333333------------|
E|-----------------------------------3333333333----------------------------------3333333333-|

Chorus
"Session, Ill never learn..."
14.
G|------------------------------------------|
D|--0000-2233-0000-2233-0000-2233-----------|
A|--------------------------------3333------|
E|-------------------------------------3333-|

"Session. Ill never learn..."
15.
G|----------------------------------------------------|
D|--0000-2233-0000-2233-0000-2233---------------------|
A|--------------------------------3333-3333-----------|
E|------------------------------------------3333-3333-|

Outro
16.
G|---------------------|
D|---------------------|
A|--5-345-345-345-3455-|
E|---------------------|

Lyrics:

I don't know when it got this way
I don't know how long she's gonna stay
Every week it's the same in her room
That's why I came

Here I go, I go again
Our rendezvous' never seem to end
I know where I'll be, I'll make this confession
Back in her bed for another goddamn session

I'll never learn
God knows I try
Keep coming back for session
And I don't know why
I'll never learn, I'll never see
Just tell me why these sessions got a hold on me

Some might say it's a fling
For all I know it don't mean a thing
Either way I can't complain
Ain't no strings
Guess I got it made

_____________________________________________________

2. We Are One

Tuning: EADG

Intro.
1.
G|--------------------------|
D|--------------------------|
A|--------------------------|
E|--5~-------------------5~-|

2.
G|----------------------------------------|  x2
D|-----7/10-10-10-1010\55555555-----------|
A|-----------------------------555-777-55-|
E|--5~------------------------------------|

Break
3.
G|--------------------------------|
D|--------------------------------|
A|--------333333--------5555-33---|
E|-555555--------333333--------33-|

4.
G|--------------------------------|
D|--------------------------------|
A|--------333333---------55x--33x-|
E|-555555--------333333-----------|

Verse
"We are one with ourselves.."
5.
G|-------------------------------------------|
D|-------------------------------------------|
A|-----------333333333-----------55555-33----|
E|-555555555-----------333333333----------33-|

"Well it won't be wrong.."
6.
G|-------------------------------------------|
D|-------------------------------------------|
A|-----------333333333-----------55555-33----|
E|-555555555-----------3x-----------------33-|

Chorus
"We are one.." x2
7.
G|-------------------------------------------|
D|-------------------------------------------|
A|-----------333333333-----------55555-33----|
E|-555555555-----------333333333----------33-|

This song is pretty much all that all the time

1:42      x3
8.
G|-----------------------------------|
D|-----------------------------------|
A|---------33333333------------------|
E|-55555555--------33333333-22233333-|

9.
G|-----------------------------------------------------------|
D|--------------------------44455555-44455555-44455555555555-|
A|---------33333333------------------------------------------|
E|-55555555--------33333333----------------------------------|

Now repeat Verse & Chorus

10.
G|--------------------------------------|
D|--------------------------------------|
A|----------88888888-55555555-555-333---|
E|-55555555--------------------------33-|

Lyrics:

We are one with ourselves
We don't give a shit about anyone else
Well it won't be wrong until our day in the sun is gonna stop
The walls come tumbling down

We are one
We are free
We are headed for obscurity
We are one
We are weak
We are gonna make ourselves extinct

We are one, you know it's true
Don't fuck with us or we'll fuck with you
It's a mentality that kills the best, we better stop
The walls come tumbling down

We are one and it won't be news
When we hang ourselves with one collective noose
Well, it won't be wrong until our day in the sun is gonna stop
The walls come tumbling down

The bigger they come
The harder they fall

________________________________________________

3. Kick Him When He's Down

Tuning: EADG

Intro
1.
G|------------------------------------------------------------|
D|-4~----4-2~--------4--4--4--4--4~----4-2~--------4--4--4--4-|
A|-------------2~----------------------------2~---------------|
E|-----------------22-22-22-22-------------------22-22-22-22--|

Verse
"Hey youre a Riddle"
2.
G|-------------------------------------------------------------------------|
D|-44444444-2222-----44444444-44444444-44444444-2222-----0000-----2222-----|
A|--------------2222--------------------------------2222-----0000-----2222-|--x2
E|-------------------------------------------------------------------------|

Chorus
"When the rain comes..."
3.
G|---------------------------------------------------------------------------------|
D|-4444-0000------2222-4444-0000------2222-4444-0000------2222-2222-2222-2222-2222-|
A|-----------0000----------------0000----------------0000--------------------------|--x2
E|---------------------------------------------------------------------------------|

Outro
4.
G|------------------------------------------------------------|
D|-4~----4-2~--------4--4--4--4--4~----4-2~--------4--4--4--4-|
A|-------------2~----------------------------2~---------------|
E|-----------------22-22-22-22-------------------22-22-22-22--|

Verse
"Hey everybody's supposed..."
5.
G|-------------------------------------------------------------------------|
D|-44444444-2222-----44444444-44444444-44444444-2222-----0000-----2222-----|
A|--------------2222--------------------------------2222-----0000-----2222-|--x2
E|-------------------------------------------------------------------------|

Chorus
"When the rain comes..."
6.
G|---------------------------------------------------------------------------------|
D|-4444-0000------2222-4444-0000------2222-4444-0000------2222-2222-2222-2222-2222-|
A|-----------0000----------------0000----------------0000--------------------------|--x2
E|---------------------------------------------------------------------------------|

2:06
Bridge
7.
G|-------------------------------------------------------|
D|-22222222-22222222-22222222-22222222-22222222-22222222-|
A|-------------------------------------------------------|
E|-------------------------------------------------------|

Verse
"Hey youre a Riddle..."
8.
G|-------------------------------------------------------------------------|
D|-44444444-2222-----44444444-44444444-44444444-2222-----0000-----2222-----|
A|--------------2222--------------------------------2222-----0000-----2222-|--x2
E|-------------------------------------------------------------------------|

Chorus
"When the rain comes..."
9.
G|---------------------------------------------------------------------------------|
D|-4444-0000------2222-4444-0000------2222-4444-0000------2222-2222-2222-2222-2222-|
A|-----------0000----------------0000----------------0000--------------------------|--x2
E|---------------------------------------------------------------------------------|

Outro
10.
G|---------------------------------------------------|
D|-2>------------------------------------------------|
A|---------------------------------------------------|
E|---------------------------------------------------|

Lyrics:


'Hey, you're a riddle',
I say as I move aside
(Like I really need your advice)
But you won't leave it alone
Little men try but don't get a lot done
Living in sin doesn't move me either way
I get a feeling you're so vague
Like I said before
Little men come when anything goes

When the rain comes I sit home and pray
Make it all numb
I wish it all away
All I really need is just somewhere to hide away
Kick him when he's down
Here alone I'll put up and fight
Kick him when he's down
Beat me all the way I'll take it all night
Kick him when he's down
Hey, don't worry, I'll get along home alright

Hey, everybody's supposed to be the same
So how come they're so lame?
It's like taking a fall
Keep on running back into that wall
Awake in a dream, get up and go to work
But I'm feeling like such a jerk
Like I said before
Little men come when everything goes

_______________________________________________

4. Take It Like A Man

Tuning: EADG

Intro. x4
1.
G|-------------|
D|-------------|
A|-55555-3-----|
E|---------3-5-|

Verse
"When you won't go along.."
2.
G|-------------------------------------------------|
D|-------------------------------------------------|
A|-5-555-55-55-5-555-55-55-5-555-55-55-5-555-55-55-|
E|-------------------------------------------------|

"Heaven knows.. Heaven knows.."
3.
G|----------------------------------------|
D|----------------------------------------|
A|-10-10-10\6-6-6-55555-3-----55555-3-----|
E|------------------------3-5---------3-5-|

"Now don't get me wrong.."
4.
G|-------------------------------------------------|
D|-------------------------------------------------|
A|-5-555-55-55-5-555-55-55-5-555-55-55-5-555-55-55-|
E|-------------------------------------------------|

"When someone goes.."
5.
G|----------------------------------|
D|----------------------------------|
A|-10-10-10\6-6-6-55555-3-----55555-|
E|------------------------3-5-------|

Chorus
"Shut up..." x3
6.
G|-------------------|
D|-------------------|
A|-33/5-6-5-3/555555-|
E|-------------------|

"Cause' you need a little more.."
7.
G|-------------|
D|-8-8-8\7-7-7-|
A|-------------|
E|-------------|

Outro.
8.
G|---------------------------------------|
D|---------------------------------------|
A|-5~--------5~--------5~---------5~-----|
E|---------------------------------------|

Verse
"Maybe no one will say it.."
9.
G|-------------------------------------------------|
D|-------------------------------------------------|
A|-5-555-55-55-5-555-55-55-5-555-55-55-5-555-55-55-|
E|-------------------------------------------------|

"All I know.. All I know..."
10.
G|----------------------------------------|
D|----------------------------------------|
A|-10-10-10\6-6-6-55555-3-----55555-3-----|
E|------------------------3-5---------3-5-|

"Could you make a decision?."
11.
G|-------------------------------------------------|
D|-------------------------------------------------|
A|-5-555-55-55-5-555-55-55-5-555-55-55-5-555-55-55-|
E|-------------------------------------------------|

"Everyone knows.. Everyone knows.."
12.
G|----------------------------------|
D|----------------------------------|
A|-10-10-10\6-6-6-55555-3-----55555-|
E|------------------------3-5-------|

Chorus

1:41
Outro
13.
G|-------------------------------------------------|
D|-------------------------------------------------|
A|-5-555-55-55-5-555-55-55-5-555-55-55-5-555-55-55-|
E|-------------------------------------------------|

"Close your eyes.."
14.
G|------------------------------|
D|------------------------------|
A|-5x---5-6-5x---5-6-5x------5~-|
E|------------------------------|

Bridge
15.
G|------------------------------------------------------|
D|------------------------------------------------------|
A|-3-333-33-33-3-333-33-33--55-44---------55-44---------|
E|-------------------------------66-5-3-5------66-5-3-5-|

16.
G|-------------------------------------------------|
D|-------------------------------------------------|
A|-3-333-33-33-3-333-33-33--55-44---------33-66-5x-|
E|-------------------------------66-5-3-5----------|

Lyrics

When you won't go along
Some will feel like you can't find your way
Heaven knows
Heaven knows I've seen it all before
Now don't get me wrong
I've seen many a life gone astray
When someone goes
All your bows won't make it any better so let it go

Shut up and take it like a man
You need us to get a life
For your own good we'll take you by the hand
'Cause you need a little more

Maybe no one will say it
Maybe no one's aware it goes on
All I know
All I know it's like going off the deep end
Could you make a decision?
Could you think for yourself and go on?
Everyone knows
Everyone knows you've got to fit into the mainstream so save your woes

Close your eyes
Look away now
Make believe while you can
So you'd best go along
Don't let on if you can't find your way
Many more
Many more do it for you
Because heaven knows
Heaven knows it's like playing with fire
Your life's a throw

________________________________________________________

5. Get It Right

Tuning: EADG

Intro.
1.
G|----|
D|----|
A|----|
E|-1~-|

2.
G|-----------------------------11-----------|
D|-3333-55665-1111-55665-----11--1-33333333-|
A|-----------------------4444---------------|  x2
E|------------------------------------------|

Verse
"I've been told.."   x2
3.
G|--------------------------------------------------------|
D|-3-33-33-3333-1-11-11-1111---------1-11-11-3-33-33-3333-|
A|---------------------------4-44-44----------------------|
E|--------------------------------------------------------|

"Look out boy"
4.
G|-------------------------------------------|
D|-333333333-111111111-------11111-333333333-|
A|---------------------44444-----------------|
E|-------------------------------------------|

"But I'll look out the window.."
5.
G|-------------------------------------------|
D|-333333333-111111111-----------------------|
A|---------------------44444-11111-333333333-|
E|-------------------------------------------|

Chorus
"Still can't get it.."  x3
6.
G|----111111-----------|
D|-333-------111-------|
A|--------------111111-|
E|---------------------|

7.
G|-----------------------|
D|-----------------------|
A|-444444444-44444-66666-|
E|-----------------------|

Intro
Verse
Chorus

"No way out.." 1:09
8.
G|-----------------------------------------|
D|-----------------------------------------|
A|-666666666-444444444---------------------|
E|---------------------111111111-111111111-|

9.
G|-----------------------------------------|
D|-----------------------------------------|
A|-666666666-444444444-111111111-333333333-|
E|-----------------------------------------|

"No way out.." 2:15
10.
G|---------------------------|
D|-3~-----1~---------1~---3~-|
A|---------------4~----------|
E|---------------------------|

11.
G|-------------------------------------------|
D|-333333333-111111111-------11111-333333333-|
A|---------------------44444-----------------|
E|-------------------------------------------|

Finishes:

"I swear I'll never get it, never, never, never, never.."
12.
G|--------------------|
D|--------------------|
A|-4-4-4-4-6-6-6-6----|
E|-----------------1~-|

Lyrics

I've been told that
to get what you want
You just gotta give what you can
But I know for what I want it
Don't come as easy as that

Look out boy
Tomorrow comes
And things will look better by then
But I'll look out the window
Then look in the mirror
At the same old me again

Still can't get it..
And for all I know
I swear I'll never will

Do you think you'd sell your soul
To just have one thing to turn out right?
For the thousandth time you turn and find
That it just makes no difference to try
Like Holden Caulfield I tell muself
There's gotta be a better way
Then I lay in bed and 
Stare at the ceiling
Dream of brighter days...

No way out.. 
Same old stuff always drags me down..
No way out.. Never gonna get it..
No way out.. No way out..
Sill can't get it..

______________________________________________

6. Dirty Magic

Tuning: EADG

Intro
1.
G|-----------------------------------|
D|-----------------------------------|
A|-----------------------------------|--x2
E|-0-3/55-5-5--8-8--7-7--00000--0000-|

Verse
"In my own simple way..."
2.
G|-----------------------------------|
D|-----------------------------------|
A|-----------------------------------|--x4
E|-0-3/55-5-5--8-8--7-7--00000--0000-|

Chorus
"Pull the shades..."
3.
G|-----------------------------------|
D|-------------------------------7---|
A|-5-7--77-5-7--77-----5----5-555-55-|--x3
E|----00------00---3333-33-----------|

4.
G|-----------------------------------|
D|-----------------------------------|
A|-00000000-3333-2222----------------|
E|--------------------0~-------------|

Outro
5.
G|-----------------------------------|
D|-----------------------------------|
A|-----------------------------------|--x2
E|-0-3/55-5-5--8-8--7-7--00000--0000-|

Verse
"I should know better than..."
6.
G|-----------------------------------|
D|-----------------------------------|
A|-----------------------------------|--x4
E|-0-3/55-5-5--8-8--7-7--00000--0000-|

Chorus
"Pull the shades..."
7.
G|-----------------------------------|
D|-------------------------------7---|
A|-5-7--77-5-7--77-----5----5-555-55-|--x3
E|----00------00---3333-33-----------|

8.
G|-----------------------------------|
D|-----------------------------------|
A|-00000000-3333-2222----------------|
E|--------------------0~-------------|

Outro
9.
G|-----------------------------------|
D|-----------------------------------|
A|-----------------------------------|--x6
E|-0-3/55-5-5--8-8--7-7--00000--0000-|

Chorus
"Pull the shades..."
10.
G|-----------------------------------|
D|-------------------------------7---|
A|-5-7--77-5-7--77-----5----5-555-55-|--x3
E|----00------00---3333-33-----------|

11.
G|-----------------------------------|
D|--------------------2~-------------|
A|-00000000-3333-2222----------------|
E|-----------------------------------|

Lyrics:

In my own simple way
I think she wants me only
She said," Come over right away."
But she's just not that way
Her little soul is stolen
See her put on her brand new face

Pull the shades
Razor blades
You're so tragic
I hate you so but love you more
I'm so elastic
The things you say
Games you play
Dirty magic

I should know better than to think I'd reach inside her
It's all a cloudy kind of daze
She's not so sweet today
She mocks me, I'm no fighter
It all just seems like such a waste
It's oversimplified

____________________________________________

7. Hypodermic

Tuning: EADG

Intro. 
1.
G|---------------------------|
D|---------------------------|
A|-------------33333-----555-|   x4
E|-5555555-111--------333----|

Verse
"When you're feeling low.."
2.
G|---------------------------|
D|---------------------------|
A|-------------33333-----555-|   x4
E|-5555555-111--------333----|

Pre-Chorus
"Can't you see like you saw before.."
3.
G|-----------------------|
D|--------333------------|
A|-----------3333333-555-|       x3
E|-5555555---------------|

Chorus
"When life's a waste.. run away yeah.."
4.
G|--------------------------------------------|
D|-333333333-555555555------------------------|
A|-------------------------33-555------33-----|  x2
E|---------------------5555--------5555---333-|

Outro
"Run away yeaaaah!.."
5.
G|--------------------|
D|---------------6/7~-|
A|------33-555--------|
E|-5555---------------|

Ok now repeat about the whole song
until 2:32
when you finish with this:

"Run away yeah.."
6.
G|--------------------------|
D|----------------22-33-555-|
A|------33-555--------------|
E|-5555--------55-----------|

Lyrics:

When you're feeling low
Hypodermic's where you go
When you're with yourself
You wish you could be someone else

Can't you see like you saw before
Can't you feel like you felt before
Can't you face anything anymore

When life's a waste
Run away yeah...
You're life's a waste
Run away yeah.. Run away yeah!

Once you get a ride
Doesn't matter where you lied
Once you shoot it in
Doesn't matter who you've been

You're reaching in
But you don't know where to begin
All your dance and song
Won't matter when you're gone

________________________________________________

8. Burn It Up

Tuning: EADG

Intro
1.
G|-------------|
D|-------------|
A|-------------|--x2
E|-0x-0x-0x-0x-|

Verse
"Yeah I think Im burning up inside..."
2.
G|-------------|
D|-------------|
A|-------------|--x2
E|-0x-0x-0x-0x-|

"Gonna light up..."
3.
G|-------------|
D|-------------|
A|-0x-0x-0x-0x-|
E|-------------|

Verse
"Ill drive on by your yard..."
4.
G|--------------------------------------------------------------------------------|
D|-22-3202-320-2222-2222--22-3202-320-2222-2222-----------------------22-3202-320-|
A|--------------------------------------------------------------------------------|
E|----------------------------------------------55-6535-653-5555-5555-------------|

Pre-Chorus
"Ignition, they call it an obsession..."
5.
G|-------------------------------------|
D|-22-200-022-200-022-200-022222-22222-|
A|-------------------------------------|
E|-------------------------------------|

Chorus
"Woah, yeah Im a pyro..."
6.
G|--------------------------------------------------------------------------|
D|--------------------------------------------------------------------------|
A|-0000-3333------------0000-3333------------0000-3333------------0000-3333-|
E|-----------0000-0000------------0000-0000------------0000-0000------------|

Outro
7.
G|---------------|
D|-22-3202-3202x-|
A|---------------|
E|---------------|

Verse
"Tonight this hood will be a pyre..."
8.
G|---------------------------------------------------------------------------------|
D|-22-3202-3202x----22-3202-3202x----22-3202-3202x---------------------22-3202-320-|
A|---------------------------------------------------------------------------------|
E|----------------------------------------------------55-6535-6535x----------------|

"I want to make a tiki torch..."
9.
G|--------------------------------------------------------------------------------|
D|-22-3202-320-2222-2222--22-3202-320-2222-2222-----------------------22-3202-320-|
A|--------------------------------------------------------------------------------|
E|----------------------------------------------55-6535-653-5555-5555-------------|

Pre-Chorus
"Ignition, they call it an obsession..."
10.
G|-------------------------------------|
D|-22-200-022-200-022-200-022222-22222-|
A|-------------------------------------|
E|-------------------------------------|

Chorus
"Woah, yeah Im a pyro..."
11.
G|------------------------------------------------------------------------------------|
D|------------------------------------------------------------------------------------|
A|-0000-3333------------0000-3333------------0000-3333------------0000-3333-----------|
E|-----------0000-0000------------0000-0000------------0000-0000------------0~--------|

Bridge
12.
G|----------------------------------------------------------------------|
D|-2~--00h2-2~-2--55h7-7~-7--00h2-2~-2--55h7-7~-7--00h2-2~-2--55h7-7~-7-|
A|----------------------------------------------------------------------|
E|----------------------------------------------------------------------|

Keep playing that for some time...

Pre-Chorus
"Ignition, they call it an obsession..."
13.
G|-------------------------------------|
D|-22-200-022-200-022-200-022222-22222-|
A|-------------------------------------|
E|-------------------------------------|

Chorus
"Woah, yeah Im a pyro..."
14.
G|------------------------------------------------------------------------------------|
D|------------------------------------------------------------------------------------|
A|-0000-3333------------0000-3333------------0000-3333------------0000-3333-----------|
E|-----------0000-0000------------0000-0000------------0000-0000------------0000-0000-|

Outro
15.
G|---------------|
D|-22-3202-3202x-|
A|---------------|
E|---------------|

Lyrics:

I think I'm burning up inside
I think I'll take a little ride
I'm gonna light up everything in sight
I'll drive on by your yard
And throw a Molotov cocktail at your car
Then another in the local bar

Ignition
They call it an obsession but I think it's kinda bitchen'
I think it's kinda neat
Yeah, I'm a pyro
I wanna burn it up
Yeah, I'm a pyro

Tonight this 'hood will be a pyre
I'm gonna set your house on fire
I'll dance around the pretty flames
Such a wonderful game

I want to make a tiki torch
I'm gonna throw it on your porch
Then I'm gonna run away
And come back another day
So many houses, so little time
So many reasons, I'm not a crime
I'd like to set you up
I'd like to set you up

_____________________________________________

9. No Hero

Tuning: EADG

Intro
1.
G|------------------------------------------------------------------------|
D|----44-5--0--00-2-----------------------44-5--0--00-2-------------------|
A|-2-----------------0--44-5-2-222222--2-----------------0--44-5-2-222222-|
E|------------------------------------------------------------------------|

Verse
"Once you said..."
2.
G|--------------------------------------------------|
D|---445-00002----------------445-00002-------------|
A|-22----------00445-22222--22----------00445-22222-|--x2
E|--------------------------------------------------|

Pre-Chorus
"Second guess..."
3.
G|------------------------------------------------------|
D|-2222-0--------------------0-2222-0--------4-4-4-4-44-|
A|--------2222-0------0-2222----------2222-0------------|
E|---------------2222-----------------------------------|

Chorus
"Johnny was a weirdo..."
4.
G|--------------------------------------------|
D|-55-00-2222-55-00-2222-55-00-2222-4-4-4-4-4-|
A|--------------------------------------------|
E|-----------------------------------2-2-2-2--|

Outro
5.
G|--------------------------------------------------|
D|---445-00002----------------445-00002-------------|
A|-22----------00445-22222--22----------00445-22222-|
E|--------------------------------------------------|

Verse
"I should have known..."
6.
G|--------------------------------------------------|
D|---445-00002----------------445-00002-------------|
A|-22----------00445-22222--22----------00445-22222-|--x2
E|--------------------------------------------------|

Pre-Chorus
"Second guess..."
9.
G|------------------------------------------------------|
D|-2222-0--------------------0-2222-0--------4-4-4-4-44-|
A|--------2222-0------0-2222----------2222-0------------|
E|---------------2222-----------------------------------|

Chorus
"Johnny was a weirdo..."
10.
G|--------------------------------------------|
D|-55-00-2222-55-00-2222-55-00-2222-4-4-4-4-4-|
A|--------------------------------------------|--x2
E|-----------------------------------2-2-2-2--|

Bridge
11.
G|----------------------------------------|
D|----------------------------------------|
A|-2-2-0-2-------4-5----2-2-0-2-------0x--|--x4
E|---------2-2-2----------------2-2-2-----|

"Little things, little lives..."
12.
G|--------------------------------------------------|
D|---------------------------------------555~-444~--|
A|-2-2-0-2-------4-5----2-2-0-2-------0x------------|
E|---------2-2-2----------------2-2-2---------------|

13.
G|----------------------------------------|
D|----------------------------------------|
A|-2-2-0-2-------4-5----2-2-0-2-------0x--|--x2
E|---------2-2-2----------------2-2-2-----|

"Telling truth, telling lies..."
14.
G|--------------------------------------------------|
D|---------------------------------------555~-444~--|
A|-2-2-0-2-------4-5----2-2-0-2-------0x------------|
E|---------2-2-2----------------2-2-2---------------| 

15.
G|----------------------------------------|
D|----------------------------------------|
A|-2-2-0-2-------4-5----2-2-0-2-------0x--|--x2
E|---------2-2-2----------------2-2-2-----|

"Let this feeling go..."
16.
G|----------------------------------------|
D|----------------------------------------|
A|-2-2-0-2-------4-5----2-2-0-2-------0x--|--x2
E|---------2-2-2----------------2-2-2-----|

17.
G|--------------------------------------------------|
D|---445-00002----------------445-00002-------------|
A|-22----------00445-22222--22----------00445-22222-|
E|--------------------------------------------------|

Verse
"Once you said..."
18.
G|--------------------------------------------------|
D|---445-00002----------------445-00002-------------|
A|-22----------00445-22222--22----------00445-22222-|--x2
E|--------------------------------------------------|

Pre-Chorus
"Second guess..."
19.
G|------------------------------------------------------|
D|-2222-0--------------------0-2222-0--------4-4-4-4-44-|
A|--------2222-0------0-2222----------2222-0------------|
E|---------------2222-----------------------------------|

Chorus
"Johnny was a weirdo..."
20.
G|--------------------------------------------|
D|-55-00-2222-55-00-2222-55-00-2222-4-4-4-4-4-|
A|--------------------------------------------|--x2
E|-----------------------------------2-2-2-2--|

Outro
21.
G|---------------------------------------------------|
D|--4~-----------------------------------------------|
A|---------------------------------------------------|
E|---------------------------------------------------|

Lyrics:

Once you said you'd stick to it until the end
I guess you lied, they call it suicide
Now you're gone
What was so wrong that you couldn't find a way to carry on
Second guess
Did I do my best
There was a friend I had

Johnny was a weirdo
So what did you expect?
I ain't no fucking hero
I'm just trying to survive myself

I should have known you went through it alone
I wonder why. Did you even try?
You could have come to me
I would have helped you see
You could have found a way to carry on
Second guess
Did I do my best
There was a friend I had

...Johnny was a weirdo
So what did you expect?
I ain't no fucking hero
I'm just trying to survive myself
'Johnny's strange behavior was a tip-off,' they say
But I ain't no fucking savior
I'm just living day by day

Little things, little lives hanging 'til the end
I say it doesn't really mean nothing
Telling truth, telling lies
I used to have a friend
I say it don't really mean nothing
And I can't let this feeling go
Let this feeling go
Let this feeling go

_______________________________________

10. L.A.P.D.

Tuning: EADG

Intro
1.
G|---------------------------------------------------------------|
D|---------------------------------------------------------------|
A|-222-2-22222-2-22222-2-22222-2-22222-2-22222-2-22222-2-22222-2-|
E|---------------------------------------------------------------|

2.
G|--------------------------------------------------------|
D|--------------------------------------------------------|
A|-2~----33-000--2~----33-000--2~----33-000--2~----33-000-|
E|--------------------------------------------------------|

Verse
"When cops are taking care..."
3.
G|---------------------------------------------------------222-|
D|-------------------------------------------------------------|
A|-2222222-33-000-2222222-33-000-2222222-33-000-2222222-33-----|--x2
E|-------------------------------------------------------------|

Chorus
"Beat all the niggers..." *No hard feelings on that...
4.
G|-44-33-22---------44-33-22---------44-33-22----------------------------|
D|----------22-000-----------22-000-----------22-000---------------------|
A|---------------------------------------------------0000-5555-2222-2222-|
E|-----------------------------------------------------------------------|

Outro
5.
G|-------------------------------|
D|-------------------------------|
A|-2222222-33-000-2222222-33-000-|
E|-------------------------------|

Verse
"The city of L.A. feels like a prison..."
6.
G|---------------------------------------------------------222-|
D|-------------------------------------------------------------|
A|-2222222-33-000-2222222-33-000-2222222-33-000-2222222-33-----|
E|-------------------------------------------------------------|

Chorus
"Beat all the white trash..."
7.
G|-44-33-22---------44-33-22---------44-33-22----------------------------|
D|----------22-000-----------22-000-----------22-000---------------------|
A|---------------------------------------------------0000-5555-2222-2222-|
E|-----------------------------------------------------------------------|

Outro
8.
G|-------------------------------|
D|-------------------------------|
A|-2222222-33-000-2222222-33-000-|--x6
E|-------------------------------|

9.
G|-44-33-22---------44-33-22---------44-33-22----------------------------|
D|----------22-000-----------22-000-----------22-000---------------------|
A|---------------------------------------------------0000-5555-2222-2222-|
E|-----------------------------------------------------------------------|

10.
G|-------------------------------|
D|-------------------------------|
A|-2222222-33-000-2222222-33-000-|
E|-------------------------------|

Verse
11.
G|---------------------------------------------------------222-|
D|-------------------------------------------------------------|
A|-2222222-33-000-2222222-33-000-2222222-33-000-2222222-33-----|--x2
E|-------------------------------------------------------------|

Chorus
"Beat all the niggers..." 
12.
G|-44-33-22---------44-33-22---------44-33-22----------------------------|
D|----------22-000-----------22-000-----------22-000---------------------|
A|---------------------------------------------------0000-5555-2222-2222-|
E|-----------------------------------------------------------------------|

"L.A.P.D!"
13.
G|------------------------------------------|
D|------------------------------------------|
A|-0000-5555-2222-2222--0000-5555-2222-2222-|
E|------------------------------------------|

Lyrics:

When cops are taking care of business I can understand
But the L.A. story's gone way out of hand
Their acts of aggression, they say they're justified
But it seems an obsession has started from the inside
They're shooting anyone who even tries to run
They're shooting little kids with toy guns
Take it to a jury but they don't give a damn
Because the one who tells the truth is always the policeman

Beat all the niggers
Beat whoever you see
Don't need a reason
(We're) L.A.P.D.

The city of L.A. feels like a prison
With helicopters overhead and bullets whizzing by
Martial law ain't no solution
Police brutality's just social pollution

Beat all the white trash
Beat whoever you see
Don't need a reason
(We're) L.A.P.D.

They say they're keeping the peace
But I'm not buying it because a billy club ain't much of a pacifier
"Protecting your freedom"
Now that's just a lie
It's an excuse for power that's more like an alibi
Law and order doesn't really matter
When you're the one getting bruised and battered
You take it to a jury, they'll throw it in your face
Because justice in L.A. comes in a can of mace

_____________________________________________________

11. Nothing From Something

Tuning: EADG

Intro
1.
G|-------------------------------------|
D|-------------------------------------|
A|-------------------------------------|
E|-0--------0--------0--------0--------|

2.
G|------------------------------------------|
D|-2222-0000------2222--2222------0000-2222-|
A|-----------0000------------3333-----------|
E|------------------------------------------|

Verse
"Things are coming down on me..."
3.
G|------------------------------------------|
D|-2222-0000------2222--2222------0000-2222-|
A|-----------0000------------3333-----------|--x2
E|------------------------------------------|

Chorus
"Gonna break it..."
4.
G|----------------------------------------------------------------------------------------|
D|-2222-44554-0000-------2222-44554-0000-------2222-44554-0000-------2222-44554-0000------|
A|-----------------2222------------------2222------------------2222------------------0222-|
E|----------------------------------------------------------------------------------------|

Outro
5.
G|-------------------------------------|
D|-------------------------------------|
A|-------------------------------------|
E|-0--------0--------0--------0--------|

Verse
"Cut me for the lion's share..."
6.
G|------------------------------------------|
D|-2222-0000------2222--2222------0000-2222-|
A|-----------0000------------3333-----------|--x2
E|------------------------------------------|

Chorus
"Gonna break it..."
7.
G|----------------------------------------------------------------------------------------|
D|-2222-44554-0000-------2222-44554-0000-------2222-44554-0000-------2222-44554-0000------|
A|-----------------2222------------------2222------------------2222------------------0222-|
E|----------------------------------------------------------------------------------------|

Bridge
8.
G|------------------------------|
D|-2~--2-2~---------------------| For a few times...
A|------------------------------|
E|------------------------------|

9.
G|------------------------------------------|
D|-2222-0000------2222--2222------0000-2222-|
A|-----------0000------------3333-----------|--x2
E|------------------------------------------|

Chorus
"Gonna break it..."
10.
G|----------------------------------------------------------------------------------------|
D|-2222-44554-0000-------2222-44554-0000-------2222-44554-0000-------2222-44554-0000------|
A|-----------------2222------------------2222------------------2222------------------0222-|
E|----------------------------------------------------------------------------------------|

Outro
11.
G|---------------------------------------------|
D|---------------------------------------------|
A|---------------------------------------------|
E|-3-3-3-3-3-3-3-3-5-5-5-5-5-5-5-5-0~----------|

Lyrics:

Things are coming down on me
They never seem to let it be
It seems like everything I say just starts another fight
The pressure's building up inside
I gotta let it out tonight
Shattered glass will cure my ills and make me feel alright

Gonna break it
And never stop running
Making nothing from something
Making nothing from something

Cut me for the lion's share
It's mindless, but I don't care
'Cause no matter what I say
I'm in another fight
Take more shit, I've had enough
Tonight I'm gonna rip it up
Broken windows cure my ills and make me feel alright

_______________________________________________

12. Forever And A Day

Tuning: EADG

Intro
1.
G|-------------------------------------|
D|-0000x----3333x-------------0000x----|
A|-------------------3333x-------------|
E|-------------------------------------|

2.
G|-------------------------------------|
D|-00000000-33333333----------00000000-|
A|-------------------33333333----------|
E|-------------------------------------|

Verse
"Look at me..."
3.
G|--------------------------------------------------------------------------|
D|-00000000-33333333----------00000000--00000000-33333333----------00000000-|
A|-------------------33333333-----------------------------33333333----------|
E|--------------------------------------------------------------------------|

Chorus
"If you've got the answer..."
4.
G|--------------------------------------------------------------------------|
D|-00000000-33333333----------00000000--00000000-33333333----------00000000-|
A|-------------------33333333-----------------------------33333333----------|
E|--------------------------------------------------------------------------|

Outro
"Woah..."
5.
G|----7-------10--------5--------7-|
D|-0-----003-------03--------0-----|
A|-------------------3-----33------|--x2
E|---------------------------------|

Verse
"I wonder why..."
6.
G|--------------------------------------------------------------------------|
D|-00000000-33333333----------00000000--00000000-33333333----------00000000-|
A|-------------------33333333-----------------------------33333333----------|
E|--------------------------------------------------------------------------|

Chorus
"If you've got the answer..."
7.
G|--------------------------------------------------------------------------|
D|-00000000-33333333----------00000000--00000000-33333333----------00000000-|
A|-------------------33333333-----------------------------33333333----------|
E|--------------------------------------------------------------------------|

Outro
"I would be patient..."
8.
G|--------------------------------------------------------------------------|
D|-33333333-----------------------------------------------------------------|
A|----------33333333-111111111-11111111-33333333-33333333-11111111-11111111-|
E|--------------------------------------------------------------------------|

9.
G|----7-------10--------5--------7-|
D|-0-----003-------03--------0-----|
A|-------------------3-----33------|--x2
E|---------------------------------|

Verse
"Lean on me..."
10.
G|--------------------------------------------------------------------------|
D|-00000000-33333333----------00000000--00000000-33333333----------00000000-|
A|-------------------33333333-----------------------------33333333----------|
E|--------------------------------------------------------------------------|

Chorus
"Yeah..."
11.
G|--------------------------------------------------------------------------|
D|-00000000-33333333----------00000000--00000000-33333333----------00000000-|
A|-------------------33333333-----------------------------33333333----------|
E|--------------------------------------------------------------------------|

PLay till fades...

Lyrics:

Look at me while I look at you
Seeing eye to eye is something we can never do
You try to tell me what is right
I may not know a lot but I know one thing

If you've got the answer
Then I don't want to know
If you've got the answer
Just keep it your own

I wonder why our world is ablaze
Sometimes I speak aloud to hear what people have to say
I try to have an open mind
But your brain and mouth must not be connected

If you've got the answer
Then I don't want to know
If you've got the answer
Just leave me alone

I would be patient but it takes so long
I don't want all this misinformation
All the words that you say
Lean on me while I lean on you
If we destroy each other
We might save a life or two
A little sun, a little shine
Separates us both by forever and a day

If you've got a vision
Then I don't want to see
If you've got a notion
Don't waste it on me

_____________________________________________________________________

END

+++++++++++++++++++++++++++++++++
| RaiLeff                       |
| Underground__Dora@Hotmail.Com |
+++++++++++++++++++++++++++++++++
comments
We did not receive enough feedback on this tab! Please rate:
1 2 3 4 5
I want to post or [tab]
guest
You may want to rate the tab now too:
select rating
Please do not post tabs as comments. Select "correction" instead!