Oops, an error
Loading. Please wait.

Ixnay On The Hombre Bass Tab

3,262 views 9 this week
1 commentread comment
1 2 3 4 5
excellent!
x 3
Autoscroll
+/-
esc
set tempo
stop
Contributor
Hey! There's an official Ultimate Guitar app which is ideal
for learning songs when you're away from computer. Get the app
WARNING: You are trying to view
                                    content from Ultimate-Guitar.com
                                    in an unauthorized application,
                                    which is prohibited.

                                    Please use an official Ultimate
                                    Guitar Tabs application for iPhone,
                                    iPad or Android to access legitimate
                                    chords, guitar, bass, and drum tabs
                                    from Ultimate-Guitar.com database.

                                    Type "ultimate guitar tabs" in Apple
                                    App Store's or Android Market's
                                    search to find the application.
++++++++++++++++++++++++++++++++++++++
| The Offspring- Ixnay On The Hombre |
++++++++++++++++++++++++++++++++++++++

Bass Tab, Album: "Ixnay On The Hombre" -- 1997
All Tabs By: RaiLeff
E-Mail: Underground__Dora@Hotmail.Com

This is an awesome CD with some
of the best songs 
I really like the drawings that come
along the lyrics with the CD

Keys:

/: Slide up
\: Slide down
p: Pull Off
h: Hammer on
x: Mute
~: Let ring

Tuning: EADG

Tracks:

1.  Disclaimer
2.  The Meaning Of Life
3.  Mota
4.  Me And My Old Lady
5.  Cool To Hate
6.  Leave It Behind
7.  Gone Away
8.  I Choose
9.  Intermission
10. All I Want
11. Way Down The Line
12. Dont Pick It Up
13. Amazed
14. Change The World

____________________________________________

1. Disclaimer

Tuning: EADG

"Ladies and gentlemen..."

1.
G|----------------2222-----------2222-2222----------------2222--------------------|
D|------2222-4444-----------2222----------------2222-4444----------2222-2222-2222-|
A|-4444----------------2222----------------4444---------------2222----------------|
E|--------------------------------------------------------------------------------|

2.
G|-2~--------0~----------------------------|
D|---------------------4~--------3~--------|
A|-----------------------------------------|
E|-----------------------------------------|

3.
G|----------------2222-----------2222-2222----------------2222--------------------|
D|------2222-4444-----------2222----------------2222-4444----------2222-2222-2222-|
A|-4444----------------2222----------------4444---------------2222----------------|
E|--------------------------------------------------------------------------------|

4.
G|-2~--------0~----------------------------|
D|---------------------4~--------3~--------|
A|-----------------------------------------|
E|-----------------------------------------|

5.
G|----------------2222-----------2222-2222-----------2222-2222-|
D|------2222-4444-----------2222----------------2222-----------|
A|-4444----------------2222----------------2222----------------|
E|-------------------------------------------------------------|

6.
G|---------------------2222-2222-2222-2----|
D|-----------2222-2222---------------------|
A|-2222-2222-------------------------------|
E|-----------------------------------------|

Lyrics:

Ladies and gentlemen
Welcome to the disclaimer
That's right, the disclaimer
This American apple pie institution
Known as parental discretion
Will cleanse any sense of innuendo or sarcasm
From the lyrics that might actually make you think
And will also insult your intelligence at the same time
So protect your family.
This album contains explicit depictions
Of things which are real.
These real things are commonly known as life.
So, if it sounds sarcastic, don't take it seriously.
If it sounds dangerous,
Do not try this at home or at all.
And if it offends you, just don't listen to it.

________________________________________________

2. The Meaning Of Life

Tuning: EADG

Intro
1.
G|-----------------------------------------------|
D|-00000-3-0---33333-3-0-3-55555/6-5-3-0~----3---|
A|-----------3---------------------------------3-|
E|-----------------------------------------------|

2.
G|-----------------------------------------------------------|
D|-00000-3-0---33333-3-0-3-55555/6-5-3-------------------3---|
A|-----------3-------------------------11111-11111-00000---3-|
E|-----------------------------------------------------------|

3.
G|-------------------------------------------------|
D|-00000-3-0---00000-3-0---00000-3-0---00000-3-0---|
A|-----------3-----------3-----------3-----------3-|
E|-------------------------------------------------|

Verse
"On my way..."
4.
G|------------------------------------------------------------------------------------------------|
D|-00000-00000-00000-00022-33333-33333-33333-33333------------------------------------------------|
A|-------------------------------------------------33333-33333-33333-33333-11111-11111-00000-1133-|
E|------------------------------------------------------------------------------------------------|

"I dont want it..."
5.
G|------------------------------------------------------------------------------------------------|
D|-00000-00000-00000-00022-33333-33333-33333-33333------------------------------------------------|
A|-------------------------------------------------33333-33333-33333-33333-11111-11111-00000-0000-|
E|------------------------------------------------------------------------------------------------|

Chorus
"Oh yeah, oh yeah..."
6.
G|-------------------------------------------------|
D|-00000-0000----------------------------33333-3---|
A|------------3-11111-1111-1-33333-33333---------3-|
E|-------------------------------------------------|

7.
G|---------------------------------------------------|
D|-00000-0000----------------------------------------|
A|------------3-11111-1111-1-33333-33333-00000-00003-|
E|---------------------------------------------------|

8.
G|-------------------------------------------------|
D|-00000-0000----------------------------33333-3---|
A|------------3-11111-1111-1-33333-33333---------3-|
E|-------------------------------------------------|

"Cant make it work your way..."
9.
G|----------------------------------------------|
D|--------------------------------------3--3--3-|
A|-11111-11111-11111-11111-33333-33333----3--3--|
E|----------------------------------------------|

Outro
10.
G|-----------------------------------------------|
D|-00000-3-0---33333-3-0-3-55555/6-5-3-0~----3---|
A|-----------3---------------------------------3-|
E|-----------------------------------------------|

11.
G|-----------------------------------------------------------|
D|-00000-3-0---33333-3-0-3-55555/6-5-3-------------------3---|
A|-----------3-------------------------11111-11111-00000---3-|
E|-----------------------------------------------------------|

Verse
"By the way..."
12.
G|------------------------------------------------------------------------------------------------|
D|-00000-00000-00000-00022-33333-33333-33333-33333------------------------------------------------|
A|-------------------------------------------------33333-33333-33333-33333-11111-11111-00000-1133-|
E|------------------------------------------------------------------------------------------------|

"And the bottom"
13.
G|------------------------------------------------------------------------------------------------|
D|-00000-00000-00000-00022-33333-33333-33333-33333------------------------------------------------|
A|-------------------------------------------------33333-33333-33333-33333-11111-11111-00000-0000-|
E|------------------------------------------------------------------------------------------------|

Chorus
"Oh yeah, oh yeah..."
14.
G|-------------------------------------------------|
D|-00000-0000----------------------------33333-3---|
A|------------3-11111-1111-1-33333-33333---------3-|
E|-------------------------------------------------|

15.
G|---------------------------------------------------|
D|-00000-0000----------------------------------------|
A|------------3-11111-1111-1-33333-33333-00000-00003-|
E|---------------------------------------------------|

16.
G|-------------------------------------------------|
D|-00000-0000----------------------------33333-3---|
A|------------3-11111-1111-1-33333-33333---------3-|
E|-------------------------------------------------|

"Cant make it work your way..."
17.
G|----------------------------------------------|
D|--------------------------------------3--3--3-|
A|-11111-11111-11111-11111-33333-33333----3--3--|
E|----------------------------------------------|

Bridge
18.
G|-------------------------------------------------------------33333-33333--5--5--5-|
D|-000-----------3-333-000-----------3-333-000-----------3-333----------------5--5--|
A|-----1-111-333-----------1-111-333-----------1-111-333----------------------------|
E|----------------------------------------------------------------------------------|

Chorus
"Oh yeah, oh yeah..."
19.
G|-------------------------------------------------|
D|-00000-0000----------------------------33333-3---|
A|------------3-11111-1111-1-33333-33333---------3-|
E|-------------------------------------------------|

20.
G|---------------------------------------------------|
D|-00000-0000----------------------------------------|
A|------------3-11111-1111-1-33333-33333-00000-00003-|
E|---------------------------------------------------|

21.
G|-------------------------------------------------|
D|-00000-0000----------------------------33333-3---|
A|------------3-11111-1111-1-33333-33333---------3-|
E|-------------------------------------------------|

"Cant make it work your way..."
22.
G|----------------------------------------------|
D|--------------------------------------3--3--3-|
A|-11111-11111-11111-11111-33333-33333----3--3--|
E|----------------------------------------------|

Outro
23.
G|-----------------------------------------------|
D|-00000-3-0---33333-3-0-3-55555/6-5-3-0~----3---|
A|-----------3---------------------------------3-|
E|-----------------------------------------------|

24.
G|-----------------------------------------------------------|
D|-00000-3-0---33333-3-0-3-55555/6-5-3-------------------3---|
A|-----------3-------------------------11111-11111-00000---3-|
E|-----------------------------------------------------------|

25.
G|----------------------------------------|
D|-00000-3-0---00000-3-0---00000-3-0---0x-|
A|-----------3-----------3-----------3----|
E|----------------------------------------|

Lyrics:

On the way
Trying to get where I'd like to say
I'm always feeling steered away
By someone trying to tell me
What to say and do
I don't want it
I gotta go find my own way
I gotta go make my own mistakes
Sorry man for feeling
Feeling the way I do
On yeah, Oh yeah
Open wide and they'll shove in
Their meaning of life
Oh yeah, Oh yeah
But not for me I'll do it on my own
Oh yeah, Oh yeah
Open wide and swallow their meaning of life
I can't make it work your way
Thanks but no thanks
By the way
I know your path has been tried and so
It may seem like the way to go
Me, I'd rather be found
Trying something new
And the bottom line
In all of this seems to say
There's no right and wrong way
Sorry if I don't feel like
Living the way you do

___________________________________________________________

3. Mota

Tuning: EADG

Intro
1.
G|---------------------------------------------------------------M-----|
D|---------------------------------------------------------------O-----|
A|---------------------------------------------------------------T-----|
E|-33-333-3-3-3333-3-3-333-3x--------33-333-3-3-3333-3-3-333-3x--A-----|

2.
G|-----------------------------------------------------------------------------------------|
D|-----------------------11-111-1-----------------------------------11-111-1---------------|
A|------------00-1-0----------------00-1-0----------------00-1-0----------------00-1-0-----|
E|-33-333-333--------3-1---------11--------3-1-33-333-333--------3-1---------11--------3-1-|

Verse
"Everyday well its the same..."
3.
G|------------------------------------------------------------------|
D|-----------------11-111-1------------------------11-111-1---------|
A|------------------------------------------------------------------|
E|-33-333-333-333-3--------11-111-133-333-333-333-3--------11-111-1-|

Pre-Chorus
"Watching reruns on my Tv..."
4.
G|-----------------------------------------------------------------------------------------|
D|-----------------------11-111-1-----------------------------------11-111-1---------------|
A|------------00-1-0----------------00-1-0----------------00-1-0----------------00-1-0-----|
E|-33-333-333--------3-1---------11--------3-1-33-333-333--------3-1---------11--------3-1-|

Chorus
"Your memory's gone and so is your life..."
5.
G|-------------------------------------------------------------------------|
D|-------------------------------------------------------------------------|
A|----------33333333----------------------------33333333-------------------|
E|-11111111----------33333333-33333333-11111111----------33333333-33333333-|

6.
G|-------------------------------------------------------|
D|-------------------------------------------------------|
A|----------33333333----------------------------33333333-|
E|-11111111----------33333333-33333333-11111111----------|

Outro
7.
G|-----------------------------M------|
D|-----------------------------O------|
A|-----------------------------T------|
E|-33-333-3-3-3333-3-3-333-3x--A------|

8.
G|-----------------------------------------------------------------------------------------|
D|-----------------------11-111-1-----------------------------------11-111-1---------------|
A|------------00-1-0----------------00-1-0----------------00-1-0----------------00-1-0-----|
E|-33-333-333--------3-1---------11--------3-1-33-333-333--------3-1---------11--------3-1-|

Verse
"Im driving down to the barrio..."
9.
G|------------------------------------------------------------------|
D|-----------------11-111-1------------------------11-111-1---------|
A|------------------------------------------------------------------|
E|-33-333-333-333-3--------11-111-133-333-333-333-3--------11-111-1-|

Pre-Chorus
"I take a hit but it smells like a clove..."
10.
G|-----------------------------------------------------------------------------------------|
D|-----------------------11-111-1-----------------------------------11-111-1---------------|
A|------------00-1-0----------------00-1-0----------------00-1-0----------------00-1-0-----|
E|-33-333-333--------3-1---------11--------3-1-33-333-333--------3-1---------11--------3-1-|

Chorus
"Your memory's gone and so is your life..."
11.
G|-------------------------------------------------------------------------|
D|-------------------------------------------------------------------------|
A|----------33333333----------------------------33333333-------------------|
E|-11111111----------33333333-33333333-11111111----------33333333-33333333-|

12.
G|-------------------------------------------------------------------------|
D|----------------------------------------------------------------33333333-|
A|----------33333333----------------------------33333333-11111111----------|
E|-11111111----------33333333-33333333-11111111----------------------------|

Outro
13.
G|-----------------------------M------|
D|-----------------------------O------|
A|-----------------------------T------|
E|-33-333-3-3-3333-3-3-333-3x--A------|

14.
G|-----------------------------------------------------------------------------------------|
D|-----------------------11-111-1-----------------------------------11-111-1---------------|
A|------------00-1-0----------------00-1-0----------------00-1-0----------------00-1-0-----|
E|-33-333-333--------3-1---------11--------3-1-33-333-333--------3-1---------11--------3-1-|

Chorus
"Your memory's gone and so is your life..."
15.
G|-------------------------------------------------------------------------|
D|-------------------------------------------------------------------------|
A|----------33333333----------------------------33333333-------------------|
E|-11111111----------33333333-33333333-11111111----------33333333-33333333-|

"Your enemy's you..."
16.
G|-----------------------------------------------------------------------------|
D|-----------------------------------------------------------------------------|
A|-----------333~-333~------------------------------33333333-------------------|
E|-111~-111~-----------333~-333~-333~-333~-11111111----------33333333-33333333-|

"Yeah loosing out might be ok..."
17.
G|-------------------------------------------------|
D|-------------------------------------------------|
A|----------33333333-------------------------------|
E|-11111111----------33-333-3-3-3333-3-3-333-3x----|

Lyrics:

Everyday, well it's the same
That bong that's on the table starts to call
My name
I take a hit and zone out again
I'll be paranoid and hungry by a quarter to ten
Watching reruns on my TV
I'm laughing off my ass at Three's Company
I don't know if I'm understood
But hearing Jimmy Buffett never sounded so good

Your memory's gone and so is your life 
Mota Boy
But losing out just never felt so right
Your enemy's you and so is your life 
Mota Boy
But losing out might feel okay all night
Mota!

I'm driving down to the barrio
Going 15 miles an hour cause I'm already stoned
Give the guy a twenty and wait in the car
He tosses me a baggie then he runs real far
I take a hit but it smells like a clove
Oh fuck I got a baggie of oregano
This ritual is destroying me
But I guess it could be worse
It could be methedrine

____________________________________________

4. Me And My Old Lady

I prefer to play this song in standard tuning
but its really on Drop D (DADG)
if you wanna change it to Drop D then instead of playing
the normal reef all the time, instead play:

G|----------------------|
D|----------------------| And you see the rest
A|-----------0----------|
D|-22-0-222-3-3-22-0-22-|



"She aint no ball and chain..."

Tuning: EADG

Intro
1.
G|-------------2------------9\0------------2------------9-|
D|---22-0-222-3-3-22-0-222-3-----22-0-222-3-3-22-0-222-3--|
A|--------------------------------------------------------|
E|-0~-----------------------------------------------------|

2.
G|-----------2----------------------2--------------|
D|-22-0-222-3-3-22-0-22---22-0-222-3-3-22-0-22-----|
A|-------------------------------------------------|
E|----------------------------------------------0~-|

Verse
"Me and my old lady...Lay in bed all day..."
3.
G|-----------2----------------------2---------------------------------------------2------------|
D|-22-0-222-3-3-22-0-22---22-0-222-3-3-22-0-22--------------------------22-0-222-3-3-22-0-22---|
A|---------------------------------------------------------5-----------------------------------|
E|-----------------------------------------------55-3-555-6-6-55-3-55--------------------------|

4.
G|-----------2----------------------2---------------------------------------------2------------|
D|-22-0-222-3-3-22-0-22---22-0-222-3-3-22-0-22--------------------------22-0-222-3-3-22-0-22---|
A|---------------------------------------------------------5-----------------------------------|
E|-----------------------------------------------55-3-555-6-6-55-3-55--------------------------|

"Me and my old lady...Sit and sip on wine..."
5.
G|-----------2----------------------2---------------------------------------------2------------|
D|-22-0-222-3-3-22-0-22---22-0-222-3-3-22-0-22--------------------------22-0-222-3-3-22-0-22---|
A|---------------------------------------------------------5-----------------------------------|
E|-----------------------------------------------55-3-555-6-6-55-3-55--------------------------|

Chorus
"So what if we're making a scene now..."
6.
G|-------------------------------------------------|
D|-------------------------------------------------|
A|-5777557x----3555335x-----------------777--7x----|--x3
E|-------------------------3555335x----0---00------|

"So if you want, go on and stare..."
7.
G|-------------------------------------2----------------------2------------|
D|---------------------------22-0-222-3-3-22-0-22---22-0-222-3-3-22-0-22---|
A|-7-7-7-7-5-5-5-5-0~----------------------Cus-we-dont-care----------------|
E|-------------------------------------------------------------------------|

Outro
"She aint no ball and chain..."
8.
G|-----------2----------------------2----------------------2----------------------2------------|
D|-22-0-222-3-3-22-0-22---22-0-222-3-3-22-0-22---22-0-222-3-3-22-0-22---22-0-222-3-3-22-0-22---|
A|---------------------------------------------------------------------------------------------|
E|---------------------------------------------------------------------------------------------|

"Me and my old lady...Suck each other dry..."
9.
G|-----------2----------------------2---------------------------------------------2------------|
D|-22-0-222-3-3-22-0-22---22-0-222-3-3-22-0-22--------------------------22-0-222-3-3-22-0-22---|
A|---------------------------------------------------------5-----------------------------------|
E|-----------------------------------------------55-3-555-6-6-55-3-55--------------------------|

"Nothing wrong with our heads..."
10.
G|-----------2----------------------2---------------------------------------------2------------|
D|-22-0-222-3-3-22-0-22---22-0-222-3-3-22-0-22--------------------------22-0-222-3-3-22-0-22---|
A|---------------------------------------------------------5-----------------------------------|
E|-----------------------------------------------55-3-555-6-6-55-3-55--------------------------|

Chorus
"So what if we're making a scene now..."
11.
G|-------------------------------------------------|
D|-------------------------------------------------|
A|-5777557x----3555335x-----------------777--7x----|--x3
E|-------------------------3555335x----0---00------|

"So if you want, go on and stare..."
12.
G|-------------------------------------2----------------------2------------|
D|---------------------------22-0-222-3-3-22-0-22---22-0-222-3-3-22-0-22---|
A|-7-7-7-7-5-5-5-5-0~----------------------Cus-we-dont-care----------------|
E|-------------------------------------------------------------------------|

Outro
"She aint no ball and chain..."
13.
G|-----------2----------------------2----------------------2----------------------2------------|
D|-22-0-222-3-3-22-0-22---22-0-222-3-3-22-0-22---22-0-222-3-3-22-0-22---22-0-222-3-3-22-0-22---|
A|---------------------------------------------------------------------------------------------|
E|---------------------------------------------------------------------------------------------|

Bridge
"ooooh...."
14.
G|-----------2----------------------2---------------------------------------------2------------|
D|-22-0-222-3-3-22-0-22---22-0-222-3-3-22-0-22--------------------------22-0-222-3-3-22-0-22---|
A|---------------------------------------------------------5-----------------------------------|--x2
E|-----------------------------------------------55-3-555-6-6-55-3-55--------------------------|

Outro
15.
G|---------------------------------------------|
D|-2-0~----4-5-7-------------------------------|
A|---------------0~----4-5-7-------------------|
E|---------------------------0~----------------|

Lyrics:

Me and my old lady
Lay in bed all day
And when I say I love her
Well she rolls the other way
But really she don't mean it
Everything she says
Still if I believe in love
There's nothing wrong
There's nothing wrong with my head

Me and my old lady
Sit and sip on wine
And when she says she loves me
Will I say that love is blind
But really I don't mean it
Everything I say
Still if she believes in love
There's nothing wrong
There's nothing wrong with her head

So what if we're making a scene now
You know she don't give a shit
When she's pawin' and grabbin' on me now
You know I don't mind a bit
It's all good and we
Ain't gonna change now
The world is unaware
So if you want to go on and stare
Cause we don't care

She ain't no ball and chain
Me and my old lady
Suck each other dry
And when in that position
I'm the luckiest man alive
Quenching our libidos
Passing time away
Now that I believe in love
There's nothing wrong
There's nothing wrong with my head

_________________________________________________________________

5. Cool To Hate

Tuning: EADG

0:11
Pre-Chorus
"I hate teachers..."
1.
G|-------------------------------------------------------------------------------|
D|-3~------3-1~------1---------------------3~------3-1~------1-------------------|
A|-------3---------1---4~------4-6~------6-------3---------1---11111111-33333333-|
E|---------------------------4---------4-----------------------------------------|

Chorus
"Its cool to hate..."
2.
G|----------------------------------------------------------------------------------|
D|-333-------111-----------------111--------333-------111-----------------111-------|
A|---------------11111-444-----------11111----------------11111-444-----------11111-|
E|-----44444---------------44444----------------44444---------------44444-----------|

"Dont like nothing and I like that fine..."
3.
G|-----------------------------------------|
D|-----------111-----------------111-------|
A|-444-----------11111-444-----------11111-|
E|-----44444---------------44444-----------|

Outro
4.
G|---------------------------------------------|
D|-33x------3-11x------1-33x------3-11x------1-|
A|--------3----------1----------3----------1---|
E|---------------------------------------------|

Verse
"Im always thinking bad..."
5.
G|-----------------------------------------------------------------------------------------|
D|-33x------3-11x------1-33x------3-11x------1-33x------3-11x------1-33x------3-11x------1-|
A|--------3----------1----------3----------1----------3----------1----------3----------1---|
E|-----------------------------------------------------------------------------------------|

Pre-Chorus
"I hate the jocks and..."
6.
G|-------------------------------------------------------------------------------|
D|-3~------3-1~------1---------------------3~------3-1~------1-------------------|
A|-------3---------1---4~------4-6~------6-------3---------1---11111111-33333333-|
E|---------------------------4---------4-----------------------------------------|

Chorus
"Its cool to hate..."
7.
G|----------------------------------------------------------------------------------|
D|-333-------111-----------------111--------333-------111-----------------111-------|
A|---------------11111-444-----------11111----------------11111-444-----------11111-|
E|-----44444---------------44444----------------44444---------------44444-----------|

"Liking something's just a waste of time..."
8.
G|-----------------------------------------|
D|-----------111-----------------111-------|
A|-444-----------11111-444-----------11111-|
E|-----44444---------------44444-----------|

Bridge
9.
G|-------------------------------------------------------------------------------------------|
D|-33-xx-33-xx-11-xx-11-xx-33-xx-33-xx-11-xx-11-xx-33-xx-33-xx-11-xx-11-xx-------------------|
A|-------------------------------------------------------------------------11111111-33333333-|
E|-------------------------------------------------------------------------------------------|

"Its cool to hate..."
10.
G|---------------------------------------------------------------------------------|
D|-333-------------------------------------333-------------------------------------|
A|-----------666-------444-------666-----------------666-------444-------666-------|
E|-----44444-----66666-----44444-----66666-----44444-----66666-----44444-----66666-|

"Ill cut you down and give you lip..."
11.
G|---------------------------------------------------------------------------------|
D|-333-------------------------------------333-------------------------------------|
A|-----------666-------444-------666-----------------666-------444-------666-------|
E|-----44444-----66666-----44444-----66666-----44444-----66666-----44444-----66666-|

"Being positive's so uncool..."
12.
G|-----------------------------------------|
D|-----------------------------------------|
A|-444-------666-------444-------666-------|
E|-----44444-----66666-----44444-----66666-|

13.
G|-------------------------------|
D|-3~----1-3~----3-1~----1-3~----|
A|-------------------------------|
E|-------------------------------|

"I hate the jocks and..."
14.
G|-------------------------------------------------------------------------------|
D|-3~------3-1~------1---------------------3~------3-1~------1-------------------|
A|-------3---------1---4~------4-6~------6-------3---------1---11111111-33333333-|
E|---------------------------4---------4-----------------------------------------|

Chorus
"Its cool to hate..."
15.
G|----------------------------------------------------------------------------------|
D|-333-------111-----------------111--------333-------111-----------------111-------|
A|---------------11111-444-----------11111----------------11111-444-----------11111-|
E|-----44444---------------44444----------------44444---------------44444-----------|

"Dont like nothing and I like that fine..."
16.
G|-----------------------------------------|
D|-----------111-----------------111-------|
A|-444-----------11111-444-----------11111-|
E|-----44444---------------44444-----------|

Outro
17.
G|------------------------------------------------------------|
D|-3x---------------------------------------------------------|
A|------------------------------------------------------------|
E|------------------------------------------------------------|

Lyrics:

I hate a lot of things
I hate a lot of people that are lame
I like to hate stuff
Cause then I don't have to try and make a change
I hate teachers
I hate school
I hate the cheerleaders
And anyone who's cool
I hate the office
I hate the Quad
Don't wanna learn nothing
I want to be a slob

It's cool to hate
It's cool to hate
I don't like nothing and I like that fine
It's cool to hate
It's cool to hate
I don't like nothing and I like that fine
I don't like nothing and like that fine
Yeah I hate everything
I even hate you too
So fuck you

I'm always thinking bad
I never have nothing good to say
I'd rather tear things down
Than build them up
It's easier that way
I hate the jocks
And I hate the geeks
I hate the trendies
But I also hate the freaks
I hate Dr. Martens
And Muscle T's
I'm only happy when I'm in my misery

I'll cut you down and give you lip
Being positive's so unhip
I'll cut you down cause I'm a fool
Being positive's so uncool

_______________________________________________

6. Leave It Behind

Tuning: EADG

Intro
1.
G|----------------------------|
D|----------------------------|
A|-77-77-77-777--77-77-77-777-|
E|----------------------------|

Verse
"Rage burns cant push it aside now..."
2.
G|---------------------------------------------------------------------------------------|
D|---------------------------------------------------------------------------------------|
A|-7-7777-7-7777-5-5555-5-7777--7-7777-7-7777-5-5555---------7-7777-7-7777-5-5555-5-7777-|
E|---------------------------------------------------7-7777------------------------------|

"Leave it behind..."
3.
G|-----------------------------------------------------------|
D|-----------------------------------------------------------|
A|-3-----5-77-77-77-777--3-----5--77-77-77-777--77-77-77-777-|
E|---3-5-------------------3-5-------------------------------|

Verse
"What a surprise you're fucked with again yeah..."
4.
G|---------------------------------------------------------------------------------------|
D|---------------------------------------------------------------------------------------|
A|-7-7777-7-7777-5-5555-5-7777--7-7777-7-7777-5-5555---------7-7777-7-7777-5-5555-5-7777-|
E|---------------------------------------------------7-7777------------------------------|

"Leave it behind..."
5.
G|---------------------------------------------|
D|---------------------------------------------|
A|-3-----5-77-77-77-777--3-----5--77-77-77-777-|
E|---3-5-------------------3-5-----------------|

Chorus
"I dont know where it'll end..."
6.
G|------------------------------------------------------------------------------------------|
D|------------------------------------------------------------------------------------------|
A|------------5555555555-7777777777-3333333333------------5555555555-7777777777-33333-55555-|
E|-3333333333----------------------------------3333333333-----------------------------------|

Outro
7.
G|---------------------------------------------------------|
D|---------------------------------------------------------|
A|-77-77-77-777--77-77-77-777--77-77-77-777--77-77-77-777--|
E|---------------------------------------------------------|

Verse
"What a surprise you're fucked with again yeah..."
8.
G|---------------------------------------------------------------------------------------|
D|---------------------------------------------------------------------------------------|
A|-7-7777-7-7777-5-5555-5-7777--7-7777-7-7777-5-5555---------7-7777-7-7777-5-5555-5-7777-|
E|---------------------------------------------------7-7777------------------------------|

"Leave it behind..."
9.
G|---------------------------------------------|
D|---------------------------------------------|
A|-3-----5-77-77-77-777--3-----5--77-77-77-777-|
E|---3-5-------------------3-5-----------------|

Chorus
"I dont know where it'll end..."
10.
G|------------------------------------------------------------------------------------------|
D|------------------------------------------------------------------------------------------|
A|------------5555555555-7777777777-3333333333------------5555555555-7777777777-33333-55555-|
E|-3333333333----------------------------------3333333333-----------------------------------|

Outro
11.
G|---------------------------------------------------------|
D|---------------------------------------------------------|
A|-77-77-77-777--77-77-77-777--77-77-77-777--77-77-77-777--|
E|---------------------------------------------------------|

Chorus
"I dont know where it'll end..."
12.
G|------------------------------------------------------------------------------------------|
D|------------------------------------------------------------------------------------------|
A|------------5555555555-7777777777-3333333333------------5555555555-7777777777-33333-55555-|
E|-3333333333----------------------------------3333333333-----------------------------------|

Outro
13.
G|----------------------------------------------|
D|----------------------------------------------|
A|-77-77-77-777--77-77-77-777--77-77-77-777--7x-|
E|----------------------------------------------|

Lyrics:

Rage burns can't push it aside now
Can't forgive this grudge is alive now
All the rage eats you up inside
Can you leave it behind
What a surprise -
You're fucked with again Yeah
It's a way of life you need to get over
All the rage just eats you alive
Can you leave it behind
I don't know where it'll end
The sun has set
And I can't be friends
I don't know if I can forgive
The day is long
But you were so dead wrong

____________________________________________

7. Gone Away

Tuning: EADG

Intro
1.
G|-------------------------------------------------------------------------|
D|-33333333----------11111113----------33333333----------11111113----------|
A|----------------------------11111111----------------------------11111111-|
E|----------44444444----------------------------44444444-------------------|

2.
G|-------------------------------------|
D|-------------------11111113----------|
A|-----------------3----------111111---|
E|-11111113-4444444-----------------43-|

Verse
"Maybe in another life..."
3.
G|-------------------------------------------------------------------------|
D|-------------------11111113----------------------------11111113----------|
A|-----------------3----------111111-------------------3----------11111111-|
E|-11111113-4444444-----------------43-11111113-4444444--------------------|

Chorus
"And it feels..."
4.
G|-------------------------------------------------------------------------|
D|-33333333----------11111113----------33333333----------11111113----------|
A|----------------------------11111111----------------------------11111111-|
E|----------44444444----------------------------44444444-------------------|

Outro
5.
G|-------------------------------------------------------------------------|
D|-33333333----------11111113----------33333333----------11111113----------|
A|----------------------------11111111----------------------------11111111-|
E|----------44444444----------------------------44444444-------------------|

Verse
"Leaving flowers on your grave..."
6.
G|-------------------------------------------------------------------------|
D|-------------------11111113----------------------------11111113----------|
A|-----------------3----------111111-------------------3----------111111---|
E|-11111113-4444444-----------------43-11111113-4444444-----------------43-|

Pre-Chorus
"I reach to the sky..."
7.
G|-------------------------------------------------------------------------|
D|-------------------11111113----------------------------11111113----------|
A|-----------------3----------111111-------------------3----------11111111-|
E|-11111113-4444444-----------------43-11111113-4444444--------------------|

Chorus
"And it feels..."
8.
G|-------------------------------------------------------------------------|
D|-33333333----------11111113----------33333333----------11111113----------|
A|----------------------------11111111----------------------------11111111-|
E|----------44444444----------------------------44444444-------------------|

Outro
"Gone away..."
9.
G|-------------------------------------------------------------------------|
D|-33333333----------11111113----------33333333----------11111113----------|
A|----------------------------11111111----------------------------11111111-|
E|----------44444444----------------------------44444444-------------------|

Bridge
10.
G|--------------------------------------------------------------------------|
D|-----------------1~----3-------------------------1~-1-3-------------------|
A|---------------3---------1~--------------------3--------11111111-11111111-|
E|-1~----3-4~--------------------4-1~----3-4~-------------------------------|

"Woah..."
11.
G|-------------------------------------------------------------------------|
D|-33333333----------11111113----------33333333----------11111113----------|
A|----------------------------11111111----------------------------11111111-|
E|----------44444444----------------------------44444444-------------------|

Pre-Chorus"
"I reach to the sky..."
12.
G|-------------------------------------------------------------------------|
D|-------------------11111113----------------------------11111113----------|
A|-----------------3----------111111-------------------3----------11111111-|
E|-11111113-4444444-----------------43-11111113-4444444--------------------|

Chorus
"And it feels..."
13.
G|-------------------------------------------------------------------------|
D|-33333333----------11111113----------33333333----------11111113----------|
A|----------------------------11111111----------------------------11111111-|
E|----------44444444----------------------------44444444-------------------|

Outro
"Gone away..."
14.
G|-------------------------------------------------------------------------|
D|-33333333----------11111113----------33333333----------11111113----------|
A|----------------------------11111111----------------------------11111111-|
E|----------44444444----------------------------44444444-------------------|

"Yeah hoooh..."
15.
G|--------------------------------------------------------|
D|-33333333----------11111113-----------------------------|
A|----------------------------11111111-11111111-----------|
E|----------44444444----------------------------1~--------|

Lyrics:

Maybe in another life
I could find you there
Pulled away before your time
I can't deal it's so unfair

And it feels
And it feels like
Heaven's so far away
And it feels
Yeah it feels like
The world has grown cold
Now that you've gone away

Leaving flowers on your grave
Show that I still care
But black roses and Hail Mary's
Can't bring back what's taken from me
I reach to the sky
And call out your name
And if I could trade
I would

And it feels
And it feels like
Heaven's so far away
And it stings
Yeah it stings now
The world is so cold
Now that you've gone away

___________________________________________________

8. I Choose

Tuning: EADG

Intro
1.
G|-------------------------|
D|-------------------------|
A|-5x-5x-5x----------2-2-3-|
E|-------------1-1-3-------|

2.
G|--------------------------------------------------|
D|-------------3-3-5--------------------------------|
A|-5-3-5-0-5-0-------2-2-3--5-3-5-0-5-0-------2-2-3-|
E|--------------------------------------1-1-3-------|

Verse
"Look at me I'm falling..."
3.
G|--------------------------------------------------|
D|-------------3-3-5--------------------------------|
A|-5-3-5-0-5-0-------2-2-3--5-3-5-0-5-0-------2-2-3-|--x4
E|--------------------------------------1-1-3-------|

Chorus
"This is life..."
4.
G|--------------------------------------------------------------------|
D|-0-0-0-0-3345------0-0-0-0-3345------0-0-0-0-3-3-5-5----------------|
A|--------------2234--------------2234-----------------1-1-1-1-0~---0-|
E|--------------------------------------------------------------------|

Outro
5.
G|--------------------------------------------------|
D|-------------3-3-5--------------------------------|
A|-5-3-5-0-5-0-------2-2-3--5-3-5-0-5-0-------2-2-3-|
E|--------------------------------------1-1-3-------|

Verse
"Look at me Im swollen..."
6.
G|--------------------------------------------------|
D|-------------3-3-5--------------------------------|
A|-5-3-5-0-5-0-------2-2-3--5-3-5-0-5-0-------2-2-3-|--x4
E|--------------------------------------1-1-3-------|

Chorus
"This is life..."
7.
G|--------------------------------------------------------------------|
D|-0-0-0-0-3345------0-0-0-0-3345------0-0-0-0-3-3-5-5----------------|
A|--------------2234--------------2234-----------------1-1-1-1-0~---0-|
E|--------------------------------------------------------------------|

Outro
8.
G|--------------------------------------------------|
D|-------------3-3-5--------------------------------|
A|-5-3-5-0-5-0-------2-2-3--5-3-5-0-5-0-------2-2-3-|
E|--------------------------------------1-1-3-------|

9.
G|----------------------------------------------|
D|-------------3-3-5----------------------------|
A|-5-3-5-0-5-0-------2-2-3--5-3-5-0-5-0---------|
E|--------------------------------------1-1-3-3-|

Bridge
"Dont know who made this all come true..."
10.
G|-----------------------------------------|
D|-----------------------------------------|
A|-0000-0000-3333------5555-5555-5555-5555-|
E|----------------3333---------------------|

"Now while youre here..."
11.
G|-----------------------------------------------------------|
D|-----------------------------------------------------------|
A|-0000-0000-3333------1111-1111-1111-1111-0000-0000-0-0-0-0-|
E|----------------3333---------------------------------------|

12.
G|-------------------------|
D|-------------------------|
A|-5x-5x-5x----------2-2-3-|
E|-------------1-1-3-------|

13.
G|--------------------------------------------------|
D|-------------3-3-5--------------------------------|
A|-5-3-5-0-5-0-------2-2-3--5-3-5-0-5-0-------2-2-3-|
E|--------------------------------------1-1-3-------|

Verse
"Now if I wasnt such a weenie..."
14.
G|--------------------------------------------------|
D|-------------3-3-5--------------------------------|
A|-5-3-5-0-5-0-------2-2-3--5-3-5-0-5-0-------2-2-3-|--x4
E|--------------------------------------1-1-3-------|

Chorus
"This is life..."
15.
G|--------------------------------------------------------------------|
D|-0-0-0-0-3345------0-0-0-0-3345------0-0-0-0-3-3-5-5----------------|
A|--------------2234--------------2234-----------------1-1-1-1-0~-----|
E|--------------------------------------------------------------------|

"Choose..."
16.
G|-------------------------------------------------------|
D|-------------------------------------------------------|
A|-1-1-1-1-0~--------1-1-1-1-0~----------5~--------------|
E|----------------------------------And-I-Choose---------|

Lyrics:

Look at me I'm fallin'
Off of a cliff now
I can still hear my mama yelling No No No
But the words mean nothing
Can't catch up to me now
And the view is so beautiful
All the way down
When I was a little boy
Suckin' juice from a bottle
Believing my perceptions were oh so real
But I didn't know nothing
Still knowing nothing
Was just enough for me to know the way I feel
This is life
What a fucked up thing we do
What a nightmare come true
Or a playground if we choose
And I choose

Look at me I'm swollen
Like a banana fish now
I'm never gonna make it out of my hole
But I keep on laughing
Doesn't really matter
There's dozens of reasons for explaining my soul
When I was a teenager
Suckin' booze with the Vatos
Discussing who was gonna live to be 21
They said they wouldn't make it
They didn't make it
We're all naked when the day is said and done
This is life
What a fucked up thing we do
What a nightmare come true
Or a playground if we choose
And I choose

Don't know who made this all come true
But now while you're here
You just gotta do what you gotta do
Now if I wasn't such a weenie
Do you think you'd still love me
Pretending I'm an airplane on the living
Room floor
But like a lovely generator
You stand right by me
And if words were wisdom I'd be talking
Even more
So I keep on falling
As I'm looking back above me
Watching as my mama just becomes a little dot
Now I'm like DeNiro
I'm amarillo
And I'll never know when I hit the ground

_______________________________________________

9. Intermission

Tuning: EADG

"Welcome to Intermission..."

1.
G|-3---------3-3---------------------------0-1-3---------3-3---------|
D|----3-1--1-----3-1----6--5-3--3-6-6-5-3---------3-1--1-----3-1-5-6-|
A|-------------------------------------------------------------------|
E|-------------------------------------------------------------------|

2.
G|--------------------------------------------------------------------------|
D|-0--0-3-5-5--0--0-3-5-5-------3-5-5-------3-5-5--0--0-3-5-5--0--0-3-5-3---|
A|-------------------------3--3--------3--3-------------------------------3-|
E|--------------------------------------------------------------------------|

3.
G|-3--3-----1-3--3------3--3-----1-3--------|
D|------3-3--------3---------3-3-----0--0-5-|
A|------------------------------------------|
E|------------------------------------------|

4.
G|-1-1---------------|
D|-------------1-0-6-|
A|-----3-3-1-1-------|
E|-------------------|

________________________________________________

10. All I Want

Tuning: EADG

"Ok
Ya ya ya ya ya..."

Intro
1.
G|------------------------------------22---|
D|-444-2444-2000-0222-2444-2444-2000-0--22-|
A|-----------------------------------------|
E|-----------------------------------------| 

Verse
"Day after day..."
2.
G|-------------------------------------22----------------------------------------22---|
D|------------0000-2222------------00-0--22------------0000-2222------------00-0---22-|
A|------------------------------------------------------------------------------------|
E|-22-0-2~--------------22-0-2~-------------22-0-2~--------------22-0-2~--------------|

Pre-Chorus
"So back of your rules..."
3.
G|-----------------------------------------------------------------|
D|-44444-2-00000---------0-22222-2-44444-2-00000---------0-22222-2-|
A|---------------2-00000-------------------------2-00000-----------|
E|-----------------------------------------------------------------|

Chorus
"Its all I want..."
4.
G|-----------------------------------------------------------------|
D|-44444-2-00000---------0-22222-2-44444-2-00000---------0-22222-2-|
A|---------------2-00000-------------------------2-00000-----------|
E|-----------------------------------------------------------------|

Outro
5.
G|------------------------------------22---|
D|-444-2444-2000-0222-2444-2444-2000-0--22-|
A|-----------------------------------------|
E|-----------------------------------------| 

Verse
"How many times..."
6.
G|-------------------------------------22----------------------------------------22---|
D|------------0000-2222------------00-0--22------------0000-2222------------00-0---22-|
A|------------------------------------------------------------------------------------|
E|-22-0-2~--------------22-0-2~-------------22-0-2~--------------22-0-2~--------------|

Pre-Chorus
"So back of your rules..."
7.
G|-----------------------------------------------------------------|
D|-44444-2-00000---------0-22222-2-44444-2-00000---------0-22222-2-|
A|---------------2-00000-------------------------2-00000-----------|
E|-----------------------------------------------------------------|

Chorus
"Its all I want..."
8.
G|-----------------------------------------------------------------|
D|-44444-2-00000---------0-22222-2-44444-2-00000---------0-22222-2-|
A|---------------2-00000-------------------------2-00000-----------|
E|-----------------------------------------------------------------|

Bridge
"I said it before..."
9.
G|-----------------------------------------------------------------------|
D|-00-0-2x----44-4-2x----00-0-22-00000000-000000000----------------------|
A|--------------------------------------------------44444444-44-22-00----|
E|--------------------------------------------------------------------44-|

Pre-Chorus
"So back of your rules..."
10.
G|-----------------------------------------------------------------|
D|-44444-2-00000---------0-22222-2-44444-2-00000---------0-22222-2-|
A|---------------2-00000-------------------------2-00000-----------|
E|-----------------------------------------------------------------|

Chorus
"Its all I want..."
11.
G|---------------------------------------------------------------------|
D|-44444-2-00000-2-44444-2-00000-2-44444-2-00000---------0-22-2-2-2-4x-|
A|-----------------------------------------------2-00000---------------|
E|---------------------------------------------------------------------|

Lyrics:

Day after day your home life's a wreck The powers that be just
Breathe down your neck
You get no respect You get no relief
You gotta speak up
And yell out your peace

So back off your rules
Back off your jive
Cause I'm sick of not living To stay alive
Leave me alone, I'm not asking a lot
I just don't want to be controlled

That's all I want
All I want

How many times is it gonna take
Till someone around you hears what you say
You've tried being cool, You feel like a lie
You've played by their rules Now it's their turn to try

I said it before
I'll say it again
If you could just listen
Then it might make sense

______________________________________________________

11. Way Down The Line 

Tuning: EADG

Intro
"Nothing changes cause its all the same..."
1.
G|-------------------------------------------------|
D|-------------------------------------------------|
A|-5~----------5~--------0~--5~----0~----5~--------|
E|-------3~----------3~----------------------------|  

2.
G|-----------------------------|
D|-----------------------------|<- This is the way to play it
A|-35535x--------35535x--------|
E|-----------------------------|  

3.
G|-----------------------------|
D|---------355355-------355355-|<- But I prefer this one
A|-35535x--------35535x--------| (Even though theres no bass
E|-----------------------------|  on '355355')

Verse
"There is a chain thats never broken..."
4.
G|--------------------------------------------------------|
D|--------------------------------------------------------|
A|-35535x--------35535x-------35535x--------35535x--------|
E|--------------------------------------------------------| 

Pre-Chorus
"An angry man gets drunk..."
5.
G|---------------------------------------------------------|
D|---------------------------------------------------------|
A|-55555555----------555555555----------55555555------0000-|
E|----------33333333-----------33333333----------3333------|

Chorus
"Nothing changes cause its all the same..."
6.
G|-------------------------------------------------------|
D|-------------------------------------------------------|
A|-55555555----------55555555------0000-55555555-0000000-|
E|----------33333333----------3333-----------------------|

Outro
7.
G|-----------------------------|
D|-----------------------------|
A|-35535x--------35535x--------|
E|-----------------------------| 

Verse
"At 17 Shannon is pregnant..."
8.
G|--------------------------------------------------------|
D|--------------------------------------------------------|
A|-35535x--------35535x-------35535x--------35535x--------|
E|--------------------------------------------------------| 

Pre-Chorus
"The kid is never gonna have a dad..."
9.
G|---------------------------------------------------------|
D|---------------------------------------------------------|
A|-55555555----------555555555----------55555555------0000-|
E|----------33333333-----------33333333----------3333------|

Chorus
"Nothing changes cause its all the same..."
10.
G|-------------------------------------------------------------------------|
D|-------------------------------------------------------------------------|
A|-55555555----------55555555------0000-55555555-0000000-55555555-55555555-|--x2
E|----------33333333----------3333-----------------------------------------|

Bridge
"And welfare moms have kids on walfare..."
11.
G|---------------------------------------------------------------------------|
D|-33333333-5555555---------------------33333333-5555555---------------------|
A|------------------35535x----35535x---------------------35535x----35535x----|
E|---------------------------------------------------------------------------|

"You know its never gonna end..."
12.
G|--------------------------------------------------------|
D|-33333333-55555555-------------------33333333-5555-7777-|
A|-------------------55555555-55555555--------------------|
E|--------------------------------------------------------|

Chorus
"Nothing changes cause its all the same..."
13.
G|-------------------------------------------------------------------------|
D|-------------------------------------------------------------------------|
A|-55555555----------55555555------0000-55555555-0000000-55555555-55555555-|
E|----------33333333----------3333-----------------------------------------|

"And all the things you learn when youre a kid..."
14.
G|-------------------------------------------------------|
D|-------------------------------------------------------|
A|-55555555----------55555555------0000-55555555-0000000-|
E|----------33333333----------3333-----------------------|

Outro
15.
G|-------4------6-9--0-0-4-7------6-9--------4------6-9--0-0-4-7------6-9-7x-|
D|-0-0-4---7-77--------------7-77------0-0-4---7-77--------------7-77--------|
A|---------------------------------------------------------------------------|
E|---------------------------------------------------------------------------|

Lyrics:

Nothing changes cause it's all the same
The world you get's the one you give away
It all just happens again
Way down the line
There is a chain that's never broken
You know the story it's sad but true
An angry man gets drunk and beats his kids
The same old way his drunken father did
What comes around well it goes around
Nothing changes cause it's all the same
The world you get's the one you give away
It all just happens again
Way down the line

At 17 Shannon is pregnant
As young as her mom when she had her
Her kid is never gonna have a dad
The same old way that Shannon never had
What comes around well it goes around
Nothing changes cause it's all the same
The world you get's the one you give away
It all just happens again
Way down the line
And all the things you learn when you're a kid
You'll fuck up just like your parents did
It all just happens again
Way down the line

And welfare moms have kids on welfare
And fat parents they have fat kids too
You know it's never gonna end
The same old cycle's gonna start again
What comes around well it goes around

______________________________________________________

12. Dont Pick It Up 

Tuning: EADG

Intro
1.
G|----------------------------------------------------------------------------------------|
D|------------------------------------------------------------------------------2~-2-2222-|
A|--------------------------------------------------------1~-1-1111--4~-4-4444------------|
E|-2~-2-2222--2~-2-2222--2~-2-2222--2~-2-2222--2~-2-2222----------------------------------|

2.
G|----------------------------------------------------------------------------------|
D|--44-4-2242-----------44-4-2242-----------44-4-2242-----------44-4-2242-----------|
A|------------22-2-1121-----------22-2-1121-----------22-2-1121-----------22-2-1121-|
E|----------------------------------------------------------------------------------|

Verse
"I saw a little kid as he walked around..."
3.
G|----------------------------------------------------------------------------------|
D|--44-4-2242-----------44-4-2242-----------44-4-2242-----------44-4-2242-----------|
A|------------22-2-1121-----------22-2-1121-----------22-2-1121-----------22-2-1121-|
E|----------------------------------------------------------------------------------|

Chorus
"Woah, dont pick it up I say..."
4.
G|-------------------------------------------------------------------|
D|-------------1-2-4-------------1-2-4-------------1-2-4-------------|
A|-----------2-----------------2-----------------2-------------2-2-2-|
E|-22-2-00-0---------22-2-00-0---------22-2-00-0---------2~-0~-------|

Verse
"Youre out there making bacon..."
5.
G|----------------------------------------------------------------------------------|
D|--44-4-2242-----------44-4-2242-----------44-4-2242-----------44-4-2242-----------|
A|------------22-2-1121-----------22-2-1121-----------22-2-1121-----------22-2-1121-|
E|----------------------------------------------------------------------------------|

Chorus
"Woah, dont pick it up I say..."
6.
G|-------------------------------------------------------------------|
D|-------------1-2-4-------------1-2-4-------------1-2-4-------------|
A|-----------2-----------------2-----------------2-------------2-2-2-|
E|-22-2-00-0---------22-2-00-0---------22-2-00-0---------2~-0~-------|

Bridge
7.
G|------|
D|------| Pluck while sliding
A|-9\1--|
E|------|

8.
G|-------------------------------------------------------|
D|-------------1-2-4-------------1-2-4-------------1-2-4-|
A|-----------2-----------------2-----------------2-------|
E|-22-2-00-0---------22-2-00-0---------22-2-00-0---------|

9.
G|--------------------------------------------|
D|----------------------------------2~-2-2222-|
A|------------1~-1-1111--4~-4-4444------------|
E|-2~-2-2222----------------------------------|

Verse
"My friend was kinda hurtin..."
10.
G|----------------------------------------------------------------------------------|
D|--44-4-2242-----------44-4-2242-----------44-4-2242-----------44-4-2242-----------|
A|------------22-2-1121-----------22-2-1121-----------22-2-1121-----------22-2-1121-|
E|----------------------------------------------------------------------------------|

Chorus
"Woah, dont pick it up I say..."
11.
G|--------------------------------------------------------------------------|
D|-------------1-2-4-------------1-2-4-------------1-2-4--------------------|
A|-----------2-----------------2-----------------2-------------2~-2~-2~-----|
E|-22-2-00-0---------22-2-00-0---------22-2-00-0---------2~-0~--------------|

Lyrics:

I saw a little kid
As he walked around
He picked a candy bar up
Off the ground
He chowed about a half
Then his face turned blue
Turned out that candy bar was doggy-doo
Don't pick it up I say
Unless you can throw it away
Don't pick it up I say
You're gonna be bummed that you went that way

You're out there makin' bacon
No scrutiny
You mess around too much
And you got VD
You know you never think
And you're sore today
You're gonna take it back to California
Don't pick it up I say
Unless you can throw it away
Don't pick it up I say
You're gonna be bummed that you went that way

My friend was kinda hurtin'
For a girl to try
He saw one that looked like Pat
On Saturday Night Live
It had a pair of thingies
But a mustache too
Not clearly male nor female
So now what to do
Don't pick it up I say
Unless you can throw it away
Don't pick it up I say
You're gonna be bummed that you went that way

______________________________________

13. Amazed

Tuning: EADG

Intro
1.
G|-----------------------------------------------------------------------------|
D|-----------------------------------------------------------------------------|
A|--------------------5-5-555-3-333-3333--------------------5-5-555-3-333-3333-|--x2
E|-5-5-555-3-333-3333--------------------5-5-555-3-333-3333--------------------|

Verse
"Sometimes I think Im gonna drown..."
2.
G|------------------------------------------------------------------------------|
D|------------------------------------------------------------------------------|
A|--------------------5-5-555-3-333-3333--------------------5-5-555-3-333-------|--x2
E|-5-5-555-3-333-3333--------------------5-5-555-3-333-3333---------------0-2-3-|

Pre-Chorus
"Yeah, yeah, yeah yeah..."
3.
G|---------------------------------------------------------------------------|
D|---------------------------------------------------------------------------|
A|--------------------5-5-555-3-333-3333--------------------5-5-555-3-333----|
E|-5-5-555-3-333-3333--------------------5-5-555-3-333-3333---------------33-|

Chorus
"Now if I make it..."
4.
G|--------------------------------------------------------------------------------|
D|----------2-222-2222------------------------------2-222-2222--------------------|
A|-0-00-333---------------------5555-5555--0-00-333-------------------------------|
E|---------------------3-33-333--------------------------------3-33-333-0000-0000-|

"Yeah if I make it..."
5.
G|--------------------------------------------------------------------------------|
D|----------2-222-2222------------------------------2-222-2222--------------------|
A|-0-00-333---------------------5555-5555--0-00-333---------------------5555-5555-|
E|---------------------3-33-333--------------------------------3-33-333-----------|

Outro
6.
G|-----------------------------------------------------------------------------|
D|-----------------------------------------------------------------------------|
A|--------------------5-5-555-3-333-3333--------------------5-5-555-3-333-3333-|
E|-5-5-555-3-333-3333--------------------5-5-555-3-333-3333--------------------|

Verse
"And when you know you cant relate..."
7.
G|------------------------------------------------------------------------------|
D|------------------------------------------------------------------------------|
A|--------------------5-5-555-3-333-3333--------------------5-5-555-3-333-------|--x2
E|-5-5-555-3-333-3333--------------------5-5-555-3-333-3333---------------0-2-3-|

Pre-Chorus
"Yeah, yeah, yeah yeah..."
8.
G|---------------------------------------------------------------------------|
D|---------------------------------------------------------------------------|
A|--------------------5-5-555-3-333-3333--------------------5-5-555-3-333----|
E|-5-5-555-3-333-3333--------------------5-5-555-3-333-3333---------------33-|

Chorus
"Now if I make it..."
9.
G|--------------------------------------------------------------------------------|
D|----------2-222-2222------------------------------2-222-2222--------------------|
A|-0-00-333---------------------5555-5555--0-00-333-------------------------------|
E|---------------------3-33-333--------------------------------3-33-333-0000-0000-|

"Yeah if I make it..."
10.
G|--------------------------------------------------------------------------------|
D|----------2-222-2222------------------------------2-222-2222--------------------|
A|-0-00-333---------------------5555-5555--0-00-333---------------------5555-5555-|
E|---------------------3-33-333--------------------------------3-33-333-----------|

Outro
11.
G|-----------------------------------------------------------------------------|
D|-----------------------------------------------------------------------------|
A|--------------------5-5-555-3-333-3333--------------------5-5-555-3-333-3333-|
E|-5-5-555-3-333-3333--------------------5-5-555-3-333-3333--------------------|

Bridge
"Yeah, yeah, yeah yeah..."
12.
G|-----------------------------------------------------------------------------|
D|-------------------------------------------------------------------2-222-5-5-|
A|--------------------5-5-555-3-333-3333-------------------555555555-----------|
E|-5-5-555-3-333-3333--------------------55555555-33333333---------------------|

Chorus
"Now if I make it..."
13.
G|--------------------------------------------------------------------------------|
D|----------2-222-2222------------------------------2-222-2222--------------------|
A|-0-00-333---------------------5555-5555--0-00-333-------------------------------|
E|---------------------3-33-333--------------------------------3-33-333-0000-0000-|

"Yeah if I make it..."
14.
G|--------------------------------------------------------------------------------|
D|----------2-222-2222------------------------------2-222-2222--------------------|
A|-0-00-333---------------------5555-5555--0-00-333---------------------5555-5555-|
E|---------------------3-33-333--------------------------------3-33-333-----------|

Outro
15.
G|-----------------------------------------------------------------------------|
D|-----------------------------------------------------------------------------|
A|--------------------5-5-555-3-333-3333--------------------5-5-555-3-333-3333-|
E|-5-5-555-3-333-3333--------------------5-5-555-3-333-3333--------------------|

16.
G|-------------------|
D|-------------------|
A|-0~----------------|
E|-------------------|

Lyrics:

Sometimes I think I'm gonna drown
Cause everyone around's so hollow
I'm alone
Sometimes I think I'm going down
But no one makes a sound
They follow
And I'm alone
Yeah if I make it I'd be amazed
Just to find tomorrow
One more day and I'd be amazed
Just to see it waiting
And if I make it I'm still alone
No more hope for better days
But if I could change
Then I'd really be amazed
And when you know you can't relate
To one more shiny face
Your heart breaks
No one cares
And when you know you can't go on
Cause everything is wrong
Your heart breaks
But no one's there

________________________________________________

14. Change The World

Tuning: EADG

"You guys should try having metal
Kiss my ass... Hahahahah"

Intro
1.
G|-------------------------------------------------------------------------|
D|-------------------------------------------------------------------------|
A|----------------------------22222222----------------------------22222222-|
E|-22222222-22222222-00000000----------22222222-22222222-00000000----------|

2.
G|------------------------------------------------------------------|
D|------------------------------------------------------------------|
A|-------------------------222-222--------------------------222-222-|
E|-222-222-222-222-000-000----------222-222-222-222-000-000---------|

Verse
"I see the way the salesman..."
3.
G|------------------------------------------------------------------|
D|------------------------------------------------------------------|
A|-------------------------222-222--------------------------222-222-|--x2
E|-222-222-222-222-000-000----------222-222-222-222-000-000---------|

Pre-Chorus
"You dont wanna change the world like you said..."
4.
G|-----------------------------------------------------------------------------------|
D|-----------2-222-222--------------------------------2-222-222----------------------|
A|-0-000-000-----------2-222-222-2-222-222--0-000-000-----------2-222-222-444-555-77-|
E|-----------------------------------------------------------------------------------|

Chorus
"Your ready saving yourself..."
5.
G|--------------------------------------------------------------------------------|
D|---------2-222-222-----------4-444-4444---------2-222-222------------4-444-4444-|
A|-------------------2-222-222------------------------------2-222-222-------------|
E|-2222222--------------------------------2222222---------------------------------|

Verse
"Now when the day is set..."
6.
G|------------------------------------------------------------------|
D|------------------------------------------------------------------|
A|-------------------------222-222--------------------------222-222-|--x2
E|-222-222-222-222-000-000----------222-222-222-222-000-000---------|

Pre-Chorus
"You dont wanna change the world like you said..."
7.
G|-----------------------------------------------------------------------------------|
D|-----------2-222-222--------------------------------2-222-222----------------------|
A|-0-000-000-----------2-222-222-2-222-222--0-000-000-----------2-222-222-444-555-77-|
E|-----------------------------------------------------------------------------------|

Chorus
"Your ready saving yourself..."
8.
G|--------------------------------------------------------------------------------|
D|---------2-222-222-----------4-444-4444---------2-222-222------------4-444-4444-|
A|-------------------2-222-222------------------------------2-222-222-------------|
E|-2222222--------------------------------2222222---------------------------------|

"And since you aint what you say..."
9.
G|------------------------------------------------------------------------------|
D|---------2-222-222------------------------------------2222---------------2222-|
A|-------------------2-222-222-444-555-77----------0000---------------0000------|
E|-2222222--------------------------------22222222-----------22222222-----------|

Outro
10.
G|----------------------------------|
D|-----------------22x----4x--------|
A|----------00x---------------------|
E|-22222222-------------------------|

Intro
11.
G|-------------------------------------------------------------------------|
D|-------------------------------------------------------------------------|
A|----------------------------22222222----------------------------22222222-|--x6
E|-22222222-22222222-00000000----------22222222-22222222-00000000----------|

"Go on now, they wont tell..."
12.
G|---------------------------------------------------------------------------------|
D|-4-444-444-4-444-444-2-222-222-----------4-444-444-4-444-444-2-222-222-----------|
A|-------------------------------0-000-000-------------------------------0-000-000-|
E|---------------------------------------------------------------------------------|

Pre-Chorus
"You dont wanna change the world like you said..."
13.
G|-----------------------------------------------------------------------------------|
D|-----------2-222-222--------------------------------2-222-222----------------------|
A|-0-000-000-----------2-222-222-2-222-222--0-000-000-----------2-222-222-444-555-77-|
E|-----------------------------------------------------------------------------------|

Chorus
"Your ready saving yourself..."
14.
G|--------------------------------------------------------------------------------|
D|---------2-222-222-----------4-444-4444---------2-222-222------------4-444-4444-|
A|-------------------2-222-222------------------------------2-222-222-------------|
E|-2222222--------------------------------2222222---------------------------------|

"And since you aint what you say..."
15.
G|------------------------------------------------------------------------------|
D|---------2-222-222------------------------------------2222---------------2222-|
A|-------------------2-222-222-444-555-77----------0000---------------0000------|
E|-2222222--------------------------------22222222-----------22222222-----------|

Outro
16.
G|----------------------------------------------------|
D|-----------------22x----4x--------------------------|
A|----------00x---------------------------------------|
E|-22222222-------------------------2~----------------|

Lyrics:

I see the way the salesmen stare into the sun
I stood and watched them as they fell off one by one
And everyone's so blind
They're not to help mankind
Reach into your bag of tricks and pull another one
You don't want to change the world
Like you say
You're in it for yourself
No one else
You're ready
Saving yourself
You're gonna change the world
You're ready
Saving yourself
You're gonna change the world
Now when the day is set they'll line up all the same
And those that need the most will never get or gain
The ones you call your friends
Are failing you again
Reach into your bag of tricks and make it go away
You don't want to change the world
Like you say
You're in it for yourself
No one else
You're ready
Saving yourself
You're gonna change the world
You're ready
Saving yourself
You're gonna change the world
And since you ain't what you say
Then just go away
Cause some don't lie
Some don't lie
Go on now they won't tell
Go on now and save yourself

__________________________________

END

+++++++++++++++++++++++++++++++++
| RaiLeff                       |
| Underground__Dora@Hotmail.Com |
+++++++++++++++++++++++++++++++++
comments
We did not receive enough feedback on this tab! Please rate:
print report bad tab
1 2 3 4 5
1 comment total.
0 reply
berzerker92 wrote on October 28 2009, 04:21 pm

Hey great tabs as usual Raileff. You had the only decent version of Gone Away I've found, but I Choose is a missing just a little bit. I'll put up the tab i've got that sounds a little bit better soon.

I want to post or [tab]
guest
You may want to rate the tab now too:
select rating
Please do not post tabs as comments. Select "correction" instead!