Oops, an error
Loading. Please wait.

Ixnay On The Hombre Tab

14,302 views 3 this week
5 commentsread comments
1 2 3 4 5
excellent!
x 5
Autoscroll
+/-
esc
set tempo
stop
Contributor
WARNING: You are trying to view
                                    content from Ultimate-Guitar.com
                                    in an unauthorized application,
                                    which is prohibited.

                                    Please use an official Ultimate
                                    Guitar Tabs application for iPhone,
                                    iPad or Android to access legitimate
                                    chords, guitar, bass, and drum tabs
                                    from Ultimate-Guitar.com database.

                                    Type "ultimate guitar tabs" in Apple
                                    App Store's or Android Market's
                                    search to find the application.
Hello. Yes this is Ixnay On The Hombre full album and yes it is guitar tabs
No lyrics included. If you want bass tabs e-mail me and i'll do 'em.
Also could somebody e-mail me and tell me what Ixnay On The Hombre means.
i've heard it been said around films and stuff but i have no idea what it
is.
e-mail = bobby544@mail2rob.com
--------------------------------------------------------------------------------
                                Abbreviations
--------------------------------------------------------------------------------

/ \ - slide
: - let it ring
* - repeat from 3-8 times. depends on which song. listen in to how many
x - scratch (lift fret fingers off the strings slighty to mute it a bit)
p - pull off 
h - hammer on
pm - palm mute
pm_______| - palm mute until the line above stops, then play without pm

--------------------------------------------------------------------------------
                              Track: 1
                          Title: disclaimer
--------------------------------------------------------------------------------
Not quite sure about this one but ah well.

|-----------------------------------------|
|-------------------------------2---2-2---|
|--------------------------2--2---------2-|
|-----------2--2-4-2-4-2-4--------2-------|
|-4-2-4-2-4-------------------------------|
|-----------------------------------------|

|-----------------------------------------|
|-------------------------------2---2-2-0-|
|--------------------------2--2-----------|
|-----------2--2-4-2-4-2-4--------2-------|
|-4-2-4-2-4-------------------------------|
|-----------------------------------------|

|-----------------------------------------------------0-|
|-2-0-2-0-2---0-2-0-2-0-2---0-2-0-2-0-2---0-2-0-2-0-2---|
|-----------2-------------2-------------2---------------|
|-------------------------------------------------------|
|-------------------------------------------------------|
|-------------------------------------------------------|

play the above twice
then play

|-----------------------------------------|
|-------------------------------2---2-2---|
|--------------------------2--2---------2-|
|-----------2--2-4-2-4-2-4--------2-------|
|-4-2-4-2-4-------------------------------|
|-----------------------------------------|

|-----------------|
|-------2---2-2---|
|---------------2-|
|-2-0-2---2-------|
|-----------------|
|-----------------|

play this last piece slower

|-----------------|
|-------2---2-2---|
|---------------2-|
|-2-0-2---2-------|
|-----------------|
|-----------------|

--------------------------------------------------------------------------------
                                  Track: 2
                          Title: the meaning of life
--------------------------------------------------------------------------------

intro/main riff

|--------------------------------------------------|
|--------------------------------------------------|
|-7-10-7-5-10---10-7-10-12---12/13\12--10-7*--10-5-|
|-7-10-7-5-10---10-7-10-12---12/13\12--10-7*--10-5-|
|-5--8-5-3--8----8-5--8-10---10/11\10---8-5*---8-3-|
|--------------------------------------------------|

|-----------------------------------------------------------|
|-----------------------------------------------------------|
|-7*--10-7-5-10*--10-7-10-12*--12/13\12-10-------------10-5-|
|-7*--10-7-5-10*--10-7-10-12*--12/13\12-10--3:---2-2:--10-5-|
|-5*---8-5-3--8*---8-5--8-10*--10/11\10--8--------------8-3-|
|-----------------------------------------------------------|

|----------|
|----------|
|-7-7:---5-| repeat this 4 times
|-7-7:---5-|
|-5-5:---3-|
|----------|

pre-chorus

|---------------------------------------------------------------|
|---------------------------------------------------------------|
|-7xx--7-7-7xx--7-7-9-10xx--10-10-10xx--10-10-------------------|
|-7xx--7-7-7xx--7-7-9-10xx--10-10-10xx--10-10-10xx--10-10-10xx--|
|-5xx--5-5-5xx--5-5-7--8xx---8--8--8xx---8--8-10xx--10-10-10xx--|
|----------------------------------------------8xx---8--8--8xx--|

|--------------------------|
|--------------------------|
|--------------------------|
|-10-10-8xx--8-8-8-7-7-5*--|
|-10-10-8xx--8-8-8-7-7-5*--|
|--8--8-6xx--6-6-6-5-5-3*--|

chorus

|-----------------------------------------------------------------|
|-----------------------------------------------------------------|
|-7*-7*---------------10*-10*----7*-7*----------------------------|
|-7*-7*-8*-8*-10*-10*-10*-10*-10-7*-7*-8*-8*-10*-10*-7*-7-7-10-10-|
|-5*-5*-8*-8*-10*-10*--8*--8*-10-5*-5*-8*-8*-10*-10*-7*-7-7-10-10-|
|-------6*-6*--8*--8*----------8-------6*-6*--8*--8*-5*-5-5--8--8-|

|---------------------------------------------------------------------|
|---------------------------------------------------------------------|
|-7*-7*---------------10*-10*-------------------------10--\7/10-\7/10-|
|-7*-7*-8*-8*-10*-10*-10*-10*-10-8*-8*-8*-8*-10*-10*--10--\7/10-\7/10-|
|-5*-5*-8*-8*-10*-10*--8*--8*-10-8*-8*-8*-8*-10*-10*---8--\5/-8-\5/-8-|
|-------6*-6*--8*--8*----------8-6*-6*-6*-6*--8*--8*------------------|

riff

|-------------------------------|
|-10xx--11-11-11-13xx--10-10-10-|
|-10xx--11-11-11-13xx--10-10-10-|
|-------------------------------|
|-------------------------------|
|-------------------------------|

|--------------------|
|--------------------|
|-3:--3-5----5----5--|
|-3:--3-5--5-5--5-5--|
|-1:--1-3--5-3--5-3--|
|----------3----3----|
--------------------------------------------------------------------------------
                                  Track: 3 
                                 Title: Mota
--------------------------------------------------------------------------------

intro/outro

|--------------------------------------------------------------------|
|--------------------------------------------------------------------|
|-12-12x--12-12-12x--12x--12x--12-12-12-12x--12x--12x--12-12-12-12x--|
|-12-12x--12-12-12x--12x--12x--12-12-12-12x--12x--12x--12-12-12-12x--|
|-10-10x--10-10-10x--10x--10x--10-10-10-10x--10x--10x--10-10-10-10x--|
|--------------------------------------------------------------------|

main riff

|-------------------------------------------------------------------------|
|-------------------------------------------------------------------------|
|-12-12--12-12-12--12-12-14-15-14-12--10--8-8--8-8-8--8-10-14-15-14-12-10-|
|-12-12--12-12-12--12-12-14-15-14-12--10--8-8--8-8-8--8-10-14-15-14-12-10-|
|-10-10--10-10-10--10-10-12-13-12-10---8--6-6--6-6-6--6--8-12-13-12-10--8-|
|-------------------------------------------------------------------------|

verse

|-----------------------------------------------------------------|
|-----------------------------------------------------------------|
|-12x-xx--xx-xx-xx--xx-xx--12-12-12--x-x--x-x-x--x-x--10--10--10--|
|-12x-xx--xx-xx-xx--xx-xx--12-12-12--x-x--x-x-x--x-x--10--10--10--|
|-10x-10--10-10-10--10-10--10-10-10--6-6--6-6-6--8-8---8---8---8--|
|-----------------------------------------------------------------|

chorus-1st time

|----------------------------------------------|
|----------------------------------------------|
|----5*-----------5*-----------5*-----------5*-|
|-3*-5*-5**----3*-5*-5**----3*-5*-5**----3*-5*-|
|-3*-3*-5**----3*-3*-5**----3*-3*-5**----3*-3*-|
|-1*----3**----1*----3**----1*----3**----1*----|
^ ^ ^
|--------------|
for the second time, play the same as |--------------|
above but finish with: |----5*----10*-|
|-3*-5*-8*-10*-|
|-3*-3*-8*--8*-|
|-1*----6*-----|

for the third time, play the same as above but stop at the second arrow
and play:

|---------------------------------------------------------|
|---------------------------------------------------------|
|---------------------------------------------------------|
|-x-x-3--x-x-3--x-x-5--x-x-5--x-x-5--x-x-5--x-x-5--x-x-5--|
|-x-x-3--x-x-3--3-3-x--3-3-x--x-x-5--x-x-5--x-x-5--x-x-5--|
|-1-1-x--1-1-x----------------3-3-x--3-3-x--3-3-x--3-3-x--|

then play the rest

--------------------------------------------------------------------------------
                                     Track: 4
                              Title: me and my old lady
--------------------------------------------------------------------------------

intro 

|-----|
|-----|
|-9:--|
|-9:--|
|-7:--|
|-----|

main riff

|---------------------------12-|
|---------------------------12-|
|-9-9-7-9-10/14\10-9-9-7-9-----| this piece is played in 2 different
|-9-9-7-9-10/14\10-9-9-7-9-----| rhythms, they're easy to figure out
|-7-7-5-7--8/12\-8-7-7-5-7-----|
|------------------------------| 

play the above four times, then play

|-------------------------10-|
|-------------------------10-|
|----------------------------|
|-7-7-5-7-8/12\8-7-7-5-7-----|
|-7-7-5-7-8/12\8-7-7-5-7-----|
|-5-5-3-5-6/10\6-5-5-3-5-----| then go back to the beginning of the main

solo

|--------------------------------------------------|
|-9:--9h10-12:--12-12p10--9-10-9-------------------|
|---------------------------------9-9p7-9p7-10-9:--|
|--------------------------------------------------|
|--------------------------------------------------|
|--------------------------------------------------|

|--------------------7-10-7h8p7----7-10-7h8p7----7-10-7h8p7----7-10-12:--|
|-----------9:--9h10------------10------------10------------10------12:--|
|-9-9p7-9p7--------------------------------------------------------------|
|------------------------------------------------------------------------|
|------------------------------------------------------------------------|
|------------------------------------------------------------------------|

chorus

|-----------------------------------------------------------------------|
|-----------------------------------------------------------------------|
|-9--9-/7-7-7-7\9---7--7-/5-5-5-5\7---------------------9--9-/7-7-7-7\9-|
|-9--9-/7-7-7-7\9---7--7-/5-5-5-5\7---7--7-/5-5-5-5\7---9--9-/7-7-7-7\9-|
|-7--7-/5-5-5-5\7---5--5-/3-3-3-3\5---7--7-/5-5-5-5\7---7--7-/5-5-5-5\7-|
|-------------------------------------5--5-/3-3-3-3\5-------------------|

repeat the above 3 times
the chorus finishes with

|---------------|
|---------------|
|-9:--7:--------|
|-9:--7:--7:----|
|-7:--5:--7:----|
|---------5:----|

outro

|--------------------------|
|--------------------------|
|--------------------------|
|---------------------2:---|
|-5:--5-5-4-4:--4-4-2-2:---|
|--------------------------|

--------------------------------------------------------------------------------
                                      Track: 5 
                                Title: cool to hate
--------------------------------------------------------------------------------

verse 1

|------------------------|
|------------------------|
|-10-10-----10-8-8----8--|
|-10-10--10-10-8-8--8-8--|
|--8--8--10--8-6-6--8-6--|
|---------8---------6----|

verse 2

|------------------------------------------------------------------|
|------------------------------------------------------------------|
|-10:-----10-8:----8-6:----6-8:----8-10:-----10-8:----8------------|
|-10:--10-10-8:--8-8-6:--6-6-8:--8-8-10:--10-10-8:--8-8-8pm--10pm--|
|--8:--10--8-6:--8-6-4:--6-4-6:--8-6--8:--10--8-6:--8-6-8pm--10pm--|
|-------8--------6-------4-------6---------8--------6---6pm---8pm--|

chorus

|---------------------------------------------------------------|
|---------------------------------------------------------------|
|-10-10-10----------8-8-8----------6-6-6----------8-8-8---------|
|-10-10-10-6-6-6-6--8-8-8-8-8-8-8--6-6-6-6-6-6-6--8-8-8-8-8-8-8-|
|--8--8--8-6-6-6-6--6-6-6-8-8-8-8--4-4-4-6-6-6-6--6-6-6-8-8-8-8-|
|----------4-4-4-4--------6-6-6-6--------4-4-4-4--------6-6-6-6-|

ending of chorus

|-------------------------------|
|-------------------------------|
|-6-6-6----------8-8-8-8--------|
|-6-6-6-6-6-6-6--8-8-8-8-8-8-8--|
|-4-4-4-6-6-6-6--6-6-6-6-8-8-8--|
|-------4-4-4-4----------6-6-6--|

bridge 1

|-------------------------------------| |--------------|
|-------------------------------------| |--------------|
|-10-10-x-x-10-10-x-x-8-8-x-x-8-8-x-x-| |--------------|
|-10-10-x-x-10-10-x-x-8-8-x-x-8-8-x-x-| |--8--8-x-x--8--8-x-x-6-6-x-x-6-6-x-x-| finishes |-8pm--10pm-|
|-------------------------------------| with> |-6pm----8pm---|

bridge 2 
all palm muted

pm->
|---------------------------------------------------------------------|
|---------------------------------------------------------------------|
|-10-10-10-10---------8-8-8-8---------6-6-6-6---------8-8-8-8---------|
|-10-10-10-10-6-6-6-6-8-8-8-8-8-8-8-8-6-6-6-6-6-6-6-6-8-8-8-8-8-8-8-8-|
|--8--8--8--8-6-6-6-6-6-6-6-6-8-8-8-8-4-4-4-4-6-6-6-6-6-6-6-6-8-8-8-8-|
|-------------4-4-4-4---------6-6-6-6---------4-4-4-4---------6-6-6-6-|

finish the above piece with

|---------------------------------|
|---------------------------------|
|-6-6-6-6---------8-8-8-8---------|
|-6-6-6-6-6-6-6-6-8-8-8-8-8-8-8-8-|
|-4-4-4-4-6-6-6-6-6-6-6-6-8-8-8-8-|
|---------4-4-4-4---------6-6-6-6-|

bridge 3

|---------------------------|
|---------------------------|
|-10:--8-10:--10-8:--8-10:--|
|-10:--8-10:--10-8:--8-10:--|
|--8:--6--8:---8-6:--6--8:--|
|---------------------------|

ending note

|-----|
|-----|
|-10--|
|-10--|
|--8--|
|-----|

--------------------------------------------------------------------------------
                                    Track: 6 
                              Title: leave it behind
--------------------------------------------------------------------------------

intro - 2 guitars 

guitar 1
     NB. you don't have to hammer on here if you don't want to
|----0-2-2h3-2-0----0-2-2h3-2-0----0-2-2h3-2-0----0-2-2h3-2-0--|
|--------------------------------------------------------------|
|--------------------------------------------------------------|
|--------------------------------------------------------------|
|--------------------------------------------------------------|
|-0:-------------0:-------------0:-------------0:--------------|
> > >
wait till guitar 1 plays the piece before the second arrow,
then play on

guitar 2

|      |------------------------------|
|      |------------------------------|
| wait |---9----9--9-9---9----9--9-9--|
|      |-2-9-9--9--9-9-2-9-9--9--9-9--|
|      |-2-7-9--7--7-7-2-7-9--7--7-7--|
|      |-0---7---------0---7----------|

verse

pm
|---------------------------------------------------------------------------|
|---------------------------------------------------------------------------|
|-9x-9x-9x-9x-7x-7x-9x-9x--9x-9x-9x-9x-7x-7x--------9x-9x-9x-9x-7x-7x-9x-9x-|
|-9x-9x-9x-9x-7x-7x-9x-9x--9x-9x-9x-9x-7x-7x-9x-9x--9x-9x-9x-9x-7x-7x-9x-9x-|
|-7x-7x-7x-7x-5x-5x-7x-7x--7x-7x-7x-7x-5x-5x-9x-9x--7x-7x-7x-7x-5x-5x-7x-7x-|
|--------------------------------------------7x-7x--------------------------|

chorus

|------------------------|
|------------------------|
|-5-----7-9*--5-----7-9--|
|-5-3-5-7-9*--5-3-5-7-9--|
|-3-3-5-5-7*--3-3-5-5-7--|
|---1-3---------1-3------|

bridge

|-------------------------------------------------|
|-------------------------------------------------|
|-------------7-7-7-7-7-7-9-9-9-9-9-9-5-5-5-5-5-5-|
|-5-5-5-5-5-5-7-7-7-7-7-7-9-9-9-9-9-9-5-5-5-5-5-5-|
|-5-5-5-5-5-5-5-5-5-5-5-5-7-7-7-7-7-7-3-3-3-3-3-3-|
|-3-3-3-3-3-3-------------------------------------|

|-------------------------------------------------|
|-------------------------------------------------|
|-------------7-7-7-7-7-7-9-9-9-9-9-9-5-5-5-7-7-7-|
|-5-5-5-5-5-5-7-7-7-7-7-7-9-9-9-9-9-9-5-5-5-7-7-7-|
|-5-5-5-5-5-5-5-5-5-5-5-5-7-7-7-7-7-7-3-3-3-5-5-5-|
|-3-3-3-3-3-3-------------------------------------|

end note

|-----|
|-----|
|--9--|
|--9--|
|--7--|
|-----|

--------------------------------------------------------------------------------
                                   Track: 7
                                Title: gone away
--------------------------------------------------------------------------------

main riff

guitar 1

|-------------------------------------------------------------------------|
|-------------------------------------------------------------------------|
|-10-10-10-10-10-10-10-10-----------------8-8-8-8-8-8-8-8-----------------|
|-10-10-10-10-10-10-10-10-6-6-6-6-6-6-6-6-8-8-8-8-8-8-8-8-8-8-8-8-8-8-8-8-|
|--8--8--8--8--8--8--8--8-6-6-6-6-6-6-6-6-6-6-6-6-6-6-6-6-8-8-8-8-8-8-8-8-|
|-------------------------4-4-4-4-4-4-4-4-----------------6-6-6-6-6-6-6-6-|

guitar 2 joins with

|-8-8-8-8-8-8-8-8-8-8-8-8-8-8-8-8-6-6-6-6-6-6-6-6-6-6-6-6-6-6-6-6-|
|-6-6-6-6-6-6-6-6-9-9-9-9-9-9-9-9-4-4-4-4-4-4-4-4-6-6-6-6-6-6-6-6-|
|-----------------------------------------------------------------|
|-----------------------------------------------------------------|
|-----------------------------------------------------------------|
|-----------------------------------------------------------------|

guitar 2 plays

|------------------------------------------------|
|------------------------------------------------|
|--------10:--------8:--------8--8/10--3-3-5-----|
|-8h10--------5h6-------3h5------------------3:--|
|------8----------6---------6--------------------|
|------------------------------------------------|

guitar 1 plays this chord behind the riff above

|-1:--|
|-1:--|
|-2:--|
|-3:--|
|-3:--|
|-1:--|

"i reach to the sky....."

|-----8:------6:------6:--1-----4--3-----|
|---6-------4-------4----------------4/6-|
|-5-------5-------3-----------3----------|
|---------------------------3------------|
|----------------------------------------|
|----------------------------------------|

acoustic guitar

|-1:--1-4:--4-6--6--6-6-6--6--6--6-6-1--1--1-1-4--4--4-4-6--6--6-6--6**---|
|-1:--1-4:--4-6--6--6-6-6--6--6--6-6-1--1--1-1-4--4--4-4-6--6--6-6--6**---|
|-2:--2-5:--5-7--7--7-7-7--7--7--7-7-2--2--2-2-5--5--5-5-7--7--7-7--7**---|
|-3:--3-6:--6-8--8--8-8-8--8--8--8-8-3--3--3-3-6--6--6-6-8--8--8-8--8**---|
|-3:--3-6:--6-8--8--8-8-8--8--8--8-8-3--3--3-3-6--6--6-6-8--8--8-8--8**---|
|-1:--1-4:--4-6--6--6-6-6--6--6--6-6-1--1--1-1-4--4--4-4-6--6--6-6--6**---|

final note

|-1:--|
|-1:--|
|-2:--|
|-3:--|
|-3:--|
|-1:--|

--------------------------------------------------------------------------------
                                      Track: 8
                                  Title: i choose
--------------------------------------------------------------------------------


intro/verse 

|-----------------------------------|
|-7--8--7-7-x-x-x-x-----------------|
|-7--7--7-7-x-x-x-x-----------------|
|-7--7--7-7-x-x-x-x-3--3--5--5--5-5-|
|-5--5--5-5-x-x-x-x-3--3--5--5--5-5-|
|-------------------1--1--3--3--3-3-|

chorus 1

|--------------|
|--------------|
|-7*-7*-5*-----|
|-7*-7*-5*-5*--|
|-5*-5*-3*-5*--|
|----------3*--|

for the "..or a playground.." part, change to 

|---------------------------|
|---------------------------|
|-7*-7*-10*-12*-------------|
|-7*-7*-10*-12*-8*-8*-7*-7--|
|-5*-5*--8*-10*-8*-8*-7*-7--|
|---------------6*-6*-5*-5--|

solo 

|-10-----------10---------------------13--13-13-13-13--13-15-15-15-15-15----
|-10--10-------10----------------------x---x--x--x--x---x--x--x--x--x--x-13-
|--------12-12--------12-10-12-10-----10--10-10-10-10--10-12-12-12-12-12-12-
|---------------------------------12----------------------------------------
|---------------------------------------------------------------------------
|---------------------------------------------------------------------------

----------------------------------------------------------------------
-13/15-15-15-15\13-13-13--15-15-15-15\13-13-13--13-/18-18-18-18-18-18-
-12/14-14-14-14\12-12-12--14-14-14-14\12-12-12--12-/17-17-17-17-17-17-
----------------------------------------------------------------------
----------------------------------------------------------------------
----------------------------------------------------------------------

--------------17-17-20b--20b--20b--20-17--------------------------------
-20-20-20--20----------------------------18-----------------------------
--------------------------------------------19--19--19--19\--7---7--7-9-
-------------------------------------------------------------x---x--x-x-
-------------------------------------------------------------5---5--5-7-
------------------------------------------------------------------------

--------------------------------------------------|
--------------------------------------------------|
--9-9-9-9/10--9--10--10-10--12---12-12--12--------|
--x-x-x-x/-x--x---x---x--x---x----x--x---x--------|
--7-7-7-7/-8--7---8---8--8--10---10-10--10--10-10-|
--------------------------------------------------|

|------------------------------------------------/10-10-10-10-10-10-10-10-
|-10b--10b--10b--10b--13b------------------------/-x--x--x--x--x--x--x--x-
|-12b--12b--12b--12b--15b---15b--15--------------/-7--7--7--7--7--7--7--7-
|-----------------------------------15b-15-13-----------------------------
|---------------------------------------------15--------------------------
|-------------------------------------------------------------------------

-10-10-10-10-10-10-10-------------------------------------------------
--x--x--x--x--x--x--x--5b--5b--5b--5b--8b--------------------------10-
--7--7--7--7--7--7--7--7b--7b--7b--7b--10b---10b--10-12b--12-10----10-
----------------------------------------------------------------12----
----------------------------------------------------------------------
----------------------------------------------------------------------

-------------------------------------------------------------------------|
-11--11-11-11-11--11--11-11-11-11-11-11-11-10--10-10-10-10-10--10-10-10\-|
--x---x--x--x--x---x---x--x--x--x--x--x--x--x---x--x--x--x--x---x--x--x\-|
--8---8--8--8--8---8---8--8--8--8--8--8--8--7---7--7--7--7--7---7--7--7\-|
-------------------------------------------------------------------------|
-------------------------------------------------------------------------|

background to second solo

|----------------------------------------------------------------|
|------------5--5---------7--7--7-8-7--7--7--7-------------5--5--|
|------------5--5---------7--7--7-7-7--7--7--7-------------5--5--|
|-7--7--7-7--5--5--5-5-5--7--7--7-7-7--7--7--7--7--7--7-7--5--5--|
|-7--7--7-7--3--3--5-5-5--5--5--5-5-5--5--5--5--7--7--7-7--3--3--|
|-5--5--5-5--------3-3-3------------------------5--5--5-5--------|

|---------------------------------|
|---------------------------------|
|---------------------------------|
|-5-5-5--8*-8*-8*-8*-7*-7*-7*-7*--|
|-5-5-5--8*-8*-8*-8*-7*-7*-7*-7*--|
|-3-3-3--6*-6*-6*-6*-5*-5*-5*-5*--|

the "..or a playground..." part changes to 

|---------------------------------------------------|
|---------------------------------------------------|
|-7*-7*-10*-12*-------------------------------------|
|-7*-7*-10*-12*-8*-8*-7*-7-8*-8*-7*-7*-8*-8*-7*-7*--|
|-5*-5*--8*-10*-8*-8*-7*-7-8*-8*-7*-7*-8*-8*-7*-7*--|
|---------------6*-6*-5*-5-6*-6*-5*-5*-6*-6*-5*-5*--|

final chord

|----|
|-7--|
|-7--|
|-7--|
|-5--|
|----|

--------------------------------------------------------------------------------
                                  Track: 9 
                              Title: intermission
--------------------------------------------------------------------------------

|------------------------------------------------------------------8-|
|-9--6-8--6-9-9-9-6-8--8-4-6--4--8-8-8-4-6--9--6-8--6-9-9-9-6-8------|
|----------------------------------------------------------------8---|
|--------------------------------------------------------------------|
|--------------------------------------------------------------------|
|--------------------------------------------------------------------|

|-8--5-7--5-8-8-8-5-7--7-3-5--3--7-7-7-3-5--8--5-7--5-8-8-8-5-7--3-12-|
|---------------------------------------------------------------------|
|---------------------------------------------------------------------|
|---------------------------------------------------------------------|
|---------------------------------------------------------------------|
|---------------------------------------------------------------------|

|-13--13-11--11-9--9-8--11--11-9--9-8--8-6-----------------------8----|
|-------------------------------------------9--6-8--6-9-9-9-6-8-----9-|
|---------------------------------------------------------------------|
|---------------------------------------------------------------------|
|---------------------------------------------------------------------|
|---------------------------------------------------------------------|  

--------------------------------------------------------------------------------
                                     Track: 10 
                                 Title: all i want
--------------------------------------------------------------------------------

intro

|---------------------------------------------------------------|
|---------------------------------------------------------------|
|-11-11--9-11-11--9-7-7--7-9-9--9-11-11--9-11-11--9-7-7--7-14-9-|
|-11-11--9-11-11--9-7-7--7-9-9--9-11-11--9-11-11--9-7-7--7-14-9-|
|--9--9--7--9--9--7-5-5--5-7-7--7--9--9--7--9--9--7-5-5--5-12-7-|
|---------------------------------------------------------------|

verse

|---------------------------------------|
|---------------------------------------|
|--------------------------7-7--7-14-9--|
|-4-4-4-4-4-----4-4-4-4-4--7-7--7-14-9--|
|-4-4-4-4-4-----4-4-4-4-4--5-5--5-12-7--|
|-2-2-0-2-2-----2-2-0-2-2---------------|

chorus

|----------------------------------------------------------------|
|----------------------------------------------------------------|
|-11-11--11-11-11--11-7-7--7-7-7--7---------------9-9--9-9-9--9--|
|-11-11--11-11-11--11-7-7--7-7-7--7-7-7--7-7-7--7-9-9--9-9-9--9--|
|--9--9---9--9--9---9-5-5--5-5-5--5-7-7--7-7-7--7-7-7--7-7-7--7--|
|-----------------------------------5-5--5-5-5--5----------------|

bridge

|-----------------------------------------------------------------|
|-----------------------------------------------------------------|
|-7-7--7-9x--11-11--11-9x--7-7--7-9-9-9-9--7--------------7-7-7-7-|
|-7-7--7-9x--11-11--11-9x--7-7--7-9-9-9-9--7--------7-7-7-7-7-7-7-|
|-5-5--5-7x---9--9---9-7x--5-5--5-7-7-7-7--5--5-5-5-5-5-5-5-5-5-5-|
|-----------------------------------------------------------------|

|------------------------|
|------------------------|
|-6--------------6-6-6-6-|
|-6--------6-6-6-6-6-6-6-|
|-4--4-4-4-4-4-4-4-4-4-4-|
|------------------------|

final chorus

|------------------------------------------------------------------|
|------------------------------------------------------------------|
|-11-11--11-11-11--11-7-7--7-7-7--7-11-11--11-11-11--11-7-7--7-7-7-|
|-11-11--11-11-11--11-7-7--7-7-7--7-11-11--11-11-11--11-7-7--7-7-7-|
|--9--9---9--9--9---9-5-5--5-5-5--5--9--9---9--9--9---9-5-5--5-5-5-|
|------------------------------------------------------------------|

|---------------------------------------------------------------------|
|---------------------------------------------------------------------|
|-7-11-11--11-11-11--11-7-7--7-7-7--7----------------9--9-9--9--9--11-|
|-7-11-11--11-11-11--11-7-7--7-7-7--7-7-7--7-7-7---7-9--9-9--9--9--11-|
|-5--9--9---9--9--9---9-5-5--5-5-5--5-7-7--7-7-7---7-7--7-7--7--7---9-|
|-------------------------------------5-5--5-5-5---5------------------|

--------------------------------------------------------------------------------
                                     Track: 11 
                             Title: way down the line
--------------------------------------------------------------------------------

intro

|-------------------------------|
|-------------------------------|
|-7:------7:-------7:------7:-/-|
|-7:--5:--7:--5-7--7:--7:--7:-/-|
|-5:--5:--5:--5-7--5:--7:--5:-/-|
|-----3:------3-5------5:-------|

verse

|-----------------------------------------|
|-----------------------------------------|
|-----------------------------------------|
|-12-12\10--12-12--10/12-12--10/12-12-10--|
|-12-12\10--12-12---8/10-10---8/10-10-10--|
|-10-10\-8--10-10----------------------8--|

verse 2

pm__________________________________________________________________
|------------------------------------------------------------------
|------------------------------------------------------------------
|-7-7-7-7-7-7-7-7-----------------7-7-7-7-7-7-7-7------------------
|-7-7-7-7-7-7-7-7-5-5-5-5-5-5-5-5-7-7-7-7-7-7-7-7-5-5-5-5-5-5-5-5--
|-5-5-5-5-5-5-5-5-5-5-5-5-5-5-5-5-5-5-5-5-5-5-5-5-5-5-5-5-5-5-5-5--
|-----------------3-3-3-3-3-3-3-3-----------------3-3-3-3-3-3-3-3--

_________________|
----------------------------------|
----------------------------------|
-7-7-7-7-7-7-7-7------------------|
-7-7-7-7-7-7-7-7-5-5-5-5-7-7-7-7--|
-5-5-5-5-5-5-5-5-5-5-5-5-7-7-7-7--|
-----------------3-3-3-3-5-5-5-5--|

chorus 1

|---------------------------------|
|---------------------------------|
|-7*----7*------------------7*----|
|-7*-5*-7*-5-5-5-5-7-7-7-7--7*-7*-|
|-5*-5*-5*-5-5-5-5-7-7-7-7--5*-7*-|
|----3*----3-3-3-3-5-5-5-5-----5*-|

chorus 2

|------------------------------------------------------------------------------|
|------------------------------------------------------------------------------|
|-7*----7*------------------7*----7*-7*--7*----7*------------------7*----7*-7*-|
|-7*-5*-7*-5-5-5-5-7-7-7-7--7*-7*-7*-7*--7*-5*-7*-5-5-5-5-7-7-7-7--7*-7*-7*-7*-|
|-5*-5*-5*-5-5-5-5-7-7-7-7--5*-7*-5*-5*--5*-5*-5*-5-5-5-5-7-7-7-7--5*-7*-5*-5*-|
|----3*----3-3-3-3-5-5-5-5-----5*-----------3*----3-3-3-3-5-5-5-5-----5*-------|

bridge 1

|--------------------------------------------|
|--------------------------------------------|
|-/10*--12*----------------------------------|
|-/10*--12*--10/12-12\10/12--10/12-12\10/12--|
|-/-8*--10*--10/12-12\10/12--10/12-12\10/12--|
|-------------8/10-10\-8/10---8/10-10\-8/10--|

bridge 2

|-------------------------------------------------|
|-------------------------------------------------|
|-/10*--12*--7*--7*--10*--12-12-12-12-14-14-14-14-|
|-/10*--12*--7*--7*--10*--12-12-12-12-14-14-14-14-|
|-/-8*--10*--5*--5*---8*--10-10-10-10-12-12-12-12-|
|-------------------------------------------------|

outro

|---2---3h5-2--------9----11h12----7---8h10-7--------9----11h12-|
|-3---3-------3--/10---10--------8---8--------8--/10---10-------|
|---------------------------------------------------------------|
|---------------------------------------------------------------|
|---------------------------------------------------------------|
|---------------------------------------------------------------|

|---2---3h5-2--------9----11h12----7---8h10-7--------9----11h12-|
|-3---3-------3--/10---10--------8---8--------8--/10---10-------|
|---------------------------------------------------------------|
|---------------------------------------------------------------|
|---------------------------------------------------------------|
|---------------------------------------------------------------|

final note

|-10--|
|-10--|
|-11--|
|-12--|
|-12--|
|-10--|

--------------------------------------------------------------------------------
                                     Track: 12 
                              Title: don't pick it up
--------------------------------------------------------------------------------

intro

|-2:--2:--2:--2:--|
|-2:--2:--2:--2:--|
|-3:--3:--3:--3:--|
|-4:--4:--4:--4:--|
|-4:--4:--4:--4:--|
|-2:--2:--2:--2:--|

intro 2/bridge

|----------------------------------------------2-2-2-2-2-2--|
|-------------------------------2--------------2-2-2-2-2-2--|
|----------------3--------------3--------------3-3-3-3-3-3--|
|-4--------------4--------------4--------------4-4-4-4-4-4--|
|-4--4-4-4-4-4-4-4--4-4-4-4-4-4-4--4-4-4-4-4-4-4-4-4-4-4-4--|
|-2--2-2-2-2-2-2-2--2-2-2-2-2-2-2--2-2-2-2-2-2-2-2-2-2-2-2--|

main riff

|-----------------------------------|
|-----------------------------------|
|-11-x-11-x-9-x-9-x-4-x-4-x-4-x-4-x-|
|-11-x-11-x-9-x-9-x-4-x-4-x-4-x-4-x-|
|--9-x--9-x-7-x-7-x-2-x-2-x-2-x-2-x-|
|-----------------------------------|

joins main riff

|---------------|
|---------------|
|---------------|
|-4--2--1h2p1---|
|-------------4-|
|---------------|

"..you're gonna be bummed..." part

|---------------|
|---------------|
|-------4-4-4-4-|
|-4--2--4-4-4-4-|
|-4--2--2-2-2-2-|
|-2--0----------|

--------------------------------------------------------------------------------
                                   Track: 13
                                 Title: amazed
--------------------------------------------------------------------------------

intro/main riff

|-----------------------------------------------------------|
|-----------------------------------------------------------|
|------------------------------7-7-7-7-7-7-7-5--5-5-5-5-5-5-|
|-7-7-7-7-7-7-7-5--5-5-5-5-5-5-7-7-7-7-7-7-7-5--5-5-5-5-5-5-|
|-7-7-7-7-7-7-7-5--5-5-5-5-5-5-5-5-5-5-5-5-5-3--3-3-3-3-3-3-|
|-5-5-5-5-5-5-5-3--3-3-3-3-3-3------------------------------|

then guitar 1 joins with

|-5-5-5--7--8--5-5-5--7--8--5-5-5--7--8/10--8-7-8--5--|
|-----------------------------------------------------|
|-----------------------------------------------------|
|-----------------------------------------------------|
|-----------------------------------------------------|
|-----------------------------------------------------|

|-----|
|-----|
|-----|
|-7:--|
|-7:--|
|-5:--|

bridge

|------------------------------------|
|------------------------------------|
|------------------------------------|
|-7----------------------------------|
|-7----------------------------------|
|-5---7-8-5-7-8-5-7-8--8/10-8-7\3-3--|

chorus

|----------------------------------------------|
|----------------------------------------------|
|------5-5--9-9-9-9-9-9------------7-7-7-7-7-7-|
|-7-7--5-5--9-9-9-9-9-9---5-5-5-5--7-7-7-7-7-7-|
|-7-7--3-3--7-7-7-7-7-7---5-5-5-5--5-5-5-5-5-5-|
|-5-5---------------------3-3-3-3--------------|

|----------------------------------------------|
|----------------------------------------------|
|------5-5--9-9-9-9-9-9------------------------|
|-7-7--5-5--9-9-9-9-9-9---5-5-5-5--2-2-2-2--6/-|
|-7-7--3-3--7-7-7-7-7-7---5-5-5-5--2-2-2-2--6/-|
|-5-5---------------------3-3-3-3--0-0-0-0--4/-|

|----------------------------------------------|
|----------------------------------------------|
|------5-5--9-9-9-9-9-9------------7-7-7-7-7-7-|
|-7-7--5-5--9-9-9-9-9-9---5-5-5-5--7-7-7-7-7-7-|
|-7-7--3-3--7-7-7-7-7-7---5-5-5-5--5-5-5-5-5-5-|
|-5-5---------------------3-3-3-3--------------|

|----------------------------------------------|
|----------------------------------------------|
|------5-5--9-9-9-9-9-9------------7-7-7-7-7-7-|
|-7-7--5-5--9-9-9-9-9-9---5-5-5-5--7-7-7-7-7-7-|
|-7-7--3-3--7-7-7-7-7-7---5-5-5-5--5-5-5-5-5-5-|
|-5-5---------------------3-3-3-3--------------|

|-----|
|-----|
|-----|
|-7:--|
|-7:--|
|-5:--|

bridge 2

pm
|------------------------------------------------------------|
|------------------------------------------------------------|
|-------------------------------7-7-7-7-7-7-7-9-9-9-9/12-12--|
|-7-7-7-7-7-7-7-5-5-5-5-5-5-5-5-7-7-7-7-7-7-7-9-9-9-9/12-12--|
|-7-7-7-7-7-7-7-5-5-5-5-5-5-5-5-5-5-5-5-5-5-5-7-7-7-7/10-10--|
|-5-5-5-5-5-5-5-3-3-3-3-3-3-3-3------------------------------|

final chord 

|-----|
|-----|
|-----|
|-7:--|
|-7:--|
|-5:--|

--------------------------------------------------------------------------------
                                   Track: 14 
                              Title: change the world
--------------------------------------------------------------------------------
/ \ - slide
: - let ring
* - repeat about 8 times
h - hammer on
p - pull off
pm - palm mute
intro/bridge

|-----------------------------------4-4-4-4h5-4----------------|
|-----------------------------------5-5-5-5-5-5--4-4-4h5p4---4-|
|----------------------------------------------------------6---|
|-4-7-7-7-6-6-7-7-9-9-9-7-7-7-6-6------------------------------|
|---------------------------------7----------------------------|
|--------------------------------------------------------------|

verse 1

|--------------------| 
|--------------------|
|-11*---11*---11*----|
|-11*---11*---11*----|
|--9*----9*----9*----|
|--------------------|

|----|
|----|
|----|
|-4--|
|-4--|
|-2--|

end of verse

|------------------------------------|
|------------------------------------|
|-11-11:---11-11-9-9:---9-9----------|
|-11-11:---11-11-9-9:---9-9-9-9---4--|
|--9--9:----9--9-7-7:---7-7-9-9---4--|
|---------------------------7-7---2--|

pre-chorus pre-chorus ends with

pm_______________|
|----------------| |--------------|
|----------------| |--------------|
|------9*--------| |-6-6-7-9:--\--|
|--\7*-9*-9*-9*--| |-6-6-7-9:--\--|
|--\7*-7*-9*-9*--| |-4-4-5-7:--\--|
|--\5*----7*-7*--| |--------------|

chorus end chorus with

|------------------| |----|
|------------------| |----|
|-----9*--4*--11*--| |----|
|-4*--9*--4*--11*--| |-4--|
|-4*--7*--2*---9*--| |-4--|
|-2*---------------| |-2--|

after the chorus comes around a second time, play the above twice then play

|-----------------------------------------------------------------------|
|-----------------------------------------------------------------------|
|-----9*--4*--6-6-6-7:--11*------9:--11*------9:--11*-------9-9-11--11--|
|-4*--9*--4*--6-6-6-7:--11*--7:--9:--11*--7:--9:--11*--7-7--9-9-11--11--|
|-4*--7*--2*--4-4-4-5:---9*--7:--7:---9*--7:--7:---9*--7-7--7-7--9---9--|
|-2*-------------------------5:-----------5:-----------5-5--------------|

after the drums fill, play
outro

|----|
|----|
|----|
|-4:-|
|-4:-|
|-2:-|

Hope you can understand what I have put here if you havn't e-mail me
e-mail = bobby544@mail2rob.com
comments
print report bad tab
5 comments total. Showing first comments.
0 reply
feesk8ordie wrote on April 13 2005, 12:00 am

i think ixnay means queit and hombre means man

0 reply
shaney5 wrote on November 17 2005, 03:12 pm

well ive heard that ixney on the hombre is roughly (very roughly ) translated from latin as **** the man. but i wudnt qoute me on that cus im rubbish at smart stuff

0 reply
ptholdem wrote on May 11 2006, 04:50 pm

i thought it was kill the man, nice book though! 5 stars!

I want to post or [tab]
guest
You may want to rate the tab now too:
select rating
Please do not post tabs as comments. Select "correction" instead!