Oops, an error
Loading. Please wait.

Kristy Are You Doing Okay Tab

ver1
ver1

Whole song

More versions @911Tabs.com
200,194 views 225 this week
23 commentsread comments
1 2 3 4 5
excellent!
x 35
Autoscroll
+/-
esc
set tempo
stop
Contributor
Difficulty
intermediate
WARNING: You are trying to view
                                    content from Ultimate-Guitar.com
                                    in an unauthorized application,
                                    which is prohibited.

                                    Please use an official Ultimate
                                    Guitar Tabs application for iPhone,
                                    iPad or Android to access legitimate
                                    chords, guitar, bass, and drum tabs
                                    from Ultimate-Guitar.com database.

                                    Type "ultimate guitar tabs" in Apple
                                    App Store's or Android Market's
                                    search to find the application.
-------------------------------------------------------------------------------
                                           Kristy, Are You Doing Okay? - The Offspring
-------------------------------------------------------------------------------

Great song off the offspring's new album "Rise and Fall, Rage and Grace".
I'm pretty sure it's correct.
Comment if you think somethings wrong.

-Guitar 1 (Dexter) - Standard Tuning (Capo 1st fret!)
-Guitar 2 (Noodles) - Standard tuning (No Capo!)


Intro:

Guitar 1:
e|----------------------------------------|
B|----------------------------------------|
G|-----4-44------4-44------4-44------4-44-|
D|-----4-44------4-44------4-44------4-44-|
A|-2-2-2-22--2-2-2-22------x-xx------x-xx-|
E|---------------------0-0-0-00--2-2-2-22-|(X2)


Verse:

Guitar 1:
|----------------------------------------|
|----------------------------------------|
|-----4-44------4-44------4-44------4-44-|
|-----4-44------4-44------4-44------4-44-|
|-2-2-2-22--1-1-1-11------x-xx------x-xx-|
|---------------------4-4-4-44--2-2-2-22-|

----------------------------------------|
----------------------------------------|
-----4-44------4-44------4-44------4-44-|
-----4-44------4-44------4-44------4-44-|
-----x-xx------x-xx------x-xx------x-xx-|
-0-0-0-00--0-0-0-00--2-2-2-22--2-2-2-22-|(X2)


Pre-Chorus:

Guitar 1:
|----------------------------------|
|----------------------------------|
|----------------------------------|
|-2-2-2-2-2-2-2-2--4-4-4-4-4-4-4-4-|
|-2-2-2-2-2-2-2-2--4-4-4-4-4-4-4-4-|
|-0-0-0-0-0-0-0-0--2-2-2-2-2-2-2-2-|

----------------------------------------|
----------------------------------------|
-----4-44------4-44------4-44------4-44-|
-----4-44------4-44------4-44------4-44-|
-2-2-2-22--1-1-1-11------x-xx------x-xx-|
---------------------4-4-4-44--2-2-2-22-|

----------------------------------|
----------------------------------|
----------------------------------|
-2-2-2-2-2-2-2-2--4-4-4-4-4-------|
-2-2-2-2-2-2-2-2--4-4-4-4-4-------|
-0-0-0-0-0-0-0-0--2-2-2-2-2-------|

Chorus:

Guitar 1:
|----------------------------------|
|----------------------------------|
|-4-4-4-4-4-4-4-4------------------|
|-4-4-4-4-4-4-4-4--6-6-6-6-6-6-6-6-|
|-2-2-2-2-2-2-2-2--6-6-6-6-6-6-6-6-|
|------------------4-4-4-4-4-4-4-4-|

--------------------------------------|
--------------------------------------|
-6-6-6-6-6-6-6-6--9-9-9-9-11-11-11-11-|
-6-6-6-6-6-6-6-6--9-9-9-9-11-11-11-11-|
-4-4-4-4-4-4-4-4--7-7-7-7--9--9--9--9-|
--------------------------------------|

----------------------------------|
----------------------------------|
-4-4-4-4-4-4-4-4------------------|
-4-4-4-4-4-4-4-4--6-6-6-6-6-6-6-6-|
-2-2-2-2-2-2-2-2--6-6-6-6-6-6-6-6-|
------------------4-4-4-4-4-4-4-4-|

-----------------------------------|
-----------------------------------|
-6-6-6-6-6-6-6-6-------------------|
-6-6-6-6-6-6-6-6--2-2-2-2--4-4-4-4-|
-4-4-4-4-4-4-4-4--2-2-2-2--4-4-4-4-|
------------------0-0-0-0--2-2-2-2-|


Guitar 2:
|----------------------------------|
|----------------------------------|
|-5-5-5-5-5-5-5-5------------------|
|-5-5-5-5-5-5-5-5--7-7-7-7-7-7-7-7-|
|-3-3-3-3-3-3-3-3--7-7-7-7-7-7-7-7-|
|------------------5-5-5-5-5-5-5-5-|

-----------------------------------------|
-----------------------------------------|
-7-7-7-7-7-7-7-7-10-10-10-10-12-12-12-12-|
-7-7-7-7-7-7-7-7-10-10-10-10-12-12-12-12-|
-5-5-5-5-5-5-5-5--8--8--8--8-10-10-10-10-|
-----------------------------------------|

----------------------------------|
----------------------------------|
-5-5-5-5-5-5-5-5------------------|
-5-5-5-5-5-5-5-5--7-7-7-7-7-7-7-7-|
-3-3-3-3-3-3-3-3--7-7-7-7-7-7-7-7-|
------------------5-5-5-5-5-5-5-5-|

-----------------------------------|
-----------------------------------|
-7-7-7-7-7-7-7-7-------------------|
-7-7-7-7-7-7-7-7--3-3-3-3--5-5-5-5-|
-5-5-5-5-5-5-5-5--3-3-3-3--5-5-5-5-|
------------------1-1-1-1--3-3-3-3-|


Post-Chorus:

Guitar 1:
|----------------------------------------|
|----------------------------------------|
|-----4-44------4-44------4-44------4-44-|
|-----4-44------4-44------4-44------4-44-|
|-2-2-2-22--2-2-2-22------x-xx------x-xx-|
|---------------------0-0-0-00--2-2-2-22-|

Verse 2:

Guitar 1:
|----------------------------------------|
|----------------------------------------|
|-----4-44------4-44------4-44------4-44-|
|-----4-44------4-44------4-44------4-44-|
|-2-2-2-22--1-1-1-11------x-xx------x-xx-|
|---------------------4-4-4-44--2-2-2-22-|

----------------------------------------|
----------------------------------------|
-----4-44------4-44------4-44------4-44-|
-----4-44------4-44------4-44------4-44-|
-----x-xx------x-xx------x-xx------x-xx-|
-0-0-0-00--0-0-0-00--2-2-2-22--2-2-2-22-|(X2)

Guitar 2:
|------------------------------------|
|------------------------------------|
|-5-5-5-5--5-5-5-5-------------------|
|-5-5-5-5--5-5-5-5--7-7-7-7--5-5-5-5-|
|-3-3-3-3--2-2-2-2--7-7-7-7--5-5-5-5-|
|-------------------5-5-5-5--3-3-3-3-|
  x x x x  x x x x  x x x x  x x x x

----------------------------------|
----------------------------------|
----------------------------------|
-3-3-3-3-3-3-3-3--5-5-5-5-5-5-5-5-|
-3-3-3-3-3-3-3-3--5-5-5-5-5-5-5-5-|
-1-1-1-1-1-1-1-1--3-3-3-3-3-3-3-3-|
 x x x x x x x x  x x x x x x x x

Pre-Chorus:

Guitar 1:
|----------------------------------|
|----------------------------------|
|----------------------------------|
|-2-2-2-2-2-2-2-2--4-4-4-4-4-4-4-4-|
|-2-2-2-2-2-2-2-2--4-4-4-4-4-4-4-4-|
|-0-0-0-0-0-0-0-0--2-2-2-2-2-2-2-2-|

----------------------------------------|
----------------------------------------|
-----4-44------4-44------4-44------4-44-|
-----4-44------4-44------4-44------4-44-|
-2-2-2-22--1-1-1-11------x-xx------x-xx-|
---------------------4-4-4-44--2-2-2-22-|

----------------------------------|
----------------------------------|
----------------------------------|
-2-2-2-2-2-2-2-2--4-4-4-4-4-------|
-2-2-2-2-2-2-2-2--4-4-4-4-4-------|
-0-0-0-0-0-0-0-0--2-2-2-2-2-------|


Guitar 2:
|----------------------------------|
|----------------------------------|
|----------------------------------|
|-3-3-3-3-3-3-3-3--5-5-5-5-5-5-5-5-|
|-3-3-3-3-3-3-3-3--5-5-5-5-5-5-5-5-|
|-1-1-1-1-1-1-1-1--3-3-3-3-3-3-3-3-|
  x x x x x x x x  x x x x x x x x

----------------------------------------|
----5---------5---------5---------5-----|
-------5---------5---------5---------5--|
----------------------------------------|
-3---------2----------------------------|
---------------------5---------3--------|

----------------------------------|
----------------------------------|
----------------------------------|
-3-3-3-3-3-3-3-3--5-5-5-5-5-------|
-3-3-3-3-3-3-3-3--5-5-5-5-5-------|
-1-1-1-1-1-1-1-1--3-3-3-3-3-------|
 x x x x x x x x  x x x x x


Chorus:

Guitar 1:
|----------------------------------|
|----------------------------------|
|-4-4-4-4-4-4-4-4------------------|
|-4-4-4-4-4-4-4-4--6-6-6-6-6-6-6-6-|
|-2-2-2-2-2-2-2-2--6-6-6-6-6-6-6-6-|
|------------------4-4-4-4-4-4-4-4-|

--------------------------------------|
--------------------------------------|
-6-6-6-6-6-6-6-6--9-9-9-9-11-11-11-11-|
-6-6-6-6-6-6-6-6--9-9-9-9-11-11-11-11-|
-4-4-4-4-4-4-4-4--7-7-7-7--9--9--9--9-|
--------------------------------------|

----------------------------------|
----------------------------------|
-4-4-4-4-4-4-4-4------------------|
-4-4-4-4-4-4-4-4--6-6-6-6-6-6-6-6-|
-2-2-2-2-2-2-2-2--6-6-6-6-6-6-6-6-|
------------------4-4-4-4-4-4-4-4-|

-----------------------------------|
-----------------------------------|
-6-6-6-6-6-6-6-6-------------------|
-6-6-6-6-6-6-6-6--2-2-2-2--4-4-4-4-|
-4-4-4-4-4-4-4-4--2-2-2-2--4-4-4-4-|
------------------0-0-0-0--2-2-2-2-|


Guitar 2:
|----------------------------------|
|----------------------------------|
|-5-5-5-5-5-5-5-5------------------|
|-5-5-5-5-5-5-5-5--7-7-7-7-7-7-7-7-|
|-3-3-3-3-3-3-3-3--7-7-7-7-7-7-7-7-|
|------------------5-5-5-5-5-5-5-5-|

-----------------------------------------|
-----------------------------------------|
-7-7-7-7-7-7-7-7-10-10-10-10-12-12-12-12-|
-7-7-7-7-7-7-7-7-10-10-10-10-12-12-12-12-|
-5-5-5-5-5-5-5-5--8--8--8--8-10-10-10-10-|
-----------------------------------------|

----------------------------------|
----------------------------------|
-5-5-5-5-5-5-5-5------------------|
-5-5-5-5-5-5-5-5--7-7-7-7-7-7-7-7-|
-3-3-3-3-3-3-3-3--7-7-7-7-7-7-7-7-|
------------------5-5-5-5-5-5-5-5-|

-----------------------------------|
-----------------------------------|
-7-7-7-7-7-7-7-7-------------------|
-7-7-7-7-7-7-7-7--3-3-3-3--5-5-5-5-|
-5-5-5-5-5-5-5-5--3-3-3-3--5-5-5-5-|
------------------1-1-1-1--3-3-3-3-|

Post-Chorus:

Guitar 1:
|----------------------------------------|
|----------------------------------------|
|-----4-44------4-44------4-44------4-44-|
|-----4-44------4-44------4-44------4-44-|
|-2-2-2-22--2-2-2-22------x-xx------x-xx-|
|---------------------0-0-0-00--2-2-2-22-|(X2)

Solo:

Guitar 1:
|------------------------------------|
|------------------------------------|
|-4-4-4-4--4-4-4-4-------------------|
|-4-4-4-4--4-4-4-4--6-6-6-6--4-4-4-4-|
|-2-2-2-2--1-1-1-1--6-6-6-6--4-4-4-4-|
|-------------------4-4-4-4--2-2-2-2-|

----------------------------------|
----------------------------------|
----------------------------------|
-2-2-2-2-2-2-2-2--4-4-4-4-4-4-4-4-|
-2-2-2-2-2-2-2-2--4-4-4-4-4-4-4-4-|
-0-0-0-0-0-0-0-0--2-2-2-2-2-2-2-2-|


Guitar 2:
|-------------------------------------------------|
|-13----13----12----12----13----13----12----12----|
|----12----12----12----12----14----14----12----12-|
|-------------------------------------------------|
|-------------------------------------------------|
|-------------------------------------------------|

----------------------|
----------------------|
-10~~~-9--7--9--7-7~~-|
----------------------|
----------------------|
----------------------|

-------------------------------------------------|
-13----13----12----12----13----13----12----12----|
----12----12----12----12----14----14----12----12-|
-------------------------------------------------|
-------------------------------------------------|
-------------------------------------------------|

-13-13-13-13-12-12-10-10-12--15-15~~~~~-|
----------------------------------------|
----------------------------------------|
----------------------------------------|
----------------------------------------|
----------------------------------------|

Pre-Chorus:

Guitar 1:
|----------------------------------|
|----------------------------------|
|----------------------------------|
|-2-2-2-2-2-2-2-2--4-4-4-4-4-4-4-4-|
|-2-2-2-2-2-2-2-2--4-4-4-4-4-4-4-4-|
|-0-0-0-0-0-0-0-0--2-2-2-2-2-2-2-2-|

----------------------------------------|
----------------------------------------|
-----4-44------4-44------4-44------4-44-|
-----4-44------4-44------4-44------4-44-|
-2-2-2-22--1-1-1-11------x-xx------x-xx-|
---------------------4-4-4-44--2-2-2-22-|

---------------------------------|
---------------------------------|
---------------------------------|
-2-2-2-2-2-2-2-2-2-2-2-2-2-2-2-2-|
-2-2-2-2-2-2-2-2-2-2-2-2-2-2-2-2-|
-0-0-0-0-0-0-0-0-0-0-0-0-0-0-0-0-|

---------------------------------|
---------------------------------|
---------------------------------|
-4-4-4-4-4-4-4-4-4-4-4-4-4-------|
-4-4-4-4-4-4-4-4-4-4-4-4-4-------|
-2-2-2-2-2-2-2-2-2-2-2-2-2-------|


Guitar 2:
|----------------------------------------|
|----5---------5---------5---------5-----|
|-------5---------5---------5---------5--|
|----------------------------------------|
|-3---------2----------------------------|
|---------------------5---------3--------|

---------------------------------|
---------------------------------|
---------------------------------|
-3-3-3-3-3-3-3-3-3-3-3-3-3-3-3-3-|
-3-3-3-3-3-3-3-3-3-3-3-3-3-3-3-3-|
-1-1-1-1-1-1-1-1-1-1-1-1-1-1-1-1-|

---------------------------------|
---------------------------------|
---------------------------------|
-5-5-5-5-5-5-5-5-5-5-5-5-5-------|
-5-5-5-5-5-5-5-5-5-5-5-5-5-------|
-3-3-3-3-3-3-3-3-3-3-3-3-3-------|

Final Chorus:

Guitar 1:
|----------------------------------|
|----------------------------------|
|-4-4-4-4-4-4-4-4------------------|
|-4-4-4-4-4-4-4-4--6-6-6-6-6-6-6-6-|
|-2-2-2-2-2-2-2-2--6-6-6-6-6-6-6-6-|
|------------------4-4-4-4-4-4-4-4-|

--------------------------------------|
--------------------------------------|
-6-6-6-6-6-6-6-6--9-9-9-9-11-11-11-11-|
-6-6-6-6-6-6-6-6--9-9-9-9-11-11-11-11-|
-4-4-4-4-4-4-4-4--7-7-7-7--9--9--9--9-|
--------------------------------------|

----------------------------------|
----------------------------------|
-4-4-4-4-4-4-4-4------------------|
-4-4-4-4-4-4-4-4--6-6-6-6-6-6-6-6-|
-2-2-2-2-2-2-2-2--6-6-6-6-6-6-6-6-|
------------------4-4-4-4-4-4-4-4-|

--------------------------------------|
--------------------------------------|
-6-6-6-6-6-6-6-6--9-9-9-9-11-11-11-11-|
-6-6-6-6-6-6-6-6--9-9-9-9-11-11-11-11-|
-4-4-4-4-4-4-4-4--7-7-7-7--9--9--9--9-|
--------------------------------------|

------------------------------------|
------------------------------------|
-4-4-4-4--4-4-4-4-------------------|
-4-4-4-4--4-4-4-4--6-6-6-6--4-4-4-4-|
-2-2-2-2--1-1-1-1--6-6-6-6--4-4-4-4-|
-------------------4-4-4-4--2-2-2-2-|

----------------------------------|
----------------------------------|
----------------------------------|
-2-2-2-2-2-2-2-2--4-4-4-4-4-4-4-4-|
-2-2-2-2-2-2-2-2--4-4-4-4-4-4-4-4-|
-0-0-0-0-0-0-0-0--2-2-2-2-2-2-2-2-|


Guitar 2:
|----------------------------------|
|----------------------------------|
|-5-5-5-5-5-5-5-5------------------|
|-5-5-5-5-5-5-5-5--7-7-7-7-7-7-7-7-|
|-3-3-3-3-3-3-3-3--7-7-7-7-7-7-7-7-|
|------------------5-5-5-5-5-5-5-5-|

-----------------------------------------|
-----------------------------------------|
-7-7-7-7-7-7-7-7-10-10-10-10-12-12-12-12-|
-7-7-7-7-7-7-7-7-10-10-10-10-12-12-12-12-|
-5-5-5-5-5-5-5-5--8--8--8--8-10-10-10-10-|
-----------------------------------------|

----------------------------------|
----------------------------------|
-5-5-5-5-5-5-5-5------------------|
-5-5-5-5-5-5-5-5--7-7-7-7-7-7-7-7-|
-3-3-3-3-3-3-3-3--7-7-7-7-7-7-7-7-|
------------------5-5-5-5-5-5-5-5-|

-----------------------------------------|
-----------------------------------------|
-7-7-7-7-7-7-7-7-10-10-10-10-12-12-12-12-|
-7-7-7-7-7-7-7-7-10-10-10-10-12-12-12-12-|
-5-5-5-5-5-5-5-5--8--8--8--8-10-10-10-10-|
-----------------------------------------|

-------------------------------------------------|
-13----13----12----12----13----13----12----12----|
----12----12----12----12----14----14----12----12-|
-------------------------------------------------|
-------------------------------------------------|
-------------------------------------------------|

----------------------------------|
----------------------------------|
----------------------------------|
-3-3-3-3-3-3-3-3--5-5-5-5-5-5-5-5-|
-3-3-3-3-3-3-3-3--5-5-5-5-5-5-5-5-|
-1-1-1-1-1-1-1-1--3-3-3-3-3-3-3-3-|

Outro:

Guitar 1:
|----------------------------------------|
|----------------------------------------|
|-----4-44------4-44------4-44------4-44-|
|-----4-44------4-44------4-44------4-44-|
|-2-2-2-22--2-2-2-22------x-xx------x-xx-|
|---------------------0-0-0-00--2-2-2-22-|(X2)

|--------|
|--------|
|-4~~~~~-|
|-4~~~~~-|
|-2~~~~~-|
|--------|

That's it.

===============================================================================
comments
print report bad tab
23 comments total. Showing first comments.
+2 reply
syngates777 wrote on July 15 2008, 11:09 pm

OH MY GOD FINALLY. A perfect tab of this song. :D
Major kudos.

+1 reply
aflyingmeatball wrote on August 1 2008, 03:10 pm

I have a question. You say to capo the first fret of guitar 1. well how do you play a 0. Or do you mean like every fret after the capo like a 4 is a 5, and a 2 is a 3, and a 0 is just the capod fret. email me at aflyingmeatball@gmail.com

+2 reply
magic_pixies wrote on August 8 2008, 09:43 am

ye a 4 is a 5 and a 2 is a 3 and a 0 is the capo'd fret.
its all relative to the capo.

I want to post or [tab]
guest
You may want to rate the tab now too:
select rating
Please do not post tabs as comments. Select "correction" instead!