Oops, an error
Loading. Please wait.

Rise And Fall Rage And Grace Bass Tab

9,892 views 9 this week
3 commentsread comments
1 2 3 4 5
worth learning
x 5
add to favorites launch autoscroll
font size
0
reset
Autoscroll
+/-
esc
set tempo
stop
Contributor
WARNING: You are trying to view
                                    content from Ultimate-Guitar.com
                                    in an unauthorized application,
                                    which is prohibited.

                                    Please use an official Ultimate
                                    Guitar Tabs application for iPhone,
                                    iPad or Android to access legitimate
                                    chords, guitar, bass, and drum tabs
                                    from Ultimate-Guitar.com database.

                                    Type "ultimate guitar tabs" in Apple
                                    App Store's or Android Market's
                                    search to find the application.
++++++++++++++++++++++++++++++++++++++++++++++++
| The Offspring- Rise And Fall, Rage And Grace |
++++++++++++++++++++++++++++++++++++++++++++++++


Bass Tab
Album: "Rise And Fall, Rage And Grace" -- 2008
Tabbed By: RaiLeff
E-Mail: Underground__Dora@Hotmail.Com


After a long time tabbing I finally
finished The Offspring's latest work
Its absolutely great, I simply love all the new songs
These guys are the best, I cant die without seeing
them live first
All these tabs are my own tabber's hard work
Ok, the songs are perfect and so are the tabs
So enjoy and rate fairly thanks!!!
Cheers!


..::RaiLeff::.. [!]

______________________________________________________

Tuning: EADG


Keys:

| x: Mute
| ~: Let Ring
| /: Slide Up
| \: Slide Down
| h: Hammer On
| p: Pull Off


Tracks:

1. Half-Truism
2. Trust In You
3. You're Gonna Go Far, Kid
4. Hammerhead
5. A Lot Like Me
6. Takes Me Nowhere
7. Kristy, Are You Doing Ok?
8. Nothingtown
9. Stuff Is Messed Up
10. Fix You
11. Lets Hear It For The Rock Bottom
12. Rise And Fall
13. O.C. Life (Bonus Track)


_______________________________________________________

1.

++++++++++++++++++++++++++++++
| The Offspring- Half-Truism |
++++++++++++++++++++++++++++++


"Well its a hell of a good day to die..."

Tuning: EADG


Verse
"One is for envy, and one is for spite..."
1.
G|-------------------------------------------------------------------------------------------------|
D|-------------------------------------------------------------------------------------------------|
A|-77777-77777-77777-77777-33333-33333-33333-33333-------------------------55555-55555-55555-55555-|
E|-------------------------------------------------33333-33333-33333-33333-------------------------|

"Your self-liberation will leave this behind..."
2.
G|-------------------------------------------------------------------------------------------------|
D|-------------------------------------------------55555-55555-55555-55555-------------------------|
A|-77777-77777-77777-77777-33333-33333-33333-33333-------------------------55555-55555-55555-55555-|
E|-------------------------------------------------------------------------------------------------|

Chorus
"If we dont make it alive..."
3.
G|-----------------------------------------------------------------|
D|---------------------------------2-2-2-2-0-0-0-0---------0-0-0-0-|
A|-----------------5~--5~-55~--22~-----------------3-3-3-3---------|
E|-3~--3~-33~--33~-------------------------------------------------|

"And its ashes to ashes again..."
4.
G|-----------------------------------------------------------------|
D|-5~--5~-55~--542-----------------2-2-2-2-0-0-0-0---------0-0-0-0-|
A|-----------------5~--5~-55~--22~-----------------3-3-3-3---------|
E|-----------------------------------------------------------------|

Outro
5.
G|----------------|
D|----------------|
A|----------------|
E|-3~--3~-33~--3x-|

Verse
"The banner you're waving is burning and red..."
6.
G|-------------------------------------------------------------------------------------------------|
D|-------------------------------------------------------------------------------------------------|
A|-77777-77777-77777-77777-33333-33333-33333-33333-------------------------55555-55555-55555-55555-|
E|-------------------------------------------------33333-33333-33333-33333-------------------------|

"Your own liberation will leave them behind..."
7.
G|-------------------------------------------------------------------------------------------------|
D|-------------------------------------------------55555-55555-55555-55555-------------------------|
A|-77777-77777-77777-77777-33333-33333-33333-33333-------------------------55555-55555-55555-55555-|
E|-------------------------------------------------------------------------------------------------|

Chorus
"If we dont make it alive..."
8.
G|-----------------------------------------------------------------|
D|---------------------------------2-2-2-2-0-0-0-0---------0-0-0-0-|
A|-----------------5~--5~-55~--22~-----------------3-3-3-3---------|
E|-3~--3~-33~--33~-------------------------------------------------|

"And its ashes to ashes again..."
9.
G|-----------------------------------------------------------------|
D|-5~--5~-55~--542-----------------2-2-2-2-0-0-0-0---------0-0-0-0-|
A|-----------------5~--5~-55~--22~-----------------3-3-3-3---------|
E|-----------------------------------------------------------------|

Outro
10.
G|-------------------|
D|-2~----------------|
A|-------------------|
E|-------------------|

Bridge
"The banner you're waving is burning and red..."
11.
G|------------------------------------------------------------------------------------------------|
D|------------------------------------------------------------------------------------------------|
A|-7~-77~-7~-77-7-5-3~-33~-3~-33-33------------------55555-55555-55555-55555-55555-55555-55555555-|
E|----------------------------------3-~33~-3~-33-3-3----------------------------------------------|

Chorus
"If we dont make it alive..."
12.
G|-----------------------------------------------------------------|
D|---------------------------------2-2-2-2-0-0-0-0---------0-0-0-0-|
A|-------------------------------------------------3-3-3-3---------|
E|-----------------------------------------------------------------|

"And its ashes to ashes again..."
13.
G|-----------------------------------------------------------------|
D|-5~--5~-55~--542-----------------2-2-2-2-0-0-0-0---------0-0-0-0-|
A|-----------------5~--5~-55~--22~-----------------3-3-3-3---------|
E|-----------------------------------------------------------------|

"All our light that shines strong only lasts for so long..."
14.
G|---------------------------------|
D|-2-2-2-2-0-0-0-0---------0-0-0-0-|
A|-----------------3-3-3-3---------|
E|---------------------------------|

Outro
15.
G|-----------------|
D|-----------------|
A|-----------------|
E|-3~--3~-33~--33x-|


Lyrics:


One is for envy
And one just for spite
The cuts in my heart
They show in your eyes
Don’t make it better
The twisting knife
Turns all by itself
Move on to someone else

Your self-liberation
Will leave this behind
Beyond slings and arrows
That rain on our minds
You’ll make it better
Shake it off
It never mattered anyway

If we don’t make it alive
Well it’s a hell of a good day to die
All our light that shines strong
Only lasts for so long

And it’s ashes to ashes again
Should we even try to pretend?
All our light that shines strong
Only lasts for so long

The banner you’re waving
Is burning and red
It’s blocking the sunlight
That shines overhead
You against the world
Diamonds and pearls
Voices inside you churn
Watch the city burn

Your own liberation
Will leave them behind
All the slings and arrows
That rain on your mind
Don’t make it better
Break it cause
It never mattered anyway


_____________________________________________________

2.

+++++++++++++++++++++++++++++++
| The Offspring- Trust In You |
+++++++++++++++++++++++++++++++


"Quo modo, shadow to light..."

Tuning: EADG


Verse
"I am the one your help I've refused..."
1.
G|-----------------------------------------------------------------------------------|
D|-333333----------------111111----------------333333----------------111111----------|
A|-----------------------------1133333x------------------------------------113-3-3-3-|
E|-------3344444x------------------------------------3344444x------------------------|

"Too proud to beg, too stubborn to try..."
2.
G|-------------------------------------------------------------------------|
D|-------------------111111------------------------------111111------------|
A|-------------------------11-33333333-------------------------11-33333333-|
E|-11111133-44444444-------------------11111133-44444444-------------------|

Chorus
"Trust in you, trust in you..."
3.
G|----------------------------------------------------------------------3311-|
D|-333-1333-1333-13311-------------------------------------11111111-1111-----|
A|---------------------44444444-44444466-------------------------------------|
E|---------------------------------------44444444-44444444-------------------|

"Quo modo, shadow to light..."
4.
G|---------------------------------------------------------------------------|
D|-333-1333-1333-13311-------------------------------------11111111-11111111-|
A|---------------------44444444-44444466-------------------------------------|
E|---------------------------------------44444444-44444444-------------------|

Outro
5.
G|-----------------------------------------------|
D|-----------------------------------------------|
A|------------------1~-111------4~-346-88~-68-8\-|
E|-1-1114~-444-1-111-------1-111-----------------|

6.
G|---------------------------------------------|
D|---------------------------------------------|
A|------------------1~-111------4~-346-88~-68x-|
E|-1-1114~-444-1-111-------1-111---------------|

Verse
"I am the one who blames only you..."
7.
G|-----------------------------------------------------------------------------------|
D|-333333----------------111111----------------333333----------------111111----------|
A|-----------------------------1133333x------------------------------------113-3-3-3-|
E|-------3344444x------------------------------------3344444x------------------------|

"Who tied the other end of my rope?"
8.
G|-------------------------------------------------------------------------|
D|-------------------111111------------------------------111111------------|
A|-------------------------11-33333333-------------------------11-33333333-|
E|-11111133-44444444-------------------11111133-44444444-------------------|

Chorus
"Trust in you, trust in you..."
9.
G|----------------------------------------------------------------------3311-|
D|-333-1333-1333-13311-------------------------------------11111111-1111-----|
A|---------------------44444444-44444466-------------------------------------|
E|---------------------------------------44444444-44444444-------------------|

"Quo modo, shadow to light..."
10.
G|---------------------------------------------------------------------------|
D|-333-1333-1333-13311-------------------------------------11111111-11111111-|
A|---------------------44444444-44444466-------------------------------------|
E|---------------------------------------44444444-44444444-------------------|

Outro
11.
G|-----------------------------------------------|
D|-----------------------------------------------|
A|------------------1~-111------4~-346-88~-68-8\-|--x2
E|-1-1114~-444-1-111-------1-111-----------------|

Bridge
12.
G|-------------------------------------------------------------------------|
D|--------------33----------------1133--------------33----------------1133-|
A|----------------33-44444444-4444--------------------33-44444444-4444-----|--x2
E|-11111111-1111-----------------------11111111-1111-----------------------|

13.
G|-------------------------------------------------------------------------|
D|-------------------------------------------------------------------------|
A|-------------------44444444-44444444-----------4444444----------66666666-|
E|-11111111-11111111-------------------11111111-1--------44444444----------|

Chorus
"Trust in you, trust in you..."
14.
G|----------------------------------------------------------------------3311-|
D|-333-1333-1333-13311-------------------------------------11111111-1111-----|
A|---------------------44444444-44444466-------------------------------------|
E|---------------------------------------44444444-44444444-------------------|

"Quo modo, shadow to light..."
15.
G|---------------------------------------------------------------------------|
D|-333-1333-1333-13311-------------------------------------11111111-11111111-|
A|---------------------44444444-44444466-------------------------------------|
E|---------------------------------------44444444-44444444-------------------|

Outro
16.
G|-----------------------------------------------|
D|-----------------------------------------------|
A|------------------1~-111------4~-346-88~-68-8\-|
E|-1-1114~-444-1-111-------1-111-----------------|

17.
G|---------------------------------------------|
D|---------------------------------------------|
A|------------------1~-111------4~-346-88~-68x-|
E|-1-1114~-444-1-111-------1-111---------------|


Lyrics:


I am the one, your help I’ve refused
Your offering hand just set off the fuse
I am the rock that pushes away
I gave up tomorrow to spite today

Too proud to beg, too stubborn to try
I’d look in your face and spit in your eye
But I’m willing to find what’s really inside
And show I am strong enough to

Trust in you.
Pull me up
Quo modo, shadow to light
Quo modo, pull me up
Pull me up
Cause I am ready

I am the one who blames only you
The flame in my eyes now blackens my view
I am the one who wanders alone
Darkness inside blocks how you’ve shone

Who tied the other end of my rope?
I want to move on, I want to have hope
So I’m willing to change, I’m going to try
To show I am strong enough to

Cause I am waiting


_________________________________________________________

3.

+++++++++++++++++++++++++++++++++++++++++++
| The Offspring- You're Gonna Go Far, Kid |
+++++++++++++++++++++++++++++++++++++++++++


"Now dance, fucker, dance..."

Tuning: EADG


Verse
"Now dance, fucker, dance..."
1.
G|-------------------------------------------------------------------------|
D|-------------------33333333-33333333-------------------------------------|
A|-00000000-00000000-------------------33333333-33333333-------------------|
E|-------------------------------------------------------33333333-33333333-|

Pre-Chorus
"And now you steal away..."
2.
G|-------------------------------------------------------------------------|
D|-------------------------------------00000000-00000000-00000000-00000000-|
A|-------------------------------------------------------------------------|
E|-11111111-11111111-11111111-11111111-------------------------------------|

"Nice work you did..."
3.
G|-------------------------------------------------------------------------|
D|-33333333-33333333-33333333-33333333-22222222-22222222-------------------|
A|-------------------------------------------------------------------------|
E|-------------------------------------------------------3x--3x--3x--------|

Chorus
"With a thousand lies and a good disguise..."
4.
G|-------------------------------------------------------------------------|
D|-------------------33333333-33333333-------------------------------------|
A|-00000000-00000000-------------------33333333-33333333-------------------|--x2
E|-------------------------------------------------------33333333-xx3--xx3-|

Outro
5.
G|-----------|
D|-----------|
A|-0x--------|
E|-----------|

Verse
"Slowly out of line..."
6.
G|-----------------------------------------------------|
D|-----------------------------------------------------|
A|-00x-0x-0x-0x--------------33x-3x-3x-3x--------------|--x2
E|--------------11x-1x-1x-1x--------------33x-3x-3-034-|

"Now dance, fucker, dance..."
7.
G|-------------------------------------------------------------------------|
D|-------------------33333333-33333333-------------------------------------|
A|-00000000-00000000-------------------33333333-33333333-------------------|
E|-------------------------------------------------------33333333-33333333-|

Pre-Chorus
"And now you steal away..."
8.
G|-------------------------------------------------------------------------|
D|-------------------------------------00000000-00000000-00000000-00000000-|
A|-------------------------------------------------------------------------|
E|-11111111-11111111-11111111-11111111-------------------------------------|

"Nice work you did..."
9.
G|-------------------------------------------------------------------------|
D|-33333333-33333333-33333333-33333333-22222222-22222222-------------------|
A|-------------------------------------------------------------------------|
E|-------------------------------------------------------3x--3x--3x--------|

Chorus
"With a thousand lies and a good disguise..."
10.
G|-------------------------------------------------------------------------|
D|-------------------33333333-33333333-------------------------------------|
A|-00000000-00000000-------------------33333333-33333333-------------------|--x2
E|-------------------------------------------------------33333333-xx3--xx3-|

Outro
"For their lives..."
11.
G|-------------------------------------------------------------------|
D|-------2~----33333333-33333333-------------------22222222-22222222-|
A|-0~----------------------------33333333-33333333-------------------|
E|-------------------------------------------------------------------|

12.
G|-----------------------------------------------------------------------|
D|--------------------------------------------00000000-22222222-22222222-|
A|-xx0-xx0---------------------------33333333----------------------------|
E|---------xx3-xx3-11111111-11111111-------------------------------------|

13.
G|-------------------|
D|-------------------|
A|-------------------|
E|-00000000-33333333-|

Bridge
"Now dance, fucker, dance..."
14.
G|----------------------------------------------------------------------------------|
D|----------------------------------------------------------------------------------|
A|-00000000----------33333333----------00000000----------33333333-------------------|
E|----------11111111----------33333333----------11111111----------3x--3x--3x--------|

Chorus
"With a thousand lies and a good disguise..."
15.
G|-------------------------------------------------------------------------|
D|-------------------33333333-33333333-------------------------------------|
A|-00000000-00000000-------------------33333333-33333333-------------------|--x4
E|-------------------------------------------------------33333333-xx3--xx3-|

Outro
16.
G|---------------|
D|---------------|
A|-0x--------00x-|
E|---------------|



Lyrics:


Show me how to lie
You’re getting better all the time
And turning all against the one
Is an art that’s hard to teach
Another clever word
Sets off an unsuspecting herd
And as you get back into line
A mob jumps to their feet

Now dance, fucker, dance
Man, he never had a chance
And no one even knew
It was really only you

And now you steal away
Take him out today
Nice work you did
You’re gonna go far, kid

With a thousand lies
And a good disguise
Hit ‘em right between the eyes
Hit ‘em right between the eyes
When you walk away
Nothing more to say
See the lightning in your eyes
See ‘em running for their lives

Slowly out of line
And drifting closer in your sights
So play it out I’m wide awake
It’s a scene about me
There’s something in your way
And now someone is gonna pay
And if you can’t get what you want
Well it’s all because of me

And now you’ll lead the way
Show the light of day
Nice work you did
You’re gonna go far, kid
Trust, deceived!

So dance, fucker, dance
I never had a chance
It was really only you

Clever alibis
Lord of the flies
Hit ‘em right between the eyes
Hit ‘em right between the eyes
When you walk away
Nothing more to say
See the lightning in your eyes
See ‘em running for their lives


___________________________________________________________

4. 

+++++++++++++++++++++++++++++
| The Offspring- Hammerhead |
+++++++++++++++++++++++++++++


"Bang band it hammers in my head..."

Tuning: EADG


Intro
1.
G|---------------------------------|
D|-4/6~--4-4/6~--4-4/6~--4-4/6~--4-|
A|---------------------------------|--x4
E|---------------------------------|

2.
G|-----------------------------------------|
D|-----------------------------------------|
A|-----------------------------------------|
E|-4-4-4-22~-4-4-4-22~-4-4-4-22~-4-4-4-22~-|

Verse
"I am the one, camouflage and guns..."
3.
G|----------------------------------------------------------------------------------|
D|----------------------------------------------------------------------------------|
A|-2~-----2222~-----2222~-----2222~---46424-----------------------------------------|
E|------------------------------------------4-4-4-22~-4-4-4-22~-4-4-4-22~-4-4-4-22~-|

"Authority vested in me..."
4.
G|--------------------------------------------------------------|
D|--------------------------------------------------------------|
A|-2~-----2222~-----2222~-----2222~---46424---------------------|
E|------------------------------------------4-4-4-22~-4-4-4-22~-|

Pre-Chorus
"Through this doorway whats on the other side..."
5.
G|-------------------------------------------------------------------------------------------|
D|-------------------------------------------------------------------------------------------|
A|-4~--4-7-6-4-----------2-4~--4-7-6-4-----------2-44444-444-44444-444-66666-666-------------|
E|-------------444444444---------------444444444---------------------------------2~-2~-2~-2~-|

Chorus
"Oh, take the life that others may live..."
6.
G|---------------------------------------------|
D|---------------------------------------------|
A|------------7-7777-777-2-2222-222-6-6666-666-|--x3
E|-4-4444-444----------------------------------|

"Its playing over and over in my head..."
7.
G|----------------------------------------------|
D|----------------------------------------------|
A|------------7-7777-777-2-2222-222-6~-6~-6~-6~-|
E|-4-4444-444-----------------------------------|

Outro
8.
G|-----------------------------------------|
D|-----------------------------------------|
A|-----------------------------------------|
E|---------------------4-4-4-22~-4-4-4-22~-|

Verse
"Stay the course, reasonable force..."
9.
G|----------------------------------------------------------------------------------|
D|----------------------------------------------------------------------------------|
A|-2~-----2222~-----2222~-----2222~---46424-----------------------------------------|
E|------------------------------------------4-4-4-22~-4-4-4-22~-4-4-4-22~-4-4-4-22~-|

"Smoke and dust, enemies are crushed..."
10.
G|--------------------------------------------------------------|
D|--------------------------------------------------------------|
A|-2~-----2222~-----2222~-----2222~---46424---------------------|
E|------------------------------------------4-4-4-22~-4-4-4-22~-|

Pre-Chorus
"Through this doorway whats on the other side..."
11.
G|-------------------------------------------------------------------------------------------|
D|-------------------------------------------------------------------------------------------|
A|-4~--4-7-6-4-----------2-4~--4-7-6-4-----------2-44444-444-44444-444-66666-666-------------|
E|-------------444444444---------------444444444---------------------------------2~-2~-2~-2~-|

Chorus
"Oh, take the life that others may live..."
12.
G|---------------------------------------------|
D|---------------------------------------------|
A|------------7-7777-777-2-2222-222-6-6666-666-|--x3
E|-4-4444-444----------------------------------|

"Its playing over and over in my head..."
13.
G|----------------------------------------------------------|
D|----------------------------------------------------------|
A|------------7-7777-777-2-2222-222-6~-6~-6~-6~-7~-7~-6~-6~-|
E|-4-4444-444-----------------------------------------------|

Outro
14.
G|--------------------------------------------------------------------------------------|
D|----------222---------------222---------------222-------------------------------------|
A|-44x-42202---2~--2344x-42202---2~--2344x-42202---2~--234~-4~-4~-4~/-1616161616161616\-|
E|----------------4-----------------4-----------------4---------------------------------|

15.
G|----------------------------------------------------------------------------------------|
D|-----------222----------------222----------------222------------------------------------|
A|-44x-422x-2---2~--2344x-422x-2---2~--2344x-422x-2---2~--234~-4~-4~-4~/1616161616161616\-|
E|-----------------4------------------4------------------4--------------------------------|

16.
G|------------------------------------------------------------------------------------------|
D|-----------222----------------222----------------222--------------------------------------|
A|-44x-422x-2---2~--2344x-422x-2---2~--2344x-422x-2---2~--2344444x--44444x--44444x--44444x--|
E|-----------------4------------------4------------------4----------------------------------|

Bridge
"Bang band it hammers in my head..."
17.
G|----------------------------------------------------------------------------------|
D|-----------222----------------222----------------222------------------------------|
A|-44x-422x-2---2~--2344x-422x-2---2~--2344x-422x-2---2~--234~-4~-4~-4~-4~-4~-4~-4~-|
E|-----------------4------------------4------------------4--------------------------|

"Yeah, though I walk through the valley of the shadow of death..."
18.
G|--------------------------------------------------------------------------------------|
D|-----------222----------------222----------------222----------------------------------|
A|-44x-422x-2---2~--2344x-422x-2---2~--2344x-422x-2---2~--234~-4~-4~-4~/16~-16~-16~-16~-|
E|-----------------4------------------4------------------4------------------------------|

"And you can all hide behind your desks now..."
19.
G|----------------------------------------------------------------------------------------|
D|-----------222----------------222----------------222------------------------------------|
A|-44x-422x-2---2~--2344x-422x-2---2~--2344x-422x-2---2~--234~-4~-4~-4~/1616161616161616\-|
E|-----------------4------------------4------------------4--------------------------------|

"My aim is true!!!"
20.
G|----------------------------------------------------------------------------------|
D|-----------222----------------222----------------222------------------------------|
A|-44x-422x-2---2~--2344x-422x-2---2~--2344x-422x-2---2~--234~-4~-4~-4~-4~-4~-4~-4~-|
E|-----------------4------------------4------------------4--------------------------|

Outro
21.
G|-----------------------------------------------------------------------------|
D|-----------------------------------------------------------------------------|
A|-44x-------44x-------44x-------44x-------44444444-44444444-44444444-44444444-|
E|-----------------------------------------------------------------------------|

22.
G|-----------------------------------------------|
D|-----------------------------------------------|
A|-44444444-44444444-44444444-44444444-4~--------|
E|-----------------------------------------------|


Lyrics:


I am the one
Camouflage and guns
Risk my life
To keep my people from harm

Authority
Vested in me
I sacrifice
With my brothers in arms

Through this doorway
What's on the other side
Never knowing
Exactly what I'll find
Locked and loaded
Voices screaming
Let's go! Come on do it!
Here we go

Oh, take a life
That others may live
Oh, that's just the way it goes
Oh, shut my eyes
It hammers in my head
Where it'll end
Nobody knows

Oh, take this life
That ten others may live
Oh, that's just the way it goes
It's playing over and over in my head
Where it'll end
Nobody knows

Stay the course
Reasonable force
I believe I serve a greater good

Smoke and dust
Enemies are crushed
Nothing left
Where a man once stood

But I'm just doing what I'm told

Bang band it hammers in my head...
In my head, in my head...

Yeah, though I walk through the valley of the shadow of death,
I will fear no evil: for Thou art with me
Locked and loaded
Gonna find my truth
Now I'm busting through
All hell breaks loose

And you can all hide behind your desks now
And you can cry, 'teacher come help me!'
Through you all
My aim is true!


_____________________________________________________

5.

++++++++++++++++++++++++++++++++
| The Offspring- A Lot Like Me |
++++++++++++++++++++++++++++++++


"Want it, you got it, you're sorry you bought it, you're sliding..."

Tuning: EADG


Intro
1.
G|-------------------------------------------------------------------------|
D|-------------------------------------------------------------------------|
A|-22222222-25555555-00000000-07777777-22222222-25555555-00000000-07777777-|
E|-------------------------------------------------------------------------|

Verse
"How does it feel?"
2.
G|-------------------------------------------------------------------------|
D|-------------------------------------------------------------------------|
A|-22222222-25555555-70000000-0--------22222222-25555555-70000000-0--------|
E|-----------------------------0000000-----------------------------0000000-|

"Where do you run?"
3.
G|-------------------------------------------------------------------------|
D|-------------------------------------------------------------------------|
A|-22222222-25555555-70000000-0--------22222222-25555555-------------------|
E|-----------------------------0000000-------------------22222222-00000~---|

Chorus
"And the rain comes..."
4.
G|-------------------------------------------------------------------------|
D|-------------------------------------------------------------------------|
A|-22222222-25555555-00000000-07777777-22222222-25555555-00000000-07777777-|
E|-------------------------------------------------------------------------|

Verse
"How can you take without giving back?"
5.
G|-------------------------------------------------------------------------|
D|-------------------------------------------------------------------------|
A|-22222222-25555555-70000000-0--------22222222-25555555-70000000-0--------|
E|-----------------------------0000000-----------------------------0000000-|

"How does it feel?"
6.
G|-------------------------------------------------------------------------|
D|-------------------------------------------------------------------------|
A|-22222222-25555555-70000000-0--------22222222-25555555-------------------|
E|-----------------------------0000000-------------------22222222-00000000-|

Chorus
"And the rain comes..."
7.
G|-------------------------------------------------------------------------|
D|-------------------------------------------------------------------------|
A|-22222222-25555555-00000000-07777777-22222222-25555555-00000000-07777777-|
E|-------------------------------------------------------------------------|

"Want it, you got it, you're sorry..."
8.
G|-----------7777777-------------------------------------------------------|
D|-99999999-9--------77777777-7--------------------------------------------|
A|-----------------------------7777777-22222222-25555555-------------------|
E|-------------------------------------------------------33333333-33335555-|

Outro
9.
G|-------------------------------------------------------------------------|
D|-------------------------------------------------------------------------|
A|-22222222-25555555-00000000-07777777-22222222-25555555-00000000-07777777-|
E|-------------------------------------------------------------------------|

Verse
"How can you take without giving back?"
10.
G|-----------------------------------------------------------------------|
D|-----------------------------------------------------------------------|
A|-22222222-25555555-70000000-0--------22222222-25555555-----------------|
E|-----------------------------0000000-------------------33333333-33335x-|

Chorus
"Want it, you got it, you're sorry..."
11.
G|-------------------------------------------------------------------------|
D|-------------------------------------------------------------------------|
A|-22222222-25555555-00000000-07777777-22222222-25555555-00000000-07777777-|--x2
E|-------------------------------------------------------------------------|

"And the rain comes..."
12.
G|-------------------------------------------------------------------------|
D|-------------------------------------------------------------------------|
A|-22222222-25555555-00000000-07777777-22222222-25555555-00000000-07777777-|--x2
E|-------------------------------------------------------------------------|

"Want it, you got it, you're sorry..."
13.
G|-----------7777777-------------------------------------------------------|
D|-99999999-9--------77777777-7--------------------------------------------|
A|-----------------------------7777777-22222222-25555555-------------------|
E|-------------------------------------------------------33333333-33335555-|

Outro
"Me...You look a lot like me..."
14.
G|-------------------------------------------------------------------------|
D|-------------------------------------------------------------------------|
A|-22222222-25555555-70000000-0--------22222222-25555555-70000000-0--------|--Until it fades
E|-----------------------------0000000-----------------------------0000000-|


Lyrics:


How does it feel?
When you have it all?
How can you live?
With nothing at all?

Where do you run?
Where do you go?
When the holes in your truth
Are starting to show?

And the rain comes
And the world is on my head
Crave the sun
But I can’t get out of bed

How can you take?
Without giving back?
How does it work?
When it’s really cracked?

How does it feel
And no wonder
Hearts and minds have been won
How does it feel
And I wonder
How it’s all come undone And the rain comes
And the world is on my head
Crave the sun
But I can’t get out of bed

Want it You got it You’re sorry You bought it You’re sliding
Want it You got it You’re sorry You bought it Can’t hide it
Tell me who do you see
Cause you look a lot like me

How can you take?
Without giving back?
Who do you see?
Cause you look a lot like me


____________________________________________________________________

6.

+++++++++++++++++++++++++++++++++++
| The Offspring- Takes Me Nowhere |
+++++++++++++++++++++++++++++++++++


"But today, if I change, and stop digging my own grave..."

Tuning: EADG


Verse
"All the friends I've lost..."
1.
G|-------------------------------------------------------------------------|
D|-------------------------------------------------------------------------|
A|----------00000000----------------------------00000000-------------------|
E|-22222222----------00000000-22222220-22222222----------00000000-22222222-|

Pre-Chorus
"I know how this will end..."
2.
G|---------------------------------------------------------------------------|
D|---------------------------------------------------------------------------|
A|-55555555\22222222-44444400----------55555555\22222222-44444444-4444-------|
E|----------------------------22222222---------------------------------0~-0~-|

"Takes me nowhere I cant I cant see a way out..."
3.
G|---------------------------------------------------------------------------------|
D|-----------0000-2222-----------0000-2222-----------0000-2222---------------------|
A|------0000----------------0000----------------0000-----------44444444-4444-------|
E|-2222----------------2222----------------2222------------------------------0~-0~-|

"When I go there I know I could start again..."
4.
G|---------------------------------------------------------------------------------|
D|-----------0000-2222-----------0000-2222-----------0000-2222---------------------|
A|------0000----------------0000----------------0000-----------44444444-4444-------|
E|-2222----------------2222----------------2222------------------------------0~-0~-|

Outro
5.
G|--------------------|
D|--------------------|
A|--------------------|
E|-2222222-02x--------|

Verse
"Open on this scene..."
6.
G|---------------------------------------------------------------------------|
D|--------------------------------------------------------22222222-----------|
A|----------00000000-----------------------------00000000--------------------|
E|-22222222----------00000000-2x--------22222222-------------------2x--------|

"As the rumor wind blows..."
7.
G|----------------------------------------------------------------------------|
D|---------------------22222222-44444444-2h4444444----------22222222----------|
A|-9\---------00000000-----------------------------00000000-------------------|
E|---22222222--------------------------------------------------------22222222-|

Pre-Chorus
"I know how this will end..."
8.
G|---------------------------------------------------------------------------|
D|---------------------------------------------------------------------------|
A|-55555555\22222222-44444400----------55555555\22222222-44444444-4444-------|
E|----------------------------22222222---------------------------------0~-0~-|

"Takes me nowhere I cant I cant see a way out..."
9.
G|---------------------------------------------------------------------------------|
D|-----------0000-2222-----------0000-2222-----------0000-2222---------------------|
A|------0000----------------0000----------------0000-----------44444444-4444-------|
E|-2222----------------2222----------------2222------------------------------0~-0~-|

"When I go there I know I could start again..."
10.
G|---------------------------------------------------------------------------------|
D|-----------0000-2222-----------0000-2222-----------0000-2222---------------------|
A|------0000----------------0000----------------0000-----------44444444-4444-------|
E|-2222----------------2222----------------2222------------------------------0~-0~-|

Outro
11.
G|--------------------|
D|--------------------|
A|--------------------|
E|-2222222-02x--------|

Bridge
12.
G|---------------------------------------------------------------------------|
D|---------------------------------------------------------------------------|
A|----------00000000-----------------------------00000000--------------------|
E|-22222222----------00000000-2x--------22222222----------00000000-2x--------|

13.
G|-------------------------------------------------------------------------|
D|-44444444----------22222222----------44444444----------22222222-44444444-|
A|----------00000000----------------------------00000000-------------------|
E|----------------------------22222222-------------------------------------|

Pre-Chorus
"But today if I change..."
14.
G|---------------------------------------------------------------------------|
D|---------------------------------------------------------------------------|
A|-55555555\22222222-44444400----------55555555\22222222-44444444-4444-------|
E|----------------------------22222222---------------------------------0~-0~-|

"Takes me nowhere I cant I cant see a way out..."
15.
G|---------------------------------------------------------------------------------|
D|-----------0000-2222-----------0000-2222-----------0000-2222---------------------|
A|------0000----------------0000----------------0000-----------44444444-4444-------|
E|-2222----------------2222----------------2222------------------------------0~-0~-|

"When I go there I know I could start again..."
16.
G|---------------------------------------------------------------------------------|
D|-----------0000-2222-----------0000-2222-----------0000-2222---------------------|
A|------0000----------------0000----------------0000-----------44444444-4444-------|
E|-2222----------------2222----------------2222------------------------------0~-0~-|

Outro
17.
G|--------------------|
D|--------------------|
A|--------------------|
E|-2222222-02x--------|



Lyrics:


When the day begins
All the guilt sinks in
And I look on the wreckage of the night
Though I try to break free
The cycle breaks me
Am I ever gonna see the light?

All the friends I’ve lost
And the pain I’ve caused
Have never been enough just to make me stop
The lines I draw to look at myself
Are turning into somebody else

I know how this will end
But I’m starting up again
Turned around, inside out
Cause this way

Takes me nowhere I can’t can’t see a way out
Takes me nowhere I can’t can’t see a way out
Takes me nowhere I can’t can’t see a way out
It beats me up

When I go there I know I could start again
When I go there Oh no, here we go again
Takes me nowhere Oh no, here we go again
It beats me up

Open on this scene
A familiar dream
Of you telling me what I already know
Though the truth seems near
You can’t get there from here
But you sure know where you’re gonna go

As the rumor wind blows
My infamy grows
Seeing friends above
And I hit another low
The picture I paint to look at myself
Is turning into somebody else

But today, if I change
And stop digging my own grave
I will try, to set things right
Cause this way


__________________________________________________________________

7.

++++++++++++++++++++++++++++++++++++++++++++
| The Offspring- Kristy, Are You Doing Ok? |
++++++++++++++++++++++++++++++++++++++++++++


"A rose that wont bloom, winter's kept you..."

Tuning: EADG


Pre-Chorus
"But for you this never ends..."
1.
G|-----------------------|
D|-----------------------|
A|-----------------------|
E|--------3333-3~--------|

Chorus
"Can you stay strong? Can you go on?"
2.
G|--------------------------------------|
D|-------------------00000000-320--5320-|
A|-33333333-00000000-------------3------|
E|--------------------------------------|

"A rose that wont bloom, winter's kept you..."
3.
G|--------------------------------------|
D|-------------------00000000-320--20-0-|
A|-33333333-00000000-------------3---3--|
E|--------------------------------------|

Outro
4.
G|-----------|
D|-----------|
A|-3~--------|
E|-----------|

Verse
"Though the marks on your dress..."
5.
G|-5555-4444-2222-0000-----------0000-0000-|
D|---------------------3333-3333-----------|
A|-----------------------------------------|--x2
E|-----------------------------------------|

Pre-Chorus
"Oh, clouds of time..."
6.
G|------------------------------------------------------------------|
D|------------------------------------------------------------------|
A|---------------------3333-2222-0000-------------------------------|
E|-1111-1111-3333-3333----------------3333-1111-1111-3333-3~--------|

Chorus
"Can you stay strong? Can you go on?"
7.
G|--------------------------------------|
D|-------------------00000000-320--5320-|
A|-33333333-00000000-------------3------|
E|--------------------------------------|

"A rose that wont bloom, winter's kept you..."
8.
G|--------------------------------------|
D|-------------------00000000-320--20-0-|
A|-33333333-00000000-------------3---3--|
E|--------------------------------------|

Outro
9.
G|----------------------------------------------------------|
D|----------------------------------------------------------|
A|----------------------------------------------------------|
E|----------------------------------------------------------|

Bridge
10.
G|-----------------------------------------|
D|-----------------------------------------|
A|-3333-2222-0000--------------------------|--x2
E|----------------3333-1111-1111-3333-3333-|

Pre-Chorus
"Oh, clouds of time..."
11.
G|-------------------------------------------------------------|
D|-------------------------------------------------------------|
A|---------------------3333-2222-0000--------------------------|
E|------------------------------------3333-1111-1111-1111-1111-|

"It never goes away..."
12.
G|--------------------------|
D|--------------------------|
A|--------------------------|
E|-3333-3333-3333-3~--------|

Chorus
"Can you stay strong? Can you go on?"
13.
G|--------------------------------------|
D|-------------------00000000-320--5320-|
A|-33333333-00000000-------------3------|
E|--------------------------------------|

"A rose that wont bloom, winter's kept you..."
14.
G|--------------------------------------|
D|-------------------00000000-320--20-0-|
A|-33333333-00000000-------------3---3--|
E|--------------------------------------|

15.
G|----------------------------------------|
D|---------------------00000000-----------|
A|-3333-2222-0000-------------------------|
E|----------------3333----------1111-3333-|

Outro
16.
G|-----------|
D|-----------|
A|-3~--------|
E|-----------|



Lyrics:


Here’s a moment in time
And it’s stuck in my mind
Way back, when we were just kids

Cause your eyes told the tale
Of an act of betrayal
I knew that somebody did

Oh, waves of time
Seem to wash away
The scenes of our crimes
But for you this never ends

Can you stay strong?
Can you go on?
Kristy are you doing okay?
A rose that won’t bloom
Winter’s kept you
Don’t waste your whole life trying
To get back what was taken away

Though the marks on your dress
Had been neatly repressed
I knew that something was wrong
And I should have spoke out
And I’m so sorry now
I didn’t know
Cause we were so young

Oh, clouds of time
Seem to rain on
Innocence left behind
And it never goes away


__________________________________________________

8.

++++++++++++++++++++++++++++++
| The Offspring- Nothingtown |
++++++++++++++++++++++++++++++


"Just the two of us in Nothingtown..."

Tuning: EADG



Intro
1.
G|----------------------------------|
D|----------------------------------|
A|---------77-766-644-422-200-022-2-|
E|----------------------------------|

2.
G|-----------------------------------|
D|-----------------------------------|
A|-7-7-7-7-7-7-7-0h2-7-7-7-7-7-7-777-|
E|-----------------------------------|

Verse
"Lets make this complicated..."
3.
G|-------------------------------------------------------------------------|
D|-------------------------------------------------------------------------|
A|-7-7-7-7-7-7-7-777-4-4-4-4-4-4-4-444-0-0-0-0-0-0-0-000-2-2-2-2-2-2-2-222-|--x2
E|-------------------------------------------------------------------------|

Chorus
"Why oh why, are we starting up and going down?"
4.
G|-----------------------------------------------------------------|
D|-------2-1---1-4-2-2-1-1---------------2-1---1-4-2-2-1-1---------|
A|-0-0-4-----2-------------4-4-2-2-0-0-4-----2-------------4-4-2-2-|
E|-----------------------------------------------------------------|

"Our superhero play..."
5.
G|-------------------------------------------------|
D|-------------------------------------2-----1-4-1-|
A|-0-0-0-0-2-2-2-2---------4-4-2-2-0-4---0-2-------|
E|-----------------4-4-4-4-------------------------|

Outro
6.
G|-----------------------------------|
D|-2-22122----------2-22122----------|
A|--------24-442442---------2~2~2~2~-|
E|-----------------------------------|

Verse
"These cities streets are burning..."
7.
G|-------------------------------------------------------------------------|
D|-------------------------------------------------------------------------|
A|-7-7-7-7-7-7-7-777-4-4-4-4-4-4-4-444-0-0-0-0-0-0-0-000-2-2-2-2-2-2-2-222-|--x2
E|-------------------------------------------------------------------------|

Chorus
"Why oh why, are we starting up and going down?"
8.
G|-----------------------------------------------------------------|
D|-------2-1---1-4-2-2-1-1---------------2-1---1-4-2-2-1-1---------|
A|-0-0-4-----2-------------4-4-2-2-0-0-4-----2-------------4-4-2-2-|
E|-----------------------------------------------------------------|

"Our superhero play..."
9.
G|-----------------------------------------------------------------|
D|-------------------------------------2-----1-4-1-----2-----1-4-1-|
A|-0-0-0-0-2-2-2-2---------4-4-2-2-0-4---0-2-------0-4---0-2-------|
E|-----------------4-4-4-4-----------------------------------------|

"Hold on tighter, with my lighter shining through..."
10.
G|-----------------|
D|-----------------|
A|-0-0-0-0-2-2-2-2-|
E|-----------------|

Outro
11.
G|-----------------------------------|
D|-2-22122----------2-22122----------|
A|--------24-442442---------2~2~2~2~-|
E|-----------------------------------|

Bridge
12.
G|-------------------------------------------------------------------------------4-1-----|
D|-2-2-2/444-44/666-66666------------------------7-7-7\666-6\444-4\222-2-------------4-2-|
A|------------------------4-4-4/666-66/777-77777-------------------------2-2-2-2---------|
E|---------------------------------------------------------------------------------------|

13.
G|-------------------------------------------------------------------------|
D|-------------------------------------------------------------------------|
A|-7-7-7-7-7-7-7-777-4-4-4-4-4-4-4-444-0-0-0-0-0-0-0-000-2-2-2-2-2-2-2-222-|
E|-------------------------------------------------------------------------|

14.
G|--------------------------------------------------------|
D|--------------------------------------------------------|
A|--------------4-44x--------0-00x--------2-2-2-2-2-2-2-2-|
E|-0-00x--------------------------------------------------|

Chorus
"Why oh why, are we starting up and going down?"
15.
G|-----------------------------------------------------------------|
D|-------2-1---1-4-2-2-1-1---------------2-1---1-4-2-2-1-1---------|
A|-0-0-4-----2-------------4-4-2-2-0-0-4-----2-------------4-4-2-2-|
E|-----------------------------------------------------------------|

"Our superhero play..."
16.
G|-----------------------------------------------------------------|
D|-----------------------------------------------------2-----1-4-1-|
A|-0-0-0-0-2-2-2-2---------4-4-2-2-0-0-0-0-2-2-2-2-0-4---0-2-------|
E|-----------------4-4-4-4-----------------------------------------|

"Hold on tighter, with my lighter shining through..."
17.
G|-2-2-2-2-4-4-4-4-|
D|-----------------|
A|-----------------|
E|-----------------|

Outro
18.
G|-------------------------------------------------------------------|
D|-------------------------------------------------------------------|
A|-77-766-644-422-200-022-2-7-7-7-7-77-766-644-422-200-022-2-7-7-7-7-|
E|-------------------------------------------------------------------|

"Still stuck in nothingtown..."
19.
G|----------------------------------|
D|----------------------------------|
A|-77-766-644-422-200-022-2-7-7-7-7-|
E|----------------------------------|

20.
G|------------------------------------------|
D|------------------------------------------|
A|-7~---6~---4~---2~---0~---2~--------------|
E|--------------------------------0~--------|



Lyrics:


Let’s make this complicated
Thinking is overrated
We’re busting out
Of this shitty little town

Green grass and colored lenses
Tear down these picket fences
Burn in our beds
While the city lies sleeping

Why oh why? Are we starting up and going down?
My oh my, just the two of us in Nothingtown
Our superhero play, we’ll leave this town today
Hold on tighter with my lighter shining through

These city streets are burning
Rose red your wheels are turning
Make me believe
Someday we could really leave

Blindfold a new direction
Stop asking better questions
Don’t figure out
That we’re never getting out

And I’ll row it if you steer it
I’ll yell until you hear it

Still stuck in Nothingtown
Come on let’s go


_______________________________________________________________

9.

+++++++++++++++++++++++++++++++++++++
| The Offspring- Stuff Is Messed Up |
+++++++++++++++++++++++++++++++++++++


"Please leave a message on my cell phone..."

Tuning: EADG


Verse
"I see bullets getting better..."
1.
G|----------------------------------------|
D|----------------------------------------|
A|-6-66~-44~-6-66~-44~-6-66~-44~------2-4-|
E|-------------------------------4~-------|

"Who are you wearing tonight?"
2.
G|-----------------------------------------|
D|-------------------------------4~--------|
A|-6-66~-44~-6-66~-44~-6-66~-44~------2~---|
E|-----------------------------------------|

Pre-Chorus
"I dont know much..."
3.
G|-------------------|
D|-------------------|
A|-------------------|
E|-4~----------------|

Chorus
"I guess its all about the dream..."
4.
G|--------------------------------------------------------33333333-3333-----|
D|-----4444--------------4444-----------------------------------------------|
A|-6-6---------2~-4~-6-6---------2~-4~-6-6-4444-----2-222---------------4-4-|--x2
E|---------444---------------444----------------444-------------------------|

Outro
5.
G|-------------------|
D|-------------------|
A|-6~----------------|
E|-------------------|

Verse
"Now thank god for the media..."
6.
G|----------------------------------------|
D|----------------------------------------|
A|-6-66~-44~-6-66~-44~-6-66~-44~------2-4-|--x2
E|-------------------------------4~-------|

"And now we're rocking the casbah..."
7.
G|----------------------------------------|
D|----------------------------------------|
A|-6-66~-44~-6-66~-44~-6-66~-44~------2-4-|
E|-------------------------------4~-------|

"All this stuff its overwhelming my brain..."
8.
G|-----------------------------------------|
D|-------------------------------4~--------|
A|-6-66~-44~-6-66~-44~-6-66~-44~------2~---|
E|-----------------------------------------|

Pre-Chorus
"I dont know much..."
9.
G|-------------------|
D|-------------------|
A|-------------------|
E|-4~----------------|

Chorus
"I guess its all about the dream..."
10.
G|--------------------------------------------------------33333333-3333-----|
D|-----4444--------------4444-----------------------------------------------|
A|-6-6---------2~-4~-6-6---------2~-4~-6-6-4444-----2-222---------------4-4-|
E|---------444---------------444----------------444-------------------------|

"You know its all about the dream..."
11.
G|--------------------------------------------------------33333333-33333333-|
D|-----4444--------------4444-----------------------------------------------|
A|-6-6---------2~-4~-6-6---------2~-4~-6-6-4444-----2-222-------------------|
E|---------444---------------444----------------444-------------------------|

Bridge
12.
G|-----------------------------------------------------------------------------|
D|-66666-44---------4-66666-44---------4-6666-4444-----------------------------|
A|----------6-xx-6~------------6-xx-6~-------------6666------11111111-1111-4-4-|
E|------------------------------------------------------4444-------------------|

"Shopping sprees, RPG's, Ecstasy, Atrophy..."
13.
G|----------------------------------------------|
D|----------------------------------------------|
A|-666x----------------666x--------666666-6x----|
E|----------------------------------------------|

"Therapy, I wont tell, Rehab and LOL..."
14.
G|-----------------------------------------------|
D|-----------------------------------------------|
A|-666x----------------666x--------666666-666666-|
E|-----------------------------------------------|

Pre-Chorus
"I dont know much..."
15.
G|---------------------------------------|
D|---------------------------------------|
A|-----------------------------1~--------|
E|-4~-----------------------44-----------|

Chorus
"I guess its all about the dream..."
16.
G|--------------------------------------------------------33333333-3333-----|
D|-----4444--------------4444-----------------------------------------------|
A|-6-6---------2~-4~-6-6---------2~-4~-6-6-4444-----2-222---------------4-4-|--x2
E|---------444---------------444----------------444-------------------------|

Outro
17.
G|------|
D|------|
A|-6-6x-|
E|------|


Lyrics:


Now I don’t know, and it’s hard to explain
But it seems like things are just kind of insane
Because the world is crying
But nobody’s listening
So please leave a message on my cell phone

I see bullets getting better
Biblical weather
And that guy on TV is like a total asshole

Who are you wearing tonight?
Celebrity fundraiser, tight!
Black ties making wrongs right
How’s your social Band-Aid?

I don’t know much
I don’t know too much
But I know this
Shit is fucked up!

I guess it’s all about the dream
The ends justify the means
You know it’s all about the dream
The ends justify the means

Now thank god for the media, for saving the day
Putting it all into perspective in a responsible way
With more celebrity news
Typical bullshit views
I think we’re losing this fight
Sponsored by Bud Light

And now we’re rockin’ the casbah
And taking the flak
The genie’s out of the bottle, and we can’t put it back
All this stuff
It’s overwhelming my brain
Can you see the storm comin’?
It’s coming this way

Shopping Sprees, RPG’s
Ecstasy
Atrophy
Genocide
Pimp my ride
Politize
Euphemize
Injustice everywhere
Apathy
I don’t care
Hurricanes
Climate change
Huh!

Therapy, I won’t tell
Rehab and LOL
Worldwide calamity
TV Reality
Euthanize, supersize
Death squads and boob jobs
VIP infamy
Gratify instantly


___________________________________________________________________

10.

++++++++++++++++++++++++++
| The Offspring- Fix You |
++++++++++++++++++++++++++


"A beaming sunrise buries the night..."

Tuning: EADG


Chorus
"I wish I could fix you..."
1.
G|-----------------------------------------|
D|-------------------------------7~--------|
A|-7~------------------5~------------------|
E|-----------7~----------------------------|

"I wish I could fix you..."
2.
G|-----------------------------------------|
D|-----------9~------------------7~--------|
A|-7~------------------5~------------------|
E|-----------------------------------------|

Outro
"Ha la la la la..."
3.
G|-----------------------------------------|
D|-----------9~------------------7~--------|
A|-7~------------------5~------------------|
E|-----------------------------------------|

Verse
"She sees a million stars like holes in the sky..."
4.
G|--------------------------------------------------------------------6677-|
D|----99-99----99-99-99999999-99999999----77-77----77-77----------7799-----|
A|-777--7---777--7---------------------555--5---555--5-----445577----------|
E|-------------------------------------------------------55----------------|

Chorus
"I wish I could fix you..."
5.
G|--------------------------------------------------------------------6677-|
D|----------------------------------------------------------------7799-----|
A|-7777777--77777679-2222222--22222244-5555555--55555457---445577----------|--x2
E|--------7-----------------2-----------------5----------55----------------| 

Outro
6.
G|--------------------------------------776---76---776---76----------------6677-|
D|-------------------9999999--999998911----7~---7~----7~---7~----------7799-----|
A|-7777777--77777679--------9-----------------------------------445577----------|
E|--------7---------------------------------------------------55----------------|

7.
G|-------------------------------------776---76---776---76----------------6677-|
D|----------------------------------------7~---7~----7~---7~----------7799-----|
A|-7777777--77777679-2222222--22222124-------------------------445577----------|
E|--------7-----------------2--------------------------------55----------------|


Lyrics:


She wakes up
Rage and grace
Pulling me closer, pushing away
And me
The sharpest thorn on your vine
Twisting and turning
We’re all intertwined

Broken wing
Empty glass
Words that scream and bounce right back
She says, you know
We’d all like to rearrange

I wish I could fix you
And make you how I want you
I wish I could fix you
And I wish you could fix me

I wish I could heal you
And mend where you are broken
I wish I could heal you
And I wish you could heal me

Ha la la la

A beaming sunrise buries the night
The setting sun destroys the light
Then she says, baby, I’ve gotta get going
Cutting each other
Without even knowing

She sees a million stars like holes in the sky
All God’s tears for her they cry
And I am in her rain


________________________________________________________

11.

++++++++++++++++++++++++++++++++++++++++++++++++++++
| The Offspring- Let's Hear It For The Rock Bottom |
++++++++++++++++++++++++++++++++++++++++++++++++++++


"We're hitting rock bottom and its going down in flames..."

Tuning: EADG


Intro
1.
G|--------------------------------|
D|--------------------------------|
A|-5~-55~-00~-----55~-55~-00~-55~-|--x2
E|------------33~-----------------|

2.
G|-------------------------------------|
D|-------------------------------------|
A|----------00000000-22222222-22222220-|
E|-33333333----------------------------|

Verse
"In my perfect isolation..."
3.
G|-------------------------------------------------------------------------|
D|-------------------------------------------------------------------------|
A|----------00000000-22222222-22222220----------00000000-22222222-22222220-|
E|-33333333----------------------------33333333----------------------------|

"Antidotes and revelations..."
4.
G|-------------------------------------------------------------------------|
D|-------------------------------------------------------------------------|
A|----------00000000-22222222-22222220----------00000000-55555555-00000x---|
E|-33333333----------------------------33333333----------------------------|

Chorus
"Wasting away, the world's right in front of me..."
5.
G|--------------------------------|
D|------------55~-----------------|
A|-5~-55~-00~-----55~-55~-00~-55~-|--x2
E|--------------------------------|

Verse
"With my lack of observation..."
6.
G|-------------------------------------------------------------------------|
D|-------------------------------------------------------------------------|
A|----------00000000-22222222-22222220----------00000000-22222222-22222220-|
E|-33333333----------------------------33333333----------------------------|

"Could you find my motivation..."
7.
G|-------------------------------------------------------------------------|
D|-------------------------------------------------------------------------|
A|----------00000000-22222222-22222220----------00000000-55555555-00000x---|
E|-33333333----------------------------33333333----------------------------|

Chorus
"Wasting away, the world's right in front of me..."
8.
G|--------------------------------|
D|------------55~-----------------|
A|-5~-55~-00~-----55~-55~-00~-55~-|--x4
E|--------------------------------|

Outro
"Wasting all my days, what would Ivan say..."
9.
G|-------------------------------------------------------------------------|
D|-------------------------------------------------------------------------|
A|-55555555-55555555-00000000-00000000-------------------00000000-00000000-|
E|-------------------------------------33333333-33333333-------------------|

Chorus
"Wasting away, we're hitting rock bottom..."
10.
G|-------------------------------------------------------------------------|
D|-------------------------------------------------------------------------|
A|-55555555-55555555-00000000-00000000-------------------------------------|
E|-------------------------------------33333333-33333333-00000000-33335555-|

Outro
11.
G|---------------------------------------------------------------------------|
D|---------------------------------------------------------------------------|
A|----------0~-------2~--------------5\---------0~-------2~----------2222-5\-|
E|-3~----------------------------------3~------------------------------------|

Bridge
12.
G|---------------------------------------------------------------2/444444---|
D|-----------------------------------------------------------------------44-|
A|----------00000000-22222222-222222-5\---------00000000-2222222------------|
E|-33333333----------------------------33333333-----------------------------|

13.
G|-------------------------------------------------------------------------|
D|-------------------------------242-0-------------------------------------|
A|----------00000000-22222222-222---------------00000000-22222222-22222222-|
E|-33333333----------------------------33333333----------------------------|

Verse
"Its hard to know..."
14.
G|-----------------------------------------------------------------------------|
D|-----------------22-----------------22-----------------22--------------------|
A|--------0-0000-44----------0-0000-44----------0-0000-44---55555555-00000x----|
E|-3333333------------3333333------------3333333-------------------------------|

Chorus
"Wasting away, the world's right in front of me..."
15.
G|--------------------------------|
D|------------55~-----------------|
A|-5~-55~-00~-----55~-55~-00~-55~-|--x4
E|--------------------------------|

"Wasting away..."
16.
G|------------------------------------------------------------------------|
D|------------------------------------------------------------------------|
A|-55555555-0000-----55555555-000-55~--55555555-0000-----55555555-000-55~-|
E|--------------3333--------------------------------3333------------------|

17.
G|-77777777-9999-11-9-7~------------------|
D|----------------------------------------|
A|-----------------------55555555-000-55~-|
E|----------------------------------------|


Lyrics:


In my perfect isolation
I can stay here for awhile
Antidotes and revelations
Just extend my own exile

Wasting away
The world’s right in front of me
Funny you should say
That it’s all in my head
Wasting away
We’re hitting rock bottom
And going down in flames
Well it’s not that bad

With my lack of observation
I can stay in here for days
Could you find my motivation
I can’t see it through this haze

Wasting away
The world’s right in front of me
Funny you should say
That it’s all in my head
Wasting away
We’re hitting rock bottom
And going down in flames
Well it’s not that bad

Wishing away
The world’s right in front of me
Call me anyway
Cause it’s all in my head
Wasting away
We’re hitting rock bottom
And going down in flames
Well it’s not that bad

Wasting all my days
What would Ivan say

Wasting away
We’re hitting rock bottom
Call me anyway
Cause I got two friends
Wasting away
We’re going down together
And all in all it’s not so bad
All in all it’s not so bad

It’s hard to know
Where to start and where to go
I will never say these words again


______________________________________________________

12.

++++++++++++++++++++++++++++++++
| The Offspring- Rise And Fall |
++++++++++++++++++++++++++++++++


"So give me more or nothing at all..."

Tuning: EADG


Intro
1.
G|-----------------------------|
D|-----------------------------|
A|----------55---555------77---|
E|-3335~-555--55----5~-555--55-|

Verse
"This time you're really dead..."
2.
G|------------------------------------------------------|
D|------------------------------------------------------|
A|--------------555-----------------------555------77---|
E|-3335x-----------5x--------3335x-----------5~-555--55-|

"Its all inside your head..."
3.
G|----------------------------------------------------------|
D|----------------------------------------------------------|
A|--------------555-----------------------555------77-------|
E|-3335x-----------5x--------3335x-----------5~-555--55-3-3-|

Chorus
"And I dont wanna say I told you so..."
4.
G|-----------------------------------------------------------------|
D|-----------------------------------------------------------------|
A|-55-5555-5555-55-00-0000-0000-00-77-7777-7777-77-00-0000-0000-00-|
E|-----------------------------------------------------------------|

"And I dont wanna be the rise and fall..."
5.
G|----------------------------------------------------|
D|----------------------------------------------------|
A|-55-5555-5555-55-00-0000-0000-00-77-7777-7777-77-0x-|
E|----------------------------------------------------|

Outro
6.
G|-----------------------------|
D|-----------------------------|
A|----------55---555------77---|
E|-3335~-555--55----5~-555--55-|

Verse
"You're in an awful way..."
7.
G|------------------------------------------------------|
D|------------------------------------------------------|
A|--------------555-----------------------555------77---|
E|-3335x-----------5x--------3335x-----------5~-555--55-|

"And you can only laugh..."
8.
G|----------------------------------------------------------|
D|----------------------------------------------------------|
A|--------------555-----------------------555------77-------|
E|-3335x-----------5x--------3335x-----------5~-555--55-3-3-|

Chorus
"And I dont wanna say I told you so..."
9.
G|-----------------------------------------------------------------|
D|-----------------------------------------------------------------|
A|-55-5555-5555-55-00-0000-0000-00-77-7777-7777-77-00-0000-0000-00-|
E|-----------------------------------------------------------------|

"And I dont wanna be the rise and fall..."
10.
G|-------------------------------------------------|
D|-------------------------------------------------|
A|-55-5555-5555-55-00-0000-0000-00-77-7777-7777-77-|
E|-------------------------------------------------|

Outro
11.
G|--------------------------|
D|--------------------------|
A|---55---555------77-------|
E|-55--55----5~-555--55-3-3-|

Bridge
12.
G|-----------------------------------------------------------------|
D|-----------------------------------------------------------------|
A|-55-5555-5555-55-00-0000-0000-00-77-7777-7777-77-00-0000-0000-00-|
E|-----------------------------------------------------------------|

13.
G|-------------------------------------------------|
D|-------------------------------------------------|
A|-55-5555-5555-55-00-0000-0000-00-77-7777-7777-77-|
E|-------------------------------------------------|

Verse
"They've come to see you rise and fall..."
14.
G|-------------------------------------------------------------------------------|
D|-------------------------------------------------------------------------------|
A|--------------555------77----------------555------77----------------555------77|
E|-3335x-----------5~-555--55-3335x-----------5~-555--55-3335x-----------5~-555--|

--------------------|
--------------------|
---------------55---|
55-3335x----------5x|

Chorus
"And I dont wanna say I told you so..."
15.
G|-----------------------------------------------------------------|
D|-----------------------------------------------------------------|
A|-55-5555-5555-55-00-0000-0000-00-77-7777-7777-77-00-0000-0000-00-|
E|-----------------------------------------------------------------|

"And I dont wanna be the rise and fall..."
16.
G|-------------------------------------------------|
D|-------------------------------------------------|
A|-55-5555-5555-55-00-0000-0000-00-77-7777-7777-77-|
E|-------------------------------------------------|

Outro
17.
G|--------------------------------------------------|
D|--------------------------------------------------|
A|---55---555------77------------55---555------77---|
E|-55--55----5~-555--55-3335~-555--55----5~-555--55-|

18.
G|--------------------|
D|--------------------|
A|--------------555---|
E|-3335~-----------5x-|


Lyrics:


This time you’re really dead
Once followed, but always led
You thought you’d rise above it all

It’s all inside your head
All ripping it up in shreds
I know someday you’re gonna fall

And I don’t wanna say I told you so
But I told you so now you’ve lost control
And I don’t wanna be the rise and fall
So gimme more or nothing at all

You’re in an awful way
Sucked in by what you crave
They just can’t wait to see you crawl

And you can only laugh
Give in to the other half
They’re only tearing down your walls

They’ve come to see you rise and fall
They’re only tearing down your walls
They’ve come to see you rise and fall
And I don’t wanna say you’ve lost control


______________________________________________________________

13.

++++++++++++++++++++++++++++
| The Offspring- O.C. Life |
++++++++++++++++++++++++++++


"Wanna be a member, wanna have some fame..."

Tuning: EADG

Bonus Track of The Offspring's new album
Rise and Fall, Rage and Grace


Intro
1.
G|-------------------|
D|-------------------|
A|-4~----------------|
E|-------------------|

2.
G|-----------------------------------------------------|
D|-------------2-224-444444-2-220-00-------------------|
A|-4-444444--------------------------0-2-2222-----5-55-|--x2
E|---------4-44-------------------------------2-22-----|

3.
G|----------------------------------------|
D|----------------------------------------|
A|-4-444444-7777-6666-2222-0h222-4-444444-|--x2
E|----------------------------------------|

Verse
"Wanna be a member, wanna be a name..."
4.
G|----------------------------------------|
D|----------------------------------------|
A|-4-444444-7777-6666-2222-0h222-4-444444-|--x4
E|----------------------------------------|

Chorus
"This O.C. life is not the life for me..."
5.
G|-----------------------------------------------------|
D|-------------2-224-444444-2-220-00-------------------|
A|-4-444444--------------------------0-2-2222-----5-55-|--x2
E|---------4-44-------------------------------2-22-----|

Outro
"With artificial joys..."
6.
G|---------------------------------------------------------------------|
D|----------------------------------------------------4-444444-4444444-|
A|-4-444444-4444444-5-555555-5555554-2-222222-2222222------------------|--x2
E|---------------------------------------------------------------------|

7.
G|-------------------------------------------------|
D|-------------------------------------------------|
A|-4-444444-4-444444-7777-6666-2222-0h222-4-444444-|
E|-------------------------------------------------|

8.
G|----------------------------------------|
D|----------------------------------------|
A|-4-444444-7777-6666-2222-0h222-4-444444-|
E|----------------------------------------|

Verse
"Wanna be a member, wanna have some fame..."
9.
G|----------------------------------------|
D|----------------------------------------|
A|-4-444444-7777-6666-2222-0h222-4-444444-|--x4
E|----------------------------------------|

Chorus
"This O.C. life is not the life for me..."
10.
G|-----------------------------------------------------|
D|-------------2-224-444444-2-220-00-------------------|
A|-4-444444--------------------------0-2-2222-----5-55-|--x2
E|---------4-44-------------------------------2-22-----|

Outro
"With artificial joys..."
11.
G|---------------------------------------------------------------------|
D|----------------------------------------------------4-444444-4444444-|
A|-4-444444-4444444-5-555555-5555554-2-222222-2222222------------------|--x2
E|---------------------------------------------------------------------|

12.
G|---------------------------------------------------------------------|
D|-----------------------------------1-111111-1111111-4-444444-4444422-|
A|-4-444444-4444444-5-555555-5555544-2-222222-2222222------------------|
E|---------------------------------------------------------------------|

13.
G|-------------------------------------------------------------------------------|
D|-----------------------------------1-111111-1111111-44444444-4~----------------|
A|-4-444444-4444444-5-555555-5555544-2-222222-2222222----------------------------|
E|-------------------------------------------------------------------------------|


Lyrics:


Wanna be a member, wanna be a name
wanna be a local face that plays the social games
Dancing through a time will bring you dinosaur trends
The limits of your mind is where the county line ends

Listen to the media present it all as fact
Following the lead cause you don't know how to act
Travel in a straight line cause you don't know your own way
They'll get you in the end before you know you'll have a say

This O.C. life is not the life for me
Insulated world, trade your happy thoughts
O.C. life is not the life so free
Pressure is for real, with artificial joys
For you girls and boys

Wanna be a member, wanna have some fame
Fighting to stay ahead a part of the game
Atm and starbucks every corner are the norm
Environment so sterile, it'll get you to conform

714, Wear it like a brand
Contaminated future is and fire away some sand
Fight all their rules, I don't see a better way
Guess you're really in before you know you'll have a say

check you out
you're all a midget fiend


__________________________________________________________________


Wooh!
I hope enjoyed
cheers

..::RaiLeff::.. [!]

+++++++++++++++++++++++++++++++++
| RaiLeff                       |
| Underground__Dora@Hotmail.Com |
+++++++++++++++++++++++++++++++++
comments
print report bad tab
3 comments total.
+1 reply
Slawter666 wrote on December 19 2008, 06:32 pm

bad.
real bad

0 reply
RaiLeff wrote on December 22 2008, 01:22 pm

omg **** you

0 reply
Jasonbts wrote on October 12 2009, 08:37 pm

i thought is was pretty good, not sure what these guys are talking about

I want to post or [tab]
guest
You may want to rate the tab now too:
select rating
Please do not post tabs as comments. Select "correction" instead!