Oops, an error
Loading. Please wait.

Smash Bass Tab

6,416 views 9 this week
no commentswrite comment
1 2 3 4 5
accurate
x 3
Autoscroll
+/-
esc
set tempo
stop
Contributor
WARNING: You are trying to view
                                    content from Ultimate-Guitar.com
                                    in an unauthorized application,
                                    which is prohibited.

                                    Please use an official Ultimate
                                    Guitar Tabs application for iPhone,
                                    iPad or Android to access legitimate
                                    chords, guitar, bass, and drum tabs
                                    from Ultimate-Guitar.com database.

                                    Type "ultimate guitar tabs" in Apple
                                    App Store's or Android Market's
                                    search to find the application.
Smash is my favorite Offspring Album

Nitro

Intro
				x2
G|-------1------------------------|
D|-3-3-3----3-1-3---------1-1-1-1-|
A|--------------------------------|
E|----------------4-4-4-4---------|


Verse

G|-------------------------------------------------------------|
D|-3-3-3-3-3-3-3-3-----------------3-3-3-3-3-3-3-3-------------|
A|-------------------------6-6-6-6-------------------------6r6r|
E|-----------------4-4-4-4-------------------------4-4-4-4-----|

G|-----------------------------------------------------------------|
D|-3-3-3-3-3-3-3-3-------------------------------------------------|
A|-------------------------6-6-6-6-4-4-4-4-4-4-4-4-4-4-4-4-6-6-6-6-|
E|-----------------4-4-4-4-----------------------------------------|


Chorus
			      Riff 1
G|---------------------------------|
D|-3-3-3-3-3-3-3-3-----------------|
A|-------------------------6-6-6-6-|
E|-----------------4-4-4-4---------|
								       Riff 2
G|--------------------------------------------------------------------------|
D|--------------------------------------------------------------------------|
A|--------------------------------------------------------------------------|
E|-1-1-1-1-1-1-1-1/4-4-4-4-4-4-4-4/6-6-6-6-6-6-6-6/9-9-9-9-9/11-11-11-11-11-|

Chorus 1: Riff 1(x2) + Riff 2
Chorus 2: Riff 2(x2)
Chorus 3: Riff 2(x4)


Bridge/solo

G|-----------------------------------------------------------------|
D|-----------------------------------------------------------------|
A|-3-3-3-3-3-3-3-3-------------------------------------------------|
E|-----------------4-4-4-4-4-4-4-4-6-6-6-6-6-6-6-6-1-1-1-1-1-1-1-1-|

Bad Habit

INTRO 1

G-----2---------------------------------------------------------------------|
D---------------------------------------------------------------------------|
A---0-----------------------------------------------------------------------|
E-3-----3h5-5---------------------------------------------------------------|

INTRO 2

G---------------------------------------------------------------------------|
D-----2---4-----------------------------------------------------------------|
A---------------------------------------------------------------------------|
E-0-3---2-------------------------------------------------------------------|

PRE-VERSE

G---------------------------------------------------------------------------|
D---------------------------------------------------------------------------|
A-0~-000~-00----------------------------------------------------------------|
E---------------------------------------------------------------------------|

VERSE

G---------------------------------------------------------------------------|
D---------------------------------------------------------------------------|
A-035-432-030-000-----------------------------------------------------------|
E---------------------------------------------------------------------------|

PRE-CHORUS

G---------------------------------------------------------------------------|
D---------------------------------------------------------------------------|
A-3333333333333333-55555555-77777777----------------------------------------|
E---------------------------------------------------------------------------|

CHORUS

G---------------------------------------------------------------------------|
D----23---------------------------------------------------------------------|
A-00----335-555-7777--------------------------------------------------------|
E---------------------------------------------------------------------------|

BRIDGE

G---------------------------------------------------------------------------|
D-77-6-55-210---------------------------------------------------------------|
A-------------320-----------------------------------------------------------|
E---------------------------------------------------------------------------|

STRUCTURE:

INTRO 1 x6
INTRO 2 X1
PREVERSE X1
VERSE X2
PRE-CHORUS X1
CHORUS X6
PRE-VERSE X1
VERSE X2
PRE-CHORUS X1
CHORUS X6
BRIDGE X4
PRE-CHORUS X1
CHORUS X8

Gotta Get Away

Intro:

G |-----------------|-----------------||
D |-----------------|-----------------||
A |-3-4-5-5-5-5-5-5-|---5-7-----7-7---||
E |-----------------|-0-----0-0-----0-||

Verse:

G |-----------------|-----------------|-----------------|---------------||
D |-----------------|-----------------|-----5-5-----7-7-|---------------||
A |-----5-5-----5-5-|-----7-7-----7-7-|-----------------|-7-7-7-8-7-8-7-||
E |-0-0-----0-0-----|-0-0-----0-0-----|-0-0-----0-0-----|---------------||

Chorus:

G |-----------------|-----------------||
D |-----------------|-5-5-5-----------||
A |-7-7-7-0-3-3-3-0-|-------0-5-5-5-6-||
E |-----------------|-----------------||


Intro x8
Verse x6
Chorus x4
Verse x6
Chorus x6
Verse x2
Chorus x8

Genocide

|------------------|-----------------|-----------------|
|*-----------------|-----------------|-----------------|
|*-----------------|-----------------|-----------------|
|--3-3-3-3-3-3-3-3-|-3-3-3-3-3-3-3-3-|-1-1-1-1-1-1-1-1-|

|------------------|
|-----------------*|
|-3-3-3-3-3-3-3-3-*|(x2)
|------------------|

Verse 1:
|----------|---------|---------|----------|
|*---------|---------|---------|---------*|
|*---------|---------|---------|-3-3-3-3-*|(x2)
|--3-3-3-3-|-3-3-3-3-|-1-1-1-1-|----------|


|------------|-----------|-----------|------------|
|*---5-5-5-5-|---5-5-5-5-|---3-3-3-3-|-----------*|
|*-3---------|-3---------|-1---------|---3-3-3-3-*|(x2)
|------------|-----------|-----------|-1----------|

Chorus:
|------------------|-----------------|-----------------|
|*-----------------|-----------------|-----------------|
|*-----------------|-----------------|-3-3-3-3-3-3-3-3-|
|--3-3-3-3-3-3-3-3-|-1-1-1-1-1-1-1-1-|-----------------|

|------------------|
|-----------------*|
|-1-1-1-1-1-1-1-1-*|(x2)
|------------------|

Intro(x2)

Verse 2:
|----------|---------|---------|----------|
|*---------|---------|---------|---------*|
|*---------|---------|---------|-3-3-3-3-*|(x4)
|--3-3-3-3-|-3-3-3-3-|-1-1-1-1-|----------|


Chorus(x2)

Something To Believe In

Intro
|------------------------------------------------------------------|
|----33-333--------------------------------------------------------|
|--------------------------33-333--6---------88-888----------------|
|------------1--33-333--4-------------66-666-----------------------|

|------------------------------------------------------------------|
|----33-333--------------------------------------------------------|
|---------------------------33-333--6---------88-888---------------|
|------------1--33-333--4----------------6-------------------------|

Verse x2
|------------------------------------------------------------------|
|------------------------------------------------------------------|
|-------------66-------1111----------------------------------------|
|-------4444-------------------11----------------------------------|

Chorus
|------------------------------------------------------------------|
|-------------3-----------------6----------------------------------|
|---------------------------6--------6-----------------------------|
|--------1-----------4---------------------------------------------|

Come Out and Play

(x8)
G:------8------|-------------------------|
D:--|=======|--|*-----------------------*|
A:-------------|*--2----/5----r------0--*|
E:-------------|------------------2------|
                                (x3)

G:-----------------------------------|------------------------------|
D:*---------------------------------*|------------------------------|
A:*--2-----------0---2-----------5--*|--2-----------0--2-----R------|
E:------2----2-----------2-----------|------2----2------------------|
                                               (x4)

G:--------------------------------------------------|
D:*----------------------------------0-------------*|
A:*--2--2--(2)-----------0--2--2--2------------0---*|
E:--------------2-----2---------------------2-------|

G:---------------------------------------------------------------------------|
D:--2----5--(5)--4--------------2-----5--5--4--------------------------------|
A:-------------------2---2--5-------------------2---2--5--2--2--(2)----------|
E:-------------------------------------------------------------------2-----2-|

G:----------------------------------------------------------|
D:--------------0-------------------------------------------|
A:-0---2--2--2-------------0---9---9-9-9-9-9-9-9-9-9-9-9-9--|
E:----------------------2-----------------------------------|

G:--------------------------------------------------------------------|
D:*------------------------------------------------------------------*|
A:*--2---/5--r-----0---2---/5--r-----0---2---/5--r-----0---2---R-----*|
E:--------------2-----------------2-----------------2-----------------|

G:---------------------------------------------------------------------------|
D:----------------------------------------2--(2)--2--------------------------|
A:--2---/5--r------0---2---/5--r------0------------------3----3---(3)--3---2-|
E:--------------2------------------2-----------------------------------------|

G:---------------------------------------------------------------------|
D:------------------------------------------------0--------------------|
A:--/5--r-------0--(0)--------------------0---2-------r-------0---2----|
E:-----------2-----------2----2--2--2--2-------------------2-----------|
                                                                    (x4)

   G:--------------------------------|--------------------------------------|
   D:--------------------------------|*------------------------------------*|
   A:--2---/5---------0---2----------|*--2------------0---2-------(5)--5---*|
   E:--------------2-----------------|-------2-----2---------2--------------|

G:---------------------------------------------------------------------------|
D:--2-----5--(5)---4----------------2---5--5---4-----------------------------|
A:----------------------2----2--5--------------------2----2--5---2--2--(2)---|
E:--------------------------------------------------------------------------2|

G:-------------------------------------------------------------------|
D:--------------------0----------------------------------------------|
A:--------0--2--2--2-------------0---9----9-9-9-9--9-9-9-9-9-9-9-9---|
E:-----2---------------------2---------------------------------------|

G:-----------------------------------------------------------------------|
D:*---------------------------------------------------------------------*|
A:*--2---/5--r-----0---2---/5--r-----0---2---/5--r-----0---2-----R------*|
E:--------------2-----------------2-----------------2--------------------|

G:---------------------------------------------------------------------------|
D:-------------------------------------2----2--r-----------------------------|
A:--2---/5--r-----0---2---/5--r-----0----------------3--3--3--3--3--3--2---/5|
E:-------------2-----------------2-------------------------------------------|

G:-------------------------2-2----------------------------------|
D:--------------------4--r------r-------------------------------|
A:--r------------------------------2---/5--r-----0---2----R-----|
E:-----2--5\--2---2---------------------------2-----------------|

Self Esteem

Intro

----------------------||-----------------------------------||------------------|
----------------------||*---------------------------------*||------------------|
----------------------||*---------8--8--8-----------------*||------------------|
----------------------||----5--5-----------8--8--3--3--3---||------------------|


-||---------------------------------------------------||-----------------------|
-||*-------------------------------------------------*||-----------------------|
-||*--------------------------3--3--3--3-------------*||-----------------------|
-||---5--5--5--5--1--1---1--1h------------3--3--3--3h-||-----------------------|


-------------------||--------------------------------------||------------------|
-------------------||*------------------------------------*||------------------|
-------------------||*---------8--8--8--------------------*||------------------|
-------------------||---5---5-----------8--8--8--3--3--3---||------------------|


chorus

-||--------------------------------------------------------------------||------|
-||*------------------------------------------------------------------*||------|
-||*--5--5--1--1--1---------3--3--5--5--1--1--1--------3--3--3--3--3--*||------|
-||------------------1---1-----------------------1--1------------------||------|

It'll Be a Long Time
Riff 1.a
-----------------------------|
-----------------------------|
-355----355----35557777------|
-----------------------88----|

Riff 1.b
--------------------------------------|
--------------------------------------|
-35-------35-------333377775555-------|
---6666666--6666666------------6666---|

Riff 1.c
------------------------------------|
------------------------------------|
-35-------35-------3335555777777777-|
---6666666--6666666-----------------|

Riff 2                 Repeat this part twice
----------------------|----------------|
----------------------|----------------|
-33335555566666777444-|-5555333344-----|
----------------------|-----------6644-|

Riff 3a
----------------|
----------------|
-55333---77333--|
----------------|

Riff 3b
Increase the tempo during the third and the
fourth repeat.
---------------------------------|
--------5-5-5-5------------------|
-5-5-5-5--------7-7-7-7-7-7-7-7--|
---------------------------------|

Riff 4
This is the guitar solo.I'm not so sure about this one
but it sounds OK to me.
--------------------------|
--------------------------|
-355----355----3555-8-677-|
--------------------------|

Riff 5
---------------|
---------------|
-3-555--3-55---|
---------------|

Song Structure
--------------
Riff 1a - X2
Riff 1b - X1
Riff 1c - X1
Riff 2  - X2
Riff 1a - X2
Riff 1b - X1
Riff 1c - X1
Riff 2  - X2
Riff 3a - X7
Riff 3b - X4
Riff 4  - X2
Riff 1b - X1
Riff 1c - X1
Riff 2  - X2
Riff 5  - X1


Killboy Powerhead

Riff 1
------------------|
---------55554444-|
-77775555---------|
------------------|

Riff 2
----------------------------|
-3--------------------------|
----3--5--7--7777-3333-5555-|
----------------------------|
^^^^^^^^^^
Play Fast Here

Riff 3
---------------------|
---------------------|
----------------6-3--|
-888868888688886-----|

Song Structure
--------------
Riff 1 - X6
Riff 2 - X1
Riff 3 - X2
Riff 1 - X3
Riff 3 - X1
Riff 1 - X3
Riff 3 - X1
Riff 2 - X1
Riff 3 - X4
Riff 2 - X1
Riff 1 - X4
Riff 2 - X1
Riff 3 - X4
Riff 1 - X1

What Happened To You

Intro
G-------------------------------|
D-------------------------------|
A-1-------1---3-----------------|
E-------------------------------|

G---------------------------------------------------------------|
D-2/3---3---------2/3---3---------2/3---3---------3---2---1-----|
A---------3-3---3---------1-1---1---------3-3---3---------------|
E---------------------------------------------------------------|

Verse
G-------------------------------|-------------------------------|
D-0-----------0-----------3---2-|-0-------3---2-----------3---2-|
A-----0---1-------3---0h3-------|-----0-----------3---0h3-------|
E-------------------------------|-------------------------------|

G-------------------------------|-------------------------------|
D-0-----------0-----------3---2-|-0.----------------------------|
A-----0---1-------3---0h3-------|---------1.------3-------------|
E-------------------------------|-------------------------------|
				NOTE: . = staccato

Chorus
G-------------------------------|-------------------------------|
D-0-----------0-----------------|-0-----------0---3-3-2-3-------|
A-----0---1-----------0---3---0-|-----0---1---------------5-4-3-|
E-----------------1-------------|-------------------------------|

G-------------------------------|-------------------------------|
D-0-----------0-----------------|-------------------------------|
A-----0---1-----------0---3---0-|-1-------1---3-----------------|
E-----------------1-------------|-------------------------------|

G---------------------------------------------------------------|
D-2/3---3---------2/3---3---------2/3---3---------3---2---1-----|
A---------3-3---3---------1-1---1---------3-3---3---------------|
E---------------------------------------------------------------|

Ending:
G-------------------------------|-------------------------------|
D-------------------------------|-------------------------------|
A-1-------1---3---------------3-|-1-------1---3---------------3-|
E-------------------------------|-------------------------------|

G-------------------------------|-------------------------------|
D-------------------------------|-2/3---3---------3-----3.------|
A-1-------1---3---------------3-|---------3-3---3---3-3---------|
E-------------------------------|-------------------------------|

So Alone

Riff A: (4 times)
A--2-2-2-5-5-5-0-0-0-2--2--|
E--------------------------|

Riff B: (once)
A--00000000-00000000-22222222-22222222--|
E---------------------------------------|

Riff C: (once)
A--00000000-00000000--------------------|
E--------------------22222222-22222222--|

Riff D: (3 times)
A--2-2-2-5-5-5-0-0-0-0-2--|
E-------------------------|

Riff E: (once)
A--2-2-2-5-5-5-0-0-0-0-2--222--|
E------------------------------|

Riff F: (once)
A--00000000-00000000-00000000-00000000--|
E---------------------------------------|

Riff A: (4 times)
Riff B: (once)
Riff C: (once)
Riff D: (4 times)

Not The One

It's this riff pretty much all the way through:

G|-------------------------------------|
D|-------------------------------------|
A|-3--3-3-3-3--3-5---------------------|
E|-------------------5--5-5-5-5--5-5---|


Smash

Verse: part n?1                  (x2)
G:-------------------------------------|
D:-------------------------------------|
A:8-8-8-8-3-4-4------------------------|
E:--------------4-6-6--6-6-6--8--8-8-8-|

Pre-chorus                      (x2)
G:---------------------------------------|
D:---------------------------------------|
A:8888888-3-44444444---------------------|
E:-------------------4-66666666-88888888-|

Chorus n?1(x2)

G:----------------------------|
D:----------------------------|
A:-----6-6-4-4--4-4-4-4-6-3-4-|
E:4-4-4-----------------------|

After-chorus(x4)
G:--------------|
D:--------------|
A:--3-444-3-----|
E:1---------4-3-|

Bridge:
G:-------------------------------------------------------------|
D:-------------------------------------------------------------|
A:-------------------------------------------------------------|
E:-X-X-X-X-X-X-X-X-X-X-X-X-X-X-X-X-X-X-X-X-X-X-X-X-X-X-X-X-X-X-|
[NB:4(x31)]

After bridge
G:----------------------------------------------|
D:----------------------------------------------|
A:8-8R---6-6R---4-4R---6-6-6-8-8-10-10-10-7-7-7-|
E:----------------------------------------------|

Chorus n?2:
G:-------------------------------------------------------------------|
D:-------------------------------------------------------------------|
A:---------6-6-6-6-4-4-4-4-4-4-4-4-6---------6-6-6-6-4-4-4-4-3-3-3-3-|
E:-4-4-4-4---------------------------4-4-4-4-------------------------|

It goes this way:

Verse
Pre-chorus
Chorus
After-chorus
Verse
Pre-chorus
Chorus
After chorus
Bridge(after playing it 31 times you can either keep on playing the same
part 'til the after bridge,or play the after-chorus with the second
guitar.That's what I do)
After bridge
Pre-chorus
Chorus
Chorus n?2
After chorus
comments
We did not receive enough feedback on this tab! Please rate:
print report bad tab
1 2 3 4 5
I want to post or [tab]
guest
You may want to rate the tab now too:
select rating
Please do not post tabs as comments. Select "correction" instead!