Oops, an error
Loading. Please wait.

Stuff Is Messed Up Bass Tab

ver1
ver1

Whole song

Interactive

More versions @911Tabs.com
3,496 views 3 this week
4 commentsread comments
1 2 3 4 5
excellent!
x 3
Autoscroll
+/-
esc
set tempo
stop
Contributor
WARNING: You are trying to view
                                    content from Ultimate-Guitar.com
                                    in an unauthorized application,
                                    which is prohibited.

                                    Please use an official Ultimate
                                    Guitar Tabs application for iPhone,
                                    iPad or Android to access legitimate
                                    chords, guitar, bass, and drum tabs
                                    from Ultimate-Guitar.com database.

                                    Type "ultimate guitar tabs" in Apple
                                    App Store's or Android Market's
                                    search to find the application.
+++++++++++++++++++++++++++++++++++++
| The Offspring- Stuff Is Messed Up |
+++++++++++++++++++++++++++++++++++++


"Please leave a message on my cell phone..."

Tuning: EADG


Verse
"I see bullets getting better..."
1.
G|----------------------------------------|
D|----------------------------------------|
A|-6-66~-44~-6-66~-44~-6-66~-44~------2-4-|
E|-------------------------------4~-------|

"Who are you wearing tonight?"
2.
G|-----------------------------------------|
D|-------------------------------4~--------|
A|-6-66~-44~-6-66~-44~-6-66~-44~------2~---|
E|-----------------------------------------|

Pre-Chorus
"I dont know much..."
3.
G|-------------------|
D|-------------------|
A|-------------------|
E|-4~----------------|

Chorus
"I guess its all about the dream..."
4.
G|--------------------------------------------------------33333333-3333-----|
D|-----4444--------------4444-----------------------------------------------|
A|-6-6---------2~-4~-6-6---------2~-4~-6-6-4444-----2-222---------------4-4-|--x2
E|---------444---------------444----------------444-------------------------|

Outro
5.
G|-------------------|
D|-------------------|
A|-6~----------------|
E|-------------------|

Verse
"Now thank god for the media..."
6.
G|----------------------------------------|
D|----------------------------------------|
A|-6-66~-44~-6-66~-44~-6-66~-44~------2-4-|--x2
E|-------------------------------4~-------|

"And now we're rocking the casbah..."
7.
G|----------------------------------------|
D|----------------------------------------|
A|-6-66~-44~-6-66~-44~-6-66~-44~------2-4-|
E|-------------------------------4~-------|

"All this stuff its overwhelming my brain..."
8.
G|-----------------------------------------|
D|-------------------------------4~--------|
A|-6-66~-44~-6-66~-44~-6-66~-44~------2~---|
E|-----------------------------------------|

Pre-Chorus
"I dont know much..."
9.
G|-------------------|
D|-------------------|
A|-------------------|
E|-4~----------------|

Chorus
"I guess its all about the dream..."
10.
G|--------------------------------------------------------33333333-3333-----|
D|-----4444--------------4444-----------------------------------------------|
A|-6-6---------2~-4~-6-6---------2~-4~-6-6-4444-----2-222---------------4-4-|
E|---------444---------------444----------------444-------------------------|

"You know its all about the dream..."
11.
G|--------------------------------------------------------33333333-33333333-|
D|-----4444--------------4444-----------------------------------------------|
A|-6-6---------2~-4~-6-6---------2~-4~-6-6-4444-----2-222-------------------|
E|---------444---------------444----------------444-------------------------|

Bridge
12.
G|-----------------------------------------------------------------------------|
D|-66666-44---------4-66666-44---------4-6666-4444-----------------------------|
A|----------6-xx-6~------------6-xx-6~-------------6666------11111111-1111-4-4-|
E|------------------------------------------------------4444-------------------|

"Shopping sprees, RPG's, Ecstasy, Atrophy..."
13.
G|----------------------------------------------|
D|----------------------------------------------|
A|-666x----------------666x--------666666-6x----|
E|----------------------------------------------|

"Therapy, I wont tell, Rehab and LOL..."
14.
G|-----------------------------------------------|
D|-----------------------------------------------|
A|-666x----------------666x--------666666-666666-|
E|-----------------------------------------------|

Pre-Chorus
"I dont know much..."
15.
G|---------------------------------------|
D|---------------------------------------|
A|-----------------------------1~--------|
E|-4~-----------------------44-----------|

Chorus
"I guess its all about the dream..."
16.
G|--------------------------------------------------------33333333-3333-----|
D|-----4444--------------4444-----------------------------------------------|
A|-6-6---------2~-4~-6-6---------2~-4~-6-6-4444-----2-222---------------4-4-|--x2
E|---------444---------------444----------------444-------------------------|

Outro
17.
G|------|
D|------|
A|-6-6x-|
E|------|


Lyrics:


Now I don’t know, and it’s hard to explain
But it seems like things are just kind of insane
Because the world is crying
But nobody’s listening
So please leave a message on my cell phone

I see bullets getting better
Biblical weather
And that guy on TV is like a total asshole

Who are you wearing tonight?
Celebrity fundraiser, tight!
Black ties making wrongs right
How’s your social Band-Aid?

I don’t know much
I don’t know too much
But I know this
Shit is fucked up!

I guess it’s all about the dream
The ends justify the means
You know it’s all about the dream
The ends justify the means

Now thank god for the media, for saving the day
Putting it all into perspective in a responsible way
With more celebrity news
Typical bullshit views
I think we’re losing this fight
Sponsored by Bud Light

And now we’re rockin’ the casbah
And taking the flak
The genie’s out of the bottle, and we can’t put it back
All this stuff
It’s overwhelming my brain
Can you see the storm comin’?
It’s coming this way

Shopping Sprees, RPG’s
Ecstasy
Atrophy
Genocide
Pimp my ride
Politize
Euphemize
Injustice everywhere
Apathy
I don’t care
Hurricanes
Climate change
Huh!

Therapy, I won’t tell
Rehab and LOL
Worldwide calamity
TV Reality
Euthanize, supersize
Death squads and boob jobs
VIP infamy
Gratify instantly



+++++++++++++++++++++++++++++++++
| RaiLeff                       |
| Underground__Dora@Hotmail.Com |
+++++++++++++++++++++++++++++++++
comments
We did not receive enough feedback on this tab! Please rate:
print report bad tab
1 2 3 4 5
4 comments total. Showing first comments.
0 reply
Swordacool wrote on June 29 2009, 11:43 pm

I love this song. i think its great u put the lyrics xD
helps alot. let me get back to u in a few days so i can let u know how good the tab is!!

0 reply
RaiLeff wrote on July 7 2009, 11:24 pm

ok man that was real nice of u ;)

0 reply
Swordacool wrote on August 15 2009, 01:17 pm

lmao, sorry. longer than i thought. stuff kept comin up.
for the most part, its really close. id say id give ya a 5 but thats kinda wrong.
4* though!!! lmao
great tab mate, keep up the tabbin!!

I want to post or [tab]
guest
You may want to rate the tab now too:
select rating
Please do not post tabs as comments. Select "correction" instead!