Oops, an error
Loading. Please wait.

The Offspring Tab

21,144 views 3 this week
7 commentsread comments
1 2 3 4 5
accurate
x 6
add to favorites launch autoscroll
font size
0
reset
Autoscroll
+/-
esc
set tempo
stop
Contributor
WARNING: You are trying to view
                                    content from Ultimate-Guitar.com
                                    in an unauthorized application,
                                    which is prohibited.

                                    Please use an official Ultimate
                                    Guitar Tabs application for iPhone,
                                    iPad or Android to access legitimate
                                    chords, guitar, bass, and drum tabs
                                    from Ultimate-Guitar.com database.

                                    Type "ultimate guitar tabs" in Apple
                                    App Store's or Android Market's
                                    search to find the application.
The Offspring
"The Offspring"
Nitro Records (1989)
_______________________________________________________________________

1. Jennifer Lost the War

Standard Tuning

Chords definition:

   E(lo)  A  B  C  C#  D   E(hi)
|--0---------------------------------------------|
|--0------2--4--5--6---7---9---------------------|
|--4------2--4--5--6---7---9---------------------|
|--2------2--4--5--6---7---9---------------------|
|--2------0--2--3--4---5---7---------------------|
|--0---------------------------------------------|

There's a lot of cute little riffs in this song

Riff 1 - This is played halfway through each chorus
It isn't right either, but it sounds pretty close
               )
|-9p7-9p7-9p7-10-|
|----------------|
|----------------|
|----------------|
|----------------|
|----------------|

Riff 2 -- This is played after the first chorus
Play it fast, it's hard to tell the first part of it, but even if you ca
play it, mess around in an E blues scale, and it'll sound fine.
                                       )  )
|--------------------)--)-----)--)----15-15-15-12--)--)------------------|
|-------------------12-12----12-12----------------15-15-15-12------------|
|-------------------12-12----12-12----------------------------14p12------|
|-------------12-14-------14-------14-------------------------------14-X-|
|----10/12-14------------------------------------------------------------|
|-12---------------------------------------------------------------------|

Riff 3 -- This is played after the second chorus
This is all I could make of it, you'll have to play it at lightning spee
and even then it sounds wrong.  At least it doesn't last very long :)

|-----------------------------------------------------------------------|
|------------------8-----7------------------8-----7-----8-----7---------|
|-----10-----9-----------------10-----9-----------------------------10--|
|-7-7----7-7---7-7---7-7---7-7----7-7---7-7---7-7---7-7---7-7---7-7-----|
|-----------------------------------------------------------------------|
|-----------------------------------------------------------------------|

Riff 4 -- This is played after the bridge, it's kinda cool, just bend th
lower string up to the point where it matches the pitch of the upper str

|-------7----9---12---14--16--|
|-7-----10---12--15---17--19--|
|-9---------------------------|
|-----------------------------|
|-----------------------------|
|-----------------------------|

Riff 5 -- This is played at the end of the song, it's a nice ending

|-12-12-10-9~~-10-10-9-7~~--|
|---------------------------|
|---------------------------|
|---------------------------|
|---------------------------|
|---------------------------|

The little intro thing is E(hi) D C#, D C# B

(Drums only here)
Jennifer lost the war today, they'll find her burnt and raped


Through it all she must have wondered what have I done

    E(lo)         A               D              E(hi)
But nobody really cares today the world's a busy place

C                 D                  B
Guess she must've really sinned ahh, really sinned ahh

A             D
I guess we're all just soldiers

E(hi)
She was only six years old

A       D
Left to die by strangers

(Riff 1)
While her family waits

A            D
And if we're all just soldiers

E(hi)                D        B
Is it so wrong to be afraid

B                     (Riff 2)
Jennifer lost the war

E(lo)           A         D                  E(hi)
Phoebe lost the war today there must be some mistake

C              D            B
Say it happens all the time and it's said and done

E(lo)               A              D              E(hi)
Little miss fifteen sixtyfive your soul remains unclaimed

C                   D              B
Guess you must have really sinned, ahh

A        D
Morality won't help her

E(hi)
When she lies silent in a morgue

A           D
And all our sorrows

Riff 1
Just don't count at all

A            D
But will the morning headlines

E(hi)                      D
Even say that it's a shame

B                  D   B
What we're heading for

B                  (Riff 3)
Jennifer Lost the war

B(mute)             D C#
Seen it all before,

A                       E(lo)
Silent on the ground as he's walking away

B(mute)                    D C#

Tabbed by Unregistered
____________________________________________________________________

2. Elders

Great song not too hard and nobody has done it so here it is!
Enjoy!!!


# intro #   X4
E-----------------------------------------------------|
B-----------------------------------------------------|
G--10--10-10-10-10-10-10-10-10-10-10---6---6--8---8---|
D--10--10-10-10-10-10-10-10-10-10-10---6-6-6--8-8-8---|
A---8---8--8--8--8--8--8--8--8--8--8---4-6-4--6-8-6---|
E----------------------------------------4------6-----|
       \________mute_______________/

# verse #   X 4
E-------------------------|
B-------------------------|
G--10---6---6--8---8------|
D--10---6-6-6--8-8-8------|
A---8---4-6-4--6-8-6------|
E---------4------6--------|

# chorus #    X 2
E------------------------------------------------------------|
B------------------------------------------------------------|
G----------6--5--------------6--5--3--3-3-3-3--6--5--6---8---|
D-3-3-3-3--6--5--6--6-6-6-6--6--5--3--3-3-3-3--6--5--6---8---|
A-3-3-3-3--4--3--6--6-6-6-6--4--3--1--1-1-1-1--4--3--4---6---|
E-1-1-1-1--------4--4-4-4-4----------------------------------|
   \mute/           \mute  /           \mute/

Intro2 #   X 2
E-------------------------------------------|
B-------------------------------------------|
G---3--3-3-3-3-3-3-3-3-3-3---6---6--8---8---|
D---3--3-3-3-3-3-3-3-3-3-3---6-6-6--8-8-8---|
A---1--1-1-1-1-1-1-1-1-1-1---4-6-4--6-8-6---|
E------------------------------4------6-----|
       \________mute_____/
Then play verse and chorus

# solo #    v = vibrato    b = bend
E-------15------------------------------------------------->
B13------14---14v--13------------17b-17b-17b-17b-17b-17b--->
G--13-13v--15-------13----13v------------------------------>
D---15-----------------15---------------------------------->
A---------------------------------------------------------->
E---------------------------------------------------------->

E-15-13------13--15-13-----13------------------------------|
B------14-14--14------14-14--14-13-17b-17b-17b-17b-17b-17b-|
G----------------------------------------------------------|
D----------------------------------------------------------|
A----------------------------------------------------------|
E----------------------------------------------------------|

# bridge #
E-----------------------------------|
B-----------------------------------|
G-------------------6-5-6---8--10---|
D---8-6-8---8-6-8---6-5-6---8--10---|
A---8-6-8---8-6-8---4-3-4---6---8---|
E---6-4-6---6-4-6-------------------|
Then play chorus and finally verse and you got it!
I really like this song!

Tabbed by Banshee.
_______________________________________________________________________

3. Out on Patrol

There are 3 main guitars:

Guitar I- Acoustic [Standard tuning]
Guitar II- Rythm [Standard tuning]
Guitar III- Lead [Standard tuning]

__________________________________________
NOTATION LEGEND:

/ or \= slide
~~~~~~= vibrato highlighted notes
__________________________________________

  INTRO- FAST:

  Guitar I
e|.|-0-0-0-0-0-0-|-----------|-------------|-------------|.|
b|.|-1-1-1-1-1-1-|-3-3-3-3-3-|-0-0-0-0-0-0-|-0-0-0-0-0-0-|.|
g|.|-0-0-0-0-0-0-|-2-2-2-2-2-|-0-0-0-0-0-0-|-0-0-0-0-0-0-|.|
d|.|-2-2-2-2-2-2-|-0-0-0-0-0-|-2-2-2-2-2-2-|-2-2-2-2-2-2-|.|
a|.|-3-3-3-3-3-3-|-0-0-0-0-0-|-2-2-2-2-2-2-|-2-2-2-2-2-2-|.|
e|.|-0-0-0-0-0-0-|-----------|-0-0-0-0-0-0-|-0-0-0-0-0-0-|.|

  Guitar II- Starts after the above part has been played 3x.
e|--------------------------------------|
b|--------------------------------------|
g|--9--------9--------9--------9--------|
d|--9--------9--------9--------9--------|
a|--7--------7--------7--------7--------|
e|--------------------------------------|

  VERSE:

  Guitar II
e|-----------------------------------------|.|
b|-----------------------------------------|.|
g|-----------------------------------------|.|
d|--9--9--9--7--7--7-----------5--5--5--5--|.|
a|--7--7--7--5--5--5--7--7--7--3--3--3--3--|.|
e|--------------------5--5--5--------------|.|

  Guitar III- (After each line)
e|-------------------|
b|-------------------|
g|--7--7--7--5-/-10--|
d|--~--~--~--~~~~~~--|
a|-------------------|
e|-------------------|

  CHORUS:

  Guitar II
e|------------------------------|
b|------------------------------|
g|--9--9---9--9---7---7---7--7--|
d|--9--9---9--9---7---7---7--7--|
a|--7--7---7--7---5---5---5--5--|
e|------------------------------|
       Now do you see the light...

e|------------------------------------|
b|------------------------------------|
g|---------------------5-----5--5--5--|
d|--7--7----7-----7----5-----5--5--5--|
a|--7--7----7-----7----3-----3--3--3--|
e|--5--5----5-----5-------------------|
 ...fa_ding while your world is crumbling?

e|--------------|--------------|
b|--------------|--------------|
g|--------------|--7--7--7--7--|
d|--9---9--9-9--|--7--7--7--7--|
a|--9---9--9-9--|--5--5--5--5--|
e|--7---7--7-7--|--------------|
   (Out on patrol!)

e|--------------------------------|
b|--------------------------------|
g|---------------------5---5---5--|
d|---7---7---7---7-----5---5---5--|
a|---7---7---7---7-----3---3---3--|
e|---5---5---5---5----------------|
 And all you can do is sit and stare...

  POST CHORUS:

  Guitar III
e|--------------------------------------|
b|--------------------------------------|
g|--5--5--5--7--7--7--------------------|
d|--------------------2--2--2--2--2--2--|
a|--------------------------------------|
e|--------------------------------------|

  Guitar I
e|--0-0-0-0-0-0-|-----------|-------------|-------------|
b|--1-1-1-1-1-1-|-3-3-3-3-3-|-0-0-0-0-0-0-|-0-0-0-0-0-0-|
g|--0-0-0-0-0-0-|-2-2-2-2-2-|-0-0-0-0-0-0-|-0-0-0-0-0-0-|
d|--2-2-2-2-2-2-|-0-0-0-0-0-|-2-2-2-2-2-2-|-2-2-2-2-2-2-|
a|--3-3-3-3-3-3-|-0-0-0-0-0-|-2-2-2-2-2-2-|-2-2-2-2-2-2-|
e|--0-0-0-0-0-0-|-----------|-0-0-0-0-0-0-|-0-0-0-0-0-0-|

  INTERLUDE:

  Guitar I
e|--0-0-0-0-0-0-|-----------|-------------|-------------|
b|--1-1-1-1-1-1-|-3-3-3-3-3-|-0-0-0-0-0-0-|-0-0-0-0-0-0-|
g|--0-0-0-0-0-0-|-2-2-2-2-2-|-0-0-0-0-0-0-|-0-0-0-0-0-0-|
d|--2-2-2-2-2-2-|-0-0-0-0-0-|-2-2-2-2-2-2-|-2-2-2-2-2-2-|
a|--3-3-3-3-3-3-|-0-0-0-0-0-|-2-2-2-2-2-2-|-2-2-2-2-2-2-|
e|--0-0-0-0-0-0-|-----------|-0-0-0-0-0-0-|-0-0-0-0-0-0-|

  Guitar III
e|------------|-----------|--------------|--------------|
b|------------|-----------|--------------|--------------|
g|--5---------|--5--------|--5-----------|--5-----------|
d|------------|-----------|--------------|--------------|
a|------------|-----------|--------------|--------------|
e|------------|-----------|--------------|--------------|

  OUTRO:

  Guitars II & III
e|------------------|
b|------------------|
g|--9----9----9--9--| x3
d|--9----9----9--9--|
a|--7----7----7--7--|
e|------------------|
    It's your life...

e|--------------------|
b|--------------------|
g|--7--7--------7--7--|
d|--7--7--7--7--7--7--|
a|--5--5--7--7--5--5--|
e|--------5--5--------|
    (Wo__ oh___ oh)___

e|-----------------------------------------|
b|-----------------------------------------|
g|--9-9-9-9-----------------------9-9-9-9--|
d|--9-9-9-9-----------------------9-9-9-9--|
a|--7-7-7-7-----------------------7-7-7-7--|
e|-----------------------------------------|
           "Uno dos tres quatroz!"

Tabbed by me.
_______________________________________________________________

4. Crossroads

Intro
e-----------------------------------------------------------|
B-----------------------------------------------------------|
G------7-----7--7------10-----10---10------5-----3---3------|
D--0-0---0-0--0----0-0----0-0----0-----0-0---0-0---0--------|
A-----------------------------------------------------------|
E-----------------------------------------------------------|

(continued)
e-----------------------------------------------------------|
B-----------------------------------------------------------|
G------2-----2---2------7-----7--7------10-----10---10------|
D--0-0---0-0--0-----0-0---0-0--0----0-0----0-0----0---------|
A-----------------------------------------------------------|
E-----------------------------------------------------------|

(continued)
e-----------------------------------------------------------|
B-----------------------------------------------------------|
G------5-----3---3------7-----7---7-------------------------|
D--0-0---0-0---0----0-0---0-0---0---------------------------|
A-----------------------------------------------------------|
E-----------------------------------------------------------|

Riff 1
e-----------------------------------------------------------|
B-----------------------------------------------------------|
G-----------------------------------------------------------|
D-----------------------------------------------------------|
A--5-5-5-5--7-7-7-7--8-8-8-8--12-12-12-12--11-11-11-11------|
E--0--------0--------0---------0------------0---------------|

(continued)
e-----------------------------------------------------------|
B-----------------------------------------------------------|
G-----------------------------------------------------------|
D-----------------------------------------------------------|
A--11-11--7-7-7-7-7-7---------------------------------------|
E---------0-------------------------------------------------|

Riff 2
e-----------------------------------------------------------|
B-----------------------------------------------------------|
G--7-7-7-7-/--9-9-9--10-10-10-10-10-10---10--------7--------|
D--x-x-x-x----x-x-x---x--x--x--x--x--x----x---10---x--------|
A--5-5-5-5-/--7-7-7---8--8--8--8--8--8----8----x---5--------|
E----------------------------------------------8------------|

Verse
e-----------------------------------------------------------|
B-----------------------------------------------------------|
G--7--10-9-7-7--10-9-7--5--5m-5m-5m-5m----------------------|
D--7--10-9-7-7--10-9-7--5--5m-5m-5m-5m--7-7-7-7--8--8m-8m---|
A--5---8-7-5-5---8-7-5--3--3m-3m-3m-3m--7-7-7-7--8--8m-8m---|
E---------------------------------------5-5-5-5--6--6m-6m---|

(continued)
e-----------------------------------------------------------|
B-----------------------------------------------------------|
G-----------------------------------------------------------|
D--8m-8m--5-5-5-5--7-7-7-7-7-7-7-7-7-7-7-7------------------|
A--8m-8m--5-5-5-5--7-7-7-7-7-7-7-7-7-7-7-7------------------|
E--6m-6m--3-3-3-3--5-5-5-5-5-5-5-5-5-5-5-5------------------|

Chorus
e-----------------------------------------------------------|
B-----------------------------------------------------------|
G--10-10-10------------7----10-10-10------------7-7-7-7-7-7-|
D--10-10-10--10-10-10--7----10-10-10--10-10-10--7-7-7-7-7-7-|
A---8--8--8--10-10-10--5-----8--8--8--10-10-10--5-5-5-5-5-5-|
E-------------8--8--8------------------8--8--8--------------|

Solo
e-----------------------------------------------------------|
B--------10^----11--10--------------------------------------|
G--12p10----------------12--12p10---------10p9h10p9h10p9----|
D---------------------------------10------------------------|
A------------------------------------12---------------------|
E-----------------------------------------------------------|

(continued)
e-----------------------------------------------------------|
B--11--10--11p10h11p10--------------------------------------|
G-----------------------10p9h10p9h10p9h10p9h10p9------------|
D-----------------------------------------------------------|
A-----------------------------------------------------------|
E-----------------------------------------------------------|

Bridge 1
e-----------------------------------------------------------|
B-----------------------------------------------------------|
G-10-10--12-10-9-7--10-10--10-9-7--10-10--12-10-9-7--10-----|
D-10-10--12-10-9-7--10-10--10-9-7--10-10--12-10-9-7--10--10-|
A--8--8--10--8-7-5---8--8---8-6-5---8--8--10--8-7-5---8--10-|
E---------------------------------------------------------8-|

Bridge 2
e-----------------------------------------------------------|
B-----------------------------------------------------------|
G--7--x-x-x-x-x-x--10-------------10-9---------7------------|
D--7--x-x-x-x-x-x--10--10--10-10--10-9--10-10--7------------|
A--5--x-x-x-x-x-x---8--10--10-10---8-7--10-10--5------------|
E-----------------------8---8--8---------8--8---------------|

Bridge 3
e-----------------------------------------------------------|
B-----------------------------------------------------------|
G-----------------------------------------------------------|
D--10----10\-8----8/-10----10\-8----------------------------|
A--10----10\-8----8/-10----10\-8----------------------------|
E---8-----8\-6----6/--8-----8\-6----------------------------|

Intro
Riff 1
Riff 2
Riff 1
Riff 2
Verse
Chorus
Verse, Solo
Chorus
Bridge 1
Bridge 2
Bridge 1
Bridge 2
Bridge 3
Riff 1
Riff 2
Riff 1
Riff 2
Verse
Chorus

Tabbed by Unregistered.
___________________________________________________________________________

5. Demons

// = pick slide

Intro
e---------------------------------------------------------|
B---------------------------------------------------------|
G-----------7-------------------------10-10-10--9-9-9--7--|
D--//---9---7---9--9m-9m-9m-9m-9m-9m--10-10-10--9-9-9--7--|
A--//---9---5---9--9m-9m-9m-9m-9m-9m---8--8--8--7-7-7--5--|
E-------7-------7--7m-7m-7m-7m-7m-7m----------------------|

(continued)
e---------------------------------------------------------|
B---------------------------------------------------------|
G--7m-7m-7m-7m-7m-7m--10-10-10--9-9-9--7------------------|
D--7m-7m-7m-7m-7m-7m--10-10-10--9-9-9--7------------------|
A--5m-5m-5m-5m-5m-5m---8--8--8--7-7-7--5------------------|
E---------------------------------------------------------|

Chorus
e---------------------------------------------------------|
B---------------------------------------------------------|
G------------------10-10-10--9-9-9--7--7-7-7-7-7-7-7------|
D--9--9-9-9-9-9-9--10-10-10--9-9-9--7--7-7-7-7-7-7-7------|
A--9--9-9-9-9-9-9---8--8--8--7-7-7--5--5-5-5-5-5-5-5------|
E--7--7-7-7-7-7-7-----------------------------------------|

(continued)
e---------------------------------------------------------|
B---------------------------------------------------------|
G--10-10-10--9-9-9--7-------------------------------------|
D--10-10-10--9-9-9--7-------------------------------------|
A---8--8--8--7-7-7--5-------------------------------------|
E---------------------------------------------------------|

Riff A (Guitar 1)
e---------------------------------------------------------|
B---------------------------------------------------------|
G-----------------------------9-9-9-9-9-9--7-7-7-7-7-7----|
D--9-9-9-9-9-9-9-9-9-9-9-9-9--9-9-9-9-9-9--7-7-7-7-7-7----|
A--9-9-9-9-9-9-9-9-9-9-9-9-9--7-7-7-7-7-7--5-5-5-5-5-5----|
E--7-7-7-7-7-7-7-7-7-7-7-7-7------------------------------|

Riff B (Guitar 2)
e--2-2-2-2-2-2--3-3--5-5-5--0-0-0-0-0-0--3-3-3-3--2-------|
B--0-0-0-0-0-0--0-0--0-0-0--0-0-0-0-0-0--0-0-0-0--0-------|
G---------------------------------------------------------|
D---------------------------------------------------------|
A---------------------------------------------------------|
E---------------------------------------------------------|

Verse
e---------------------------------------------------------|
B---------------------------------------------------------|
G--------------5-5--5-5-5--4-4--4-4-4---------------------|
D--7-7--7-7-7--5-5--5-5-5--4-4--4-4-4--4-4--4-4-4---------|
A--7-7--7-7-7--3-3--3-3-3--2-2--2-2-2--4-4--4-4-4---------|
E--5-5--5-5-5--------------------------2-2--2-2-2---------|

(continued)
e---------------------------------------------------------|
B---------------------------------------------------------|
G--------------5-5--5-5-5--4-4--4-4-4--4-4--4-4-4---------|
D--7-7--7-7-7--5-5--5-5-5--4-4--4-4-4--4-4--4-4-4---------|
A--7-7--7-7-7--3-3--3-3-3--2-2--2-2-2--2-2--2-2-2---------|
E--5-5--5-5-5---------------------------------------------|

Fill 1
e--5--7-7--7----------------------------------------------|
B--5--7-7--7----7p5---------------------------------------|
G--------------------h6-----4^----------------------------|
D-----------------------h7--------------------------------|
A---------------------------------------------------------|
E---------------------------------------------------------|

Fill 2
e--14----13----12----11----10----9----8---7---------------|
B-----15----14----13----12----11---10---9---8-------------|
G---------------------------------------------------------|
D---------------------------------------------------------|
A---------------------------------------------------------|
E---------------------------------------------------------|

Bridge 1
e------------2--2-2-2------------2--2-2-2--3--0--0-0------|
B------------3--3-3-3--3m-3m-3m--3--3-3-3--5--3--3-3------|
G--4m-4m-4m--4--4-4-4--2m-2m-2m--2--2-2-2--5--3--3-3------|
D--4m-4m-4m--4--4-4-4--0m-0m-0m--0--0-0-0-----------------|
A--2m-2m-2m--2--2-2-2-------------------------------------|
E---------------------------------------------------------|

(continued)
e------------1--1-1-1------------2--2-2-2-----------------|
B------------3--3-3-3------------3--3-3-3--3m-3m-3m-------|
G--3m-3m-3m--3--3-3-3--4m-4m-4m--4--4-4-4--2m-2m-2m-------|
D--3m-3m-3m--3--3-3-3--4m-4m-4m--4--4-4-4--0m-0m-0m-------|
A--1m-1m-1m--1--1-1-1--2m-2m-2m--2--2-2-2-----------------|
E---------------------------------------------------------|

(continued)
e-------6-----6---------8------8--------------------------|
B---------8-----8---------10-----10-----------------------|
G--2/-7-----7-----7-/-9------9------9---------------------|
D---------------------------------------------------------|
A---------------------------------------------------------|
E---------------------------------------------------------|

Bridge 2
e---------------------------------------------------------|
B--3-3--3-3-3-3--7-7--7-7-7-7--9-9--9-9-9-9--5-5--5-5-5-5-|
G--4-4--4-4-4-4--7-7--7-7-7-7--9-9--9-9-9-9--5-5--5-5-5-5-|
D--4-4--4-4-4-4--7-7--7-7-7-7--9-9--9-9-9-9--5-5--5-5-5-5-|
A--2-2--2-2-2-2--5-5--5-5-5-5--7-7--7-7-7-7--3-3--3-3-3-3-|
E---------------------------------------------------------|

(continued)
e---------------------------------------------------------|
B--3-3--3-3-3-3--7-7--7-7-7-7--9-9----------9-9-----------|
G--4-4--4-4-4-4--7-7--7-7-7-7--9-9--7--7-7--9-9--7--7-7---|
D--4-4--4-4-4-4--7-7--7-7-7-7--9-9--8--8-8--9-9--8--8-8---|
A--2-2--2-2-2-2--5-5--5-5-5-5--7-7--8--8-8--7-7--8--8-8---|
E-----------------------------------6--6-6-------6--6-6---|

(continued)
e---------------------------------------------------------|
B--10-10------------12-12-12-12-12-12-12-12---------------|
G--10-10---9--9--9--12-12-12-12-12-12-12-12---------------|
D--10-10--10-10-10--12-12-12-12-12-12-12-12---------------|
A---8--8--10-10-10--10-10-10-10-10-10-10-10---------------|
E----------8--8--8----------------------------------------|


Intro
Chorus
Riff A,B
Verse
Verse, Fill 1
Verse
Chorus
Riff A, B
Verse
Verse, Fill 2
Verse
Chorus
Riff A, B
Riff A
Riff A, B
Bridge 1
Bridge 2
Riff A, B
Chorus

Tabbed by Unregistered.
________________________________________________________________

6. Beheaded

INTRO

E-6-6-4-4-7-7-7-6--|
B-4-4-4-4-4-4-4-4--|
G------------------|      X  4
D------------------|
A------------------|
E------------------|

VERSE #1

E-----------------------|--------------|
B-----------------------|--------------|
G-8--6--9-8--8--6--9-8--|--------------|     X 2
D-8--6--9-8--8--6--9-8--|--6--9--8-----|
A-6--4--7-6--6--4--7-6--|--6--9--8-----|
E-----------------------|--4--7--6-----|

CHORUS

          d  d  d u u  u d u d
E-------------------------------|------------|
B-9---7-------------------------|-9---7------|  I put the upstrokes and
G-8---6---8--8--8-9-8--8-8-8-8--|-8---6---8--|  dowstrokes just to help
D-6---4---8--8--8-9-8--8-8-8-8--|-6---4---8--|  (follow them! it's a lot
A---------6--6--6-7-6--6-6-6-6--|---------6--|    easeyer that way.)
E-------------------------------|------------|


	play intro 2x

      play verse 2x

      play chorus 2x (The second one don't have the lyrics, and the
                       last powerchord is the first one of verse #2)


VERSE #2

E-------------------------------|
B--------6-6-6--5-5--4-4-4------|            In the second time play the
G-8-8-8--6-6-6--5-5--4-4-4------|   X 10     first tree chords with more
D-8-8-8--4-4-4--3-3--2-2-2------|            intensity.
A-6-6-6-------------------------|
E-------------------------------|

RIFF

E----------------------------------------|
B-10---11---10-11---10---11---10---11----|
G----------------------------------------|  This riff is played all the way
D----------------------------------------|  trough the second verse, so it's
A----------------------------------------|  is also played 10 times.
E----------------------------------------|


BRIDGE

E---------------|
B-----7---------|
G-8---6---9-----|    X 6
D-8---4---9-----|
A-6-------7-----|
E---------------|

      play intro 2x

      play chorus

LAST ONE

          d  d  d u u  u d u d
E-------------------------------|
B-9---7-------------------------|
G-8---6---8--8--8-9-8--8-8-8-8--|       X 2
D-6---4---8--8--8-9-8--8-8-8-8--|
A---------6--6--6-7-6--6-6-6-6--|
E-------------------------------|

Tabbed by Unregistered.
________________________________________________________________________________

7. Tehran

/= Slide up
\= Slide down
.= Palmmute

Intro -- two guitars

e-------------------------------12------|
B---8------------/8-8-8-8\---------12---|
G---7------------/7-7-7-7\--------------|
D---------------------------------------|
A----------7-----------------7----------|
E---------------------------------------|

Riff 1 -- X10 (played real fast)

e----------------------------------------|
B--------------10-9----------------------|
G---9-9-9-9-9-------10--9-9-9-9-9--7-9---|
D----------------------------------------|
A----------------------------------------|
E----------------------------------------|

Intro 2   (during riff 1)

e---------------------------------------------------|
B---------------------------------------8-8-8-------|
G---9-9-9---9-9-9-----------------------7-7-7-------|
D---9-9-9---9-9-9-------------7--9--10--------------|
A---7-7-7---7-7-7---7--8--10--------------------7---|
E---------------------------------------------------|

Follow up

e---------------------------------------------------------|
B---------------------------------------------------------|
G---9-9-9-10-10-10-9-9-9--10---9-9-9-10-10-10-9-9-9--12---|
D---9-9-9-10-10-10-9-9-9--10---9-9-9-10-10-10-9-9-9--12---|
A---7-7-7--8--8--8-7-7-7---8---7-7-7--8--8--8-7-7-7--10---|
E---------------------------------------------------------|
    ....................       ....................

e---------------------------------------------------------|
B---------------------------------------------------------|
G---9-9-9-10-10-10-9-9-9--14---9-9-9-10-10-10-9-9-9--16---|
D---9-9-9-10-10-10-9-9-9--14---9-9-9-10-10-10-9-9-9--16---|
A---7-7-7--8--8--8-7-7-7--12---7-7-7--8--8--8-7-7-7--14---|
E---------------------------------------------------------|
    ....................       ....................

Riff 2 -- X2

e------------------------------------|
B------------------------------------|
G------------------------------------|
D---6--6-7/9-9--9--7-6--6------------|
A--------------------------8-7-8-7---|
E------------------------------------|

Verse -- X2      (In your plane in the blue sky...)

e-----------------------------------------------------|
B-----------------------------------------------------|
G-----------------------------------------------------|
D---6-6-6-6-7-9-9-9-9-7-6-6-6-6-----------------------|
A-------------------------------8--7--8--7------------|
E-----------------------------------------------------|
    ......................................


Verse 2         (This is no Vietnam...)

e------------------------------------|
B------------------------------------|
G-------------------------------10---|
D---7-7-7-7-7-7-7-7-7-7-7-7-7-7-10---|
A---7-7-7-7-7-7-7-7-7-7-7-7-7-7--8---|
E---5-5-5-5-5-5-5-5-5-5-5-5-5-5------|


Chorus --  *= play 8 times -- I'm not sure of this
e---------------------------------------------------------|
B--------------------------------*------------------------|
G----------------*--7-7-7-7-7-9-7---5-5-5-5-5-4-5--5--7---|
D---5-5-5-5-5-4-5---7-7-7-7-7-9-7---5-5-5-5-5-4-5--5--7---|
A---5-5-5-5-5-4-5---5-5-5-5-5-7-5---3-3-3-3-3-2-3--3--5---|
E---3-3-3-3-3-2-3-----------------------------------------|

Play riff 2, verse 1, verse 2, verse 1 X1, chorus, follow up, riff 2, verse 1 X6, verse
(a little bit longer), verse 1 and chorus

Outro --

e--------------------------------------------------------|
B--------------------------------------------------------|
G---9-9-10-9-9-8-9---5---7---9-9-10-9-9-8-9---5------7---|
D---9-9-10-9-9-8-9---5---7---9-9-10-9-9-8-9---5------7---|
A---7-7--8-7-7-6-7---3---5---7-7--8-7-7-6-7---3------5---|
E--------------------------------------------------------|

Play riff 2 and this is it!

Tabbed by Mundo Egoista.
______________________________________________________________________________

8. A Thousand Days

Intro
e----------------------------------------------------------|
B----------------------------------------------------------|
G----------------------------------------------------------|
D--------------4-4--0--3-3--0---------------4-4--0--3-3--0-|
A-0-0-0-2-2-2------------------0-0-0-2-2-2-----------------|
E----------------------------------------------------------|

Verse
e----------------------------------------------------------|
B----------------------------------------------------------|
G---------------11--10--7----------------11--10--7---------|
D--7-7-7-9-9-9--11--10--7---7-7-7-9-9-9--11--10--7---------|
A--7-7-7-9-9-9---9---8--5---7-7-7-9-9-9---9---8--5---------|
E--5-5-5-7-7-7--------------5-5-5-7-7-7--------------------|

Fill
e----------------------------------------------------------|
B----------------------------------------------------------|
G--9-9-9-9--12-12--9-9--12-12-12-12------------------------|
D--9-9-9-9--12-12--9-9--12-12-12-12------------------------|
A--7-7-7-7--10-10--7-7--10-10-10-10------------------------|
E----------------------------------------------------------|

Chorus
e----------------------------------------------------------|
B----------------------------------------------------------|
G-------5-5-5-------7-7-7----------------------------------|
D--5-5--5-5-5--5-5--7-7-7--9-9-9-9-9-9-9-9-9-9-9-9-9-9-9-9-|
A--5-5--3-3-3--5-5--5-5-5--9-9-9-9-9-9-9-9-9-9-9-9-9-9-9-9-|
E--3-3---------3-3---------7-7-7-7-7-7-7-7-7-7-7-7-7-7-7-7-|

(continued)
e----------------------------------------------------------|
B----------------------------------------------------------|
G-------5-5-5-------7-7-7----------------------------------|
D--5-5--5-5-5--5-5--7-7-7--4---4-4-4-4-4-4-----------------|
A--5-5--3-3-3--5-5--5-5-5--4---4-4-4-4-4-4-----------------|
E--3-3---------3-3---------2---2-2-2-2-2-2-----------------|

Riff
e----------------------------------------------------------|
B----------------------------------------------------------|
G--8--8--8-8--8--8------8--8--8-8--8--8--------------------|
D--9--9--9-9--9--9--7---9--9--9-9--9--9--7-----------------|
A--9--9--9-9--9--9--7---9--9--9-9--9--9--7-----------------|
E--7--7--7-7--7--7--5---7--7--7-7--7--7--5-----------------|

Bridge                                          end on
e-----------------------------------------------|----------|
B-----------------------------------------------|----------|
G-----------------------------------------------|-11-11-11-|
D--4--4--4-4--4--4--2-2---4--4--4-4--4--4--2-2--|-11-11-11-|
A--4--4--4-4--4--4--2-2---4--4--4-4--4--4--2-2--|--9--9--9-|
E--2--2--2-2--2--2--0-0---2--2--2-2--2--2--0-0--|----------|


Intro
Verse
Fill
Vese
Chorus
Riff
Verse
Fill
Verse
Chorus
Bridge
Verse
Fill
Verse
Chorus

Tabbed by Unregistered.
__________________________________________________________________

9. Black Ball

regular tuning

1: intro and rhythm section

E|--------------------------------|------------------------------------|
B|--------------------------------|-----------2g/3\2------------2g/3\2-|
G|---------------5-5-5--2---------|-4-4-4-4-4-2g/3\2--4-4-4-4-4-2g/3\2-|
D|-2-2-2--5-5-5--3-3-3--2---------|-4-4-4-4-4-1g/2\1--4-4-4-4-4-1g/2\1-|
A|-2-2-2--5-5-5--3-3-3--0---------|-2-2-2-2-2---------2-2-2-2-2--------|
E|-0-0-0--3-3-3-------------------|------------------------------------|

2: chorus ("Win the battle lose the war...")

E|----------------------------------------------------------------------|
B|-----------------5-5-5-5-5-5-5-5-----------------7--------------------|
G|-6-6-6-6-6-6-6-6-4-4-4-4-4-4-4-4-4-4-4-4-4-4-4-4-6--------------------|
D|-6-6-6-6-6-6-6-6-2-2-2-2-2-2-2-2-4-4-4-4-4-4-4-4-4--------------------|
A|-4-4-4-4-4-4-4-4-----------------2-2-2-2-2-2-2-2----------------------|
E|----------------------------------------------------------------------|

chorus part 2 ("I don't want this anymore...")

E|----------------------------------------------------------------------|
B|-----------------5-5-5-5-5-5-5-5--------------------------------------|
G|-6-6-6-6-6-6-6-6-4-4-4-4-4-4-4-4-4-4-4-4-4-4-4-4----------------------|
D|-6-6-6-6-6-6-6-6-2-2-2-2-2-2-2-2-4-4-4-4-4-4-4-4-4--------------------|
A|-4-4-4-4-4-4-4-4-----------------2-2-2-2-2-2-2-2-4--------------------|
E|-------------------------------------------------2--------------------|

3: guitar solo (played by guitar 1 with accompanying
   chords from guitar 2)

                       E5             F5            E5
E|----------------------------------------------------------------------|
B|----------------------------------------------------------------------|
G|----------------------------------------------------------------------|
D|-2-2h3-2--2h3--2p0--2h3-5-3-2p0-2h3-2p0-------------------------------|
A|----------------------------------------3p2-3h5-3p2-0-----------------|
E|----------------------------------------------------------------------|

      Eb5                    E5
E|----------------------------------------------------------------------|
B|----------------------------------------5-----------------------------|
G|----------------------------------------4-----------------------------|
D|----------------------------------------2-----------------------------|
A|-0h2-3p2-0----0h2-0---------------------------------------------------|
E|-----------t3-------t3-2p0-2h3-5p3-2-1-0------------------------------|

4: interlude part 1 (play 3x)

E|----------------------------------------------------------------------|
B|-8-8-8-8-8-8-8-8-6-6-6-6-6-6-6-6-5-5-5-5-5-5-5/6-5-5-5-5-5-5-5/6------|
G|-7-7-7-7-7-7-7-7-5-5-5-5-5-5-5-5-4-4-4-4-4-4-4/5-4-4-4-4-4-4-4/5------|
D|-5-5-5-5-5-5-5-5-3-3-3-3-3-3-3-3-2-2-2-2-2-2-2/3-2-2-2-2-2-2-2/3------|
A|----------------------------------------------------------------------|
E|----------------------------------------------------------------------|
	*note: on third time, stop... ^  here! and go into interlude part 2
                                   /|\
                                    |

5: Interlude part 2

E|----------------------------------------------------------------------|
B|-5---5g/6---5---5g/6---5---5g/6---5---5g/6----------------------------|
G|-4---4g/5---4---4g/5---4---4g/5---4---4g/5----------------------------|
D|-2---2g/3---2---2g/3---2---2g/3---2---2g/3----------------------------|
A|----------------------------------------------------------------------|
E|----------------------------------------------------------------------|

6: Interlude part 3 ("In the style of forgotten men...")

E|----------------------------------------------------------------------|
B|-8-8-8-8---------6-6-6-6---------5---5g/6---5---5g/6------------------|
G|-7-7-7-7-7-7-7-7-5-5-5-5-5-5-5-5-4---4g/5---4---4g/5------------------|
D|-5-5-5-5-7-7-7-7-3-3-3-3-5-5-5-5-2---2g/3---2---2g/3------------------|
A|---------5-5-5-5---------3-3-3-3--------------------------------------|
E|----------------------------------------------------------------------|


Lyrics:

In this world of hate and shallowness
Where enemies become your consolation
And those of us who win the game give up our minds
I don't call that winning
Say this doesn't apply to you
But ask yourself first
What have I done today to win the game
And just what have I sacrificed

Win the battle lose the war
I know I've played this game before
When people were still real
I don't want this anymore
It's time for me to close the door
There's nothing left to feel

Reflect on all our yesterdays
My own words choke me
Why were they spoken
Regret for the things I've said and done
Just can't compare with
Regret for those that I have never tried
So blame this world or blame yourself
It's really all the same
When you are standing on the precipice
>From which you just can't return

Win the battle lose the war
I know I've played this game before
When people were still real
I don't want this anymore
It's time for me to close the door
There's nothing left to feel



In the style of forgotten men
I look to my horizon
I see nothing
While thoughts of guns and desecration
Sweep through my mind
But only coffins and bones remain
As I look to you
The emptiness behind your eyes
Seals my decision
Can't carry on in this world of juggling
Where all this thoughtlessness and bludgeoning
Your key to success
What kind of tradition to carry on

Blackball The new disease
Blackball The new disease
Blackball Your evil ways
Have found their way inside me

Blackball The new disease
Blackball The new disease
Blackball For a better life
In this high tech dog eat dog existence

(Chorus)

Tabbed by Unregistered.
____________________________________________________________

10. I'll Be Waiting

Standard Tuning (E A D G B E)

Lead Intro (Mild Distortion)

KEY:
/ -- Slide
h -- Hammer On
p -- Pull Off
~ -- Vibrato
) -- Bend

E|-----------------------------------------------15h17~-17p15-------|
B|-----------------------------------------14h17--------------15-18-|
G|-14/12-----------------------------14h16--------------------------|
D|-------15-12-----12-17p15-12h15/17--------------------------------|
A|-------------15---------------------------------------------------|
E|------------------------------------------------------------------|


E|-----)-----)-----)------------------------------------------------|
B|-13/15-13/15-13/15-15p13------------------------------------------|
G|-------------------------14p12------------------------------------|
D|-------------------------------14p12--------------------------12~-|
A|-------------------------------------12----------------12h15------|
E|----------------------------------------15----12h14h15------------|

Verse

           D                  F(hi)             C                G
E|-----------------------------------------------------------------------|
B|-----------------------------------------------------------------------|
G|--------7-7-7-7-7-10-10-10-10-10-10-10-10-10-10------------------------|
D|--7-7-7-7-7-7-7-7-10-10-10-10-10-10-10-10-10-10-10-10-10-5-5-5-5-5-5-5-|
A|--5-5-5-5-5-5-5-5--8--8--8--8--8--8--8-10-10-10-10-10-10-5-5-5-5-5-5-5-|
E|----------------------------------------8--8--8--8--8--8-3-3-3-3-3-3-3-|
  ..Once I had a friend that I could count on times of need are not enou

During the spoken word, strum A -> |---|  and finish it with A# -> |---|
                                   |-2-|                           |-3-|
                                   |-2-|                           |-3-|
                                   |-2-|                           |-3-|
                                   |-0-|                           |-1-|
                                   |---|                           |---|
Chorus
             F(hi)                C                D          A      A#
E|-----------------------------------------------------------------------|
B|-----------------------------------------------------------------------|
G|-10-10-10-10-10-10-10-10-10-10-------------7-7-7-7-7-7-7---------------|
D|-10-10-10-10-10-10-10-10-10-10-10-10-10-10-7-7-7-7-7-7-7-7-7-7-7-7/8-8-|
A|--8--8--8--8--8--8--8-10-10-10-10-10-10-10-5-5-5-5-5-5-5-7-7-7-7-7/8-8-|
E|-----------------------8--8--8--8--8--8--8---------------5-5-5-5-5/6-6-|

Halfway through chorus, play this little fill.

E|--------------------------------------|
B|-14p12-14p12-14p12-14p12-14p12--------|
G|-------------------------------12h15~-|
D|--------------------------------------|
A|--------------------------------------|
E|--------------------------------------|

Then this at the end of the chorus

E|--)--)--)--)--)-------------12h13~~~~-|
B|-13-13-13-13-13-13-13p12-12-----------|
G|--------------------------------------|
D|--------------------------------------|
A|--------------------------------------|
E|--------------------------------------|

The Bassline Bridge is something like.

G|-----------------------|
D|-----------------------|
A|---0-0---0-0---0-0-----|
E|-3-----3-----3-----3-0-|

And for the solo, improvise something on this scale and it should sound
ok.

|----------------------------------15-17-|
|----------------------13-15-16-17-------|
|----------------12-14-------------------|
|-------12-13-14-------------------------|
|-12-15----------------------------------|
|----------------------------------------|

________________________________________________________________________

11. Kill the President

Intro 1
e----------------------------------------------------------|
B----------------------------------------------------------|
G--14--15--14--12--9--11--12-12--11--9---------------------|
D---x---x---x---x--x---x---x--x---x--x---------------------|
A--12--13--12--10--7---9--10-10---9--7---------------------|
E----------------------------------------------------------|

Intro 2
e----------------------------------------------------------|
B----------------------------------------------------------|
G--14--15--14--12--9--11--12-12--11--9---------------------|
D--14--15--14--12--9--11--12-12--11--9---------------------|
A--12--13--12--10--7---9--10-10---9--7---------------------|
E----------------------------------------------------------|

Chorus
e----------------------------------------------------------|
B----------------------------------------------------------|
G--7/9--9-9-9-9-9-9--10-10-10-10--7-7-7-7---5-5-5-5--------|
D--7/9--9-9-9-9-9-9--10-10-10-10--7-7-7-7---5-5-5-5--------|
A--5/7--7-7-7-7-7-7---8--8--8--8--5-5-5-5---3-3-3-3--------|
E----------------------------------------------------------|
("In a world without leaders...")

(continued)
e----------------------------------------------------------|
B----------------------------------------------------------|
G--2-2-2-2--1-1-1-1-1-1-1-1--------------------------------|
D--2-2-2-2--2-2-2-2-2-2-2-2--------------------------------|
A--0-0-0-0--2-2-2-2-2-2-2-2--------------------------------|
E-----------0-0-0-0-0-0-0-0--------------------------------|

Verse
e----------------------------------------------------------|
B----------------------------------------------------------|
G--9\-----15--12--14--10--12--10---------------------------|
D--9\-----15--12--14--10--12--10---------------------------|
A--7\-----13--10--12---8--10---8---------------------------|
E----------------------------------------------------------|

Solo A (Guitar 1)
e----------------------------------------------------------|
B----------------------------------------------------------|
G-------------------3-3-3-3--------------------------------|
D--2-2-2-2-2-2-2-2--3-3-3-3--5-5-5-5-----------------------|
A--2-2-2-2-2-2-2-2--1-1-1-1--5-5-5-5-----------------------|
E--0-0-0-0-0-0-0-0-----------3-3-3-3-----------------------|

Solo B (Guitar 2)
e--15p14p12-----15p14p12-----15p14p12----------------------|
B-----------12-----------12-----------12--11^---10p8h10p8^-|
G----------------------------------------------------------|
D----------------------------------------------------------|
A----------------------------------------------------------|
E----------------------------------------------------------|

(continued)
e------------------------------------------12h14h15--19^---|
B------------------------------10-------12-----------------|
G----------9h12-12---9--12---9----12^----------------------|
D--8--7h8---------------12---------------------------------|
A----------------------------------------------------------|
E----------------------------------------------------------|

(continued)
e--17--15--17--19--17p15--13^--13p12p10--------------------|
B---------------------------------------12-10--------10^---|
G---------------------------------------------12-9----9^---|
D----------------------------------------------------------|
A----------------------------------------------------------|
E----------------------------------------------------------|

(continued)
e----------------------------------------------------------|
B-------10-8----10--11^--10p8------------------------------|
G--7---------9----------------h9---------------------------|
D----9-----------------------------------------------------|
A----------------------------------------------------------|
E----------------------------------------------------------|

Riff A (Guitar 1)
e----------------------------------------------------------|
B----------------------------------------------------------|
G--9---9---9---9---9-9---9-9---9-9---9-9-9-9-9-------------|
D--9---9---9---9---9-9---9-9---9-9---9-9-9-9-9-------------|
A--7---7---7---7---7-7---7-7---7-7---7-7-7-7-7-------------|
E----------------------------------------------------------|

Riff B (Guitar 2)
e--12^---12^---12^---12^---12-12---12-12---12-12--12-12-12-|
B--12^---12^---12^---12^---12-12---12-12---12-12--12-12-12-|
G----------------------------------------------------------|
D----------------------------------------------------------|
A----------------------------------------------------------|
E----------------------------------------------------------|

Bridge A (Guitar 1)
e----------------------------------------------------------|
B----------------------------------------------------------|
G--9-----------------9-------------------------------------|
D--x---8---10---7----x---8---10---7------------------------|
A--7---x----x---x----7---x----x---x------------------------|
E------6----8---5--------6----8---5------------------------|

Bridge B (Guitar 2)
e----------------------------------------------------------|
B--11^--10^--8^--------------------------11^--10^--8^------|
G----------------------------------------------------------|
D----------------------------------------------------------|
A----------------------------------------------------------|
E----------------------------------------------------------|

Outro A (Guitar 1)
e----------------------------------------------------------|
B----------------------------------------------------------|
G----------------------------------------------------------|
D--7----7----7---------7----7----7-------------------------|
A--7----7----7---------7----7----7-------------------------|
E--5----5----5---------5----5----5-------------------------|

Outro B (Guitar 2)
e----------------------------------------------------------|
B----------------------------------------------------------|
G--9^----9^----9^-------9^----9^----9^---------------------|
D----------------------------------------------------------|
A----------------------------------------------------------|
E----------------------------------------------------------|


Intro 1
Intro 2
Chorus
Verse
Chorus
Solo A, B
Riff A, B
Verse
Bridge A
Bridge A, B
Outro A, B
Verse

Tabbed by kcsk8r.
____________________________________________________________________

Copyright 2005.
comments
print report bad tab
7 comments total. Showing first comments.
0 reply
Alien_from_a_cd wrote on June 1 2005, 12:00 am

Man...you had the time...to go look up all the tabs :P
Nice job though.

0 reply
Andrew Zara wrote on June 1 2005, 12:00 am

Are you sure you didn't copy some of these tabs?

0 reply
feesk8ordie wrote on June 2 2005, 12:00 am

i did, but i credited those who did tab them.

I want to post or [tab]
guest
You may want to rate the tab now too:
select rating
Please do not post tabs as comments. Select "correction" instead!