Oops, an error
Loading. Please wait.

Passage To Pandemonium Tab

ver2
ver2

Whole song

Interactive

More versions @911Tabs.com
58 views 1 this week
no commentswrite comment
1 2 3 4 5
excellent!
x 4
Autoscroll
+/-
esc
set tempo
stop
Contributor
Hey! There's an official Ultimate Guitar app which is ideal
for learning songs when you're away from computer. Get the app
WARNING: You are trying to view
                                    content from Ultimate-Guitar.com
                                    in an unauthorized application,
                                    which is prohibited.

                                    Please use an official Ultimate
                                    Guitar Tabs application for iPhone,
                                    iPad or Android to access legitimate
                                    chords, guitar, bass, and drum tabs
                                    from Ultimate-Guitar.com database.

                                    Type "ultimate guitar tabs" in Apple
                                    App Store's or Android Market's
                                    search to find the application.
OLD MAN'S CHILD

PASSAGE TO PANDEMONIUM


E-A-D-G-B-E


TABBED BY andherembrace







1
----------------------------------------------------------|
----------------------------------------------------------|
-2-----1-----2-----1-----2-----1------2-----1---5-----4---|
---3-0---------3-0---------3-0----------3-0-------6-3-----|
----------------------------------------------------------|
----------------------------------------------------------|
   * *         * *         * *          * *       * *

2
-----------------------------------------------------------|
-----------------------------------------------------------|
-----------------------------------------------------------|
7-7-7-6-----7-7-7-6-----7-7-7-6------7-7-7-6---10-10-10-9--|
7-7-7-6-----7-7-7-6-----7-7-7-6------7-7-7-6---10-10-10-9--|
5-5-5-4-----5-5-5-4-----5-5-5-4------5-5-5-4----8--8--8-7--|




0:09


1
--------------------------------------------------|
--------------------------------------------------|
-----2-----1-----5-----4-----0-----1-----4-----3--|
---3-----2-----7-----5-----1-----2-----5-----4----|
-5-----4-----8-----7-----3-----4-----7-----6------|
--------------------------------------------------|
 * *  *  *   * *  *  *   * *   * *   * *   * *
2
--------------------------------------------------|
--------------------------------------------------|
--------------------------------------------------|
-7-----6----10----9------5-----6-----9-----8------|
-5-----4-----8----7------3-----4-----7-----6------|
--------------------------------------------------|



1
--------------------------------------------------|
--------------------------------------------------|
-----2-----1-----5-----4-----0-----1-----4-----3--|
---3-----2-----7-----5-----1-----2-----5-----4----|
-5-----4-----8-----7-----3-----4-----7-----6------|
--------------------------------------------------|
 * *  *  *   * *  *  *   * *   * *   * *   * *
2
--------------------------------------------------|
--------------------------------------------------|
--------------------------------------------------|
-7-----6----10----9------5-----6-----9-----8------|
-5-----4-----8----7------3-----4-----7-----6------|
--------------------------------------------------|



1
--------------------------------------------------|
--------------------------------------------------|
-----2-----1-----5-----4-----0-----1-----4-----3--|
---3-----2-----7-----5-----1-----2-----5-----4----|
-5-----4-----8-----7-----3-----4-----7-----6------|
--------------------------------------------------|
 * *  *  *   * *  *  *   * *   * *   * *   * *
2
--------------------------------------------------|
--------------------------------------------------|
--------------------------------------------------|
-7-----6----10----9------5-----6-----9-----8------|
-5-----4-----8----7------3-----4-----7-----6------|
--------------------------------------------------|



1
--------------------------------------------------|
--------------------------------------------------|
-----2-----1-----5-----4-----0-----1-----4-----3--|
---3-----2-----7-----5-----1-----2-----5-----4----|
-5-----4-----8-----7-----3-----4-----7-----6------|
--------------------------------------------------|
 * *  *  *   * *  *  *   * *   * *   * *   * *
2
--------------------------------------------------|
--------------------------------------------------|
--------------------------------------------------|
-7-----6----10----9------5-----6-----9-----8------|
-5-----4-----8----7------3-----4-----7-----6------|
--------------------------------------------------|






0:23

B
------------------------------------------------------------|
------------------------------------------------------------|
------------------------------------------------------------|
-9---------------8--8-9---------------8--8-9----------------|
-7\--------------6--6-7\--------------6--6-7\---------------|
----000000000000---------000000000000----------000000000000-|
    ************         ************          ************

-----------------------------------|
-----------------------------------|
-----------------------------------|
-8--8-4-4444-5-5555-8-8888-7-7777--|
-6--6-2-2222-3-3333-6-6666-5-5555--|
-----------------------------------|
        ****   ****   ****   ****


------------------------------------------------------------|
------------------------------------------------------------|
------------------------------------------------------------|
-9---------------8--8-9---------------8--8-9----------------|
-7\--------------6--6-7\--------------6--6-7\---------------|
----000000000000---------000000000000----------000000000000-|
    ************         ************          ************

-----------------------------------|
-----------------------------------|
-----------------------------------|
-8--8-4-4444-5-5555-8-8888-7-7777--|
-6--6-2-2222-3-3333-6-6666-5-5555--|
-----------------------------------|
        ****   ****   ****   ****


------------------------------------------------------------|
------------------------------------------------------------|
------------------------------------------------------------|
-9---------------8--8-9---------------8--8-9----------------|
-7\--------------6--6-7\--------------6--6-7\---------------|
----000000000000---------000000000000----------000000000000-|
    ************         ************          ************

-----------------------------------|
-----------------------------------|
-----------------------------------|
-8--8-4-4444-5-5555-8-8888-7-7777--|
-6--6-2-2222-3-3333-6-6666-5-5555--|
-----------------------------------|
        ****   ****   ****   ****


------------------------------------------------------------|
------------------------------------------------------------|
------------------------------------------------------------|
-9---------------8--8-9---------------8--8-9----------------|
-7\--------------6--6-7\--------------6--6-7\---------------|
----000000000000---------000000000000----------000000000000-|
    ************         ************          ************

-----------------------------------|
-----------------------------------|
-----------------------------------|
-8--8-4-4444-5-5555-8-8888-7-7777--|
-6--6-2-2222-3-3333-6-6666-5-5555--|
-----------------------------------|
        ****   ****   ****   ****






0:51


1
---------------------------------------------------|
---------------------------------------------------|
------------------------------------4-4-2-0--------|
-------2---4-------4---5-------5------------4-2-1--|
---------------------------------------------------|
-0-0-0---0---0-0-0---0---0-0-0---0-----------------|
 * * *   *   * * *   *   * * *   *
2
---------------------------------------------------|
---------------------------------------------------|
---------------------------------------------------|
-------2---4-------4---5-------5----4-4-2-0--------|
--------------------------------------------3-2-0--|
-0-0-0---0---0-0-0---0---0-0-0---0-----------------|
 * * *   *   * * *   *   * * *   *


1
---------------------------------------------------|
---------------------------------------------------|
------------------------------------4-4-2-0-PH-----|
-------2---4-------4---5-------5------------4~-----|
---------------------------------------------------|
-0-0-0---0---0-0-0---0---0-0-0---0-----------------|
 * * *   *   * * *   *   * * *   *
2
---------------------------------------------------|
---------------------------------------------------|
---------------------------------------------------|
-------2---4-------4---5-------5----4-4-2-0-PH-----|
--------------------------------------------3~-----|
-0-0-0---0---0-0-0---0---0-0-0---0-----------------|
 * * *   *   * * *   *   * * *   *




1
---------------------------------------------------|
---------------------------------------------------|
------------------------------------4-4-2-0--------|
-------2---4-------4---5-------5------------4-2-1--|
---------------------------------------------------|
-0-0-0---0---0-0-0---0---0-0-0---0-----------------|
 * * *   *   * * *   *   * * *   *
2
---------------------------------------------------|
---------------------------------------------------|
---------------------------------------------------|
-------2---4-------4---5-------5----4-4-2-0--------|
--------------------------------------------3-2-0--|
-0-0-0---0---0-0-0---0---0-0-0---0-----------------|
 * * *   *   * * *   *   * * *   *


1
---------------------------------------------------|
---------------------------------------------------|
------------------------------------4-4-2-0--------|
-------2---4-------4---5-------5------------1~-----|
---------------------------------------------------|
-0-0-0---0---0-0-0---0---0-0-0---0-----------------|
 * * *   *   * * *   *   * * *   *
2
---------------------------------------------------|
---------------------------------------------------|
---------------------------------------------------|
-------2---4-------4---5-------5----4-4-2-0-PH-----|
--------------------------------------------3~-----|
-0-0-0---0---0-0-0---0---0-0-0---0-----------------|
 * * *   *   * * *   *   * * *   *



1
---------------------------------------------------|
---------------------------------------------------|
------------------------------------4-4-2-0--------|
-------2---4-------4---5-------5------------4-2-1--|
---------------------------------------------------|
-0-0-0---0---0-0-0---0---0-0-0---0-----------------|
 * * *   *   * * *   *   * * *   *
2
---------------------------------------------------|
---------------------------------------------------|
---------------------------------------------------|
-------2---4-------4---5-------5----4-4-2-0--------|
--------------------------------------------3-2-0--|
-0-0-0---0---0-0-0---0---0-0-0---0-----------------|
 * * *   *   * * *   *   * * *   *


1
---------------------------------------------------|
---------------------------------------------------|
------------------------------------4-4-2-0-PH-----|
-------2---4-------4---5-------5------------4~-----|
---------------------------------------------------|
-0-0-0---0---0-0-0---0---0-0-0---0-----------------|
 * * *   *   * * *   *   * * *   *
2
---------------------------------------------------|
---------------------------------------------------|
---------------------------------------------------|
-------2---4-------4---5-------5----4-4-2-0-PH-----|
--------------------------------------------3~-----|
-0-0-0---0---0-0-0---0---0-0-0---0-----------------|
 * * *   *   * * *   *   * * *   *



1
---------------------------------------------------|
---------------------------------------------------|
------------------------------------4-4-2-0--------|
-------2---4-------4---5-------5------------4-2-1--|
---------------------------------------------------|
-0-0-0---0---0-0-0---0---0-0-0---0-----------------|
 * * *   *   * * *   *   * * *   *
2
---------------------------------------------------|
---------------------------------------------------|
---------------------------------------------------|
-------2---4-------4---5-------5----4-4-2-0--------|
--------------------------------------------3-2-0--|
-0-0-0---0---0-0-0---0---0-0-0---0-----------------|
 * * *   *   * * *   *   * * *   *


1
---------------------------------------------------|
---------------------------------------------------|
------------------------------------4-4-2-0--------|
-------2---4-------4---5-------5------------1~-----|
---------------------------------------------------|
-0-0-0---0---0-0-0---0---0-0-0---0-----------------|
 * * *   *   * * *   *   * * *   *
2
---------------------------------------------------|
---------------------------------------------------|
---------------------------------------------------|
-------2---4-------4---5-------5----4-4-2-0-PH-----|
--------------------------------------------3~-----|
-0-0-0---0---0-0-0---0---0-0-0---0-----------------|
 * * *   *   * * *   *   * * *   *






1:19


1
---------------------------------------------------------|
---------_-------------_-------------_-------------_-----|
--------/ \-----------/ \-----------/ \-----------/ \----|
-----2-4-5-4-2-----2-4-5-4-2-----2-4-5-4-2-----2-4-5-4-1-|
---2-------------2-------------3-------------3-----------|
-0-------------0-------------0-------------0-------------|

2
---------------------------------------------------------|
---------------------------------------------------------|
---------------------------------------------------------|
-2-------------2-------------5-------------5------8------|
-2-------------2-------------3-------------3------6------|
-0-------------0-------------3-------------3------6------|


1
---------------------------------------------------------|
---------_-------------_-------------_-------------_-----|
--------/ \-----------/ \-----------/ \-----------/ \----|
-----2-4-5-4-2-----2-4-5-4-2-----2-4-5-4-2-----2-4-5-4-1-|
---2-------------2-------------3-------------3-----------|
-0-------------0-------------0-------------0-------------|

2
---------------------------------------------------------|
---------------------------------------------------------|
---------------------------------------------------------|
-2-------------2-------------5-------------5------8------|
-2-------------2-------------3-------------3------6------|
-0-------------0-------------3-------------3------6------|


1
---------------------------------------------------------|
---------_-------------_-------------_-------------_-----|
--------/ \-----------/ \-----------/ \-----------/ \----|
-----2-4-5-4-2-----2-4-5-4-2-----2-4-5-4-2-----2-4-5-4-1-|
---2-------------2-------------3-------------3-----------|
-0-------------0-------------0-------------0-------------|

2
---------------------------------------------------------|
---------------------------------------------------------|
---------------------------------------------------------|
-2-------------2-------------5-------------5------8------|
-2-------------2-------------3-------------3------6------|
-0-------------0-------------3-------------3------6------|


1
---------------------------------------------------------|
---------_-------------_-------------_-------------_-----|
--------/ \-----------/ \-----------/ \-----------/ \----|
-----2-4-5-4-2-----2-4-5-4-2-----2-4-5-4-2-----2-4-5-4-1-|
---2-------------2-------------3-------------3-----------|
-0-------------0-------------0-------------0-------------|

2
---------------------------------------------------------|
---------------------------------------------------------|
---------------------------------------------------------|
-2-------------2-------------5-------------5------8------|
-2-------------2-------------3-------------3------6------|
-0-------------0-------------3-------------3------6------|







1:32

1
-----------------------|
-----------------------|
-----------------------|
---------------8-8-8---|
---------------6-6-6---|
-000000000000----------|
 ************
2
-------------------------------|
-------------------------------|
-------------------------------|
-----------------------8-8-8---|
-2---------------------6-6-6---|
-0-----------------------------|
  |



B
------------------------------------------------------------|
------------------------------------------------------------|
------------------------------------------------------------|
-9---------------8--8-9---------------8--8-9----------------|
-7\--------------6--6-7\--------------6--6-7\---------------|
----000000000000---------000000000000----------000000000000-|
    ************         ************          ************

-----------------------------------|
-----------------------------------|
-----------------------------------|
-8--8-4-4444-5-5555-8-8888-7-7777--|
-6--6-2-2222-3-3333-6-6666-5-5555--|
-----------------------------------|
        ****   ****   ****   ****


------------------------------------------------------------|
------------------------------------------------------------|
------------------------------------------------------------|
-9---------------8--8-9---------------8--8-9----------------|
-7\--------------6--6-7\--------------6--6-7\---------------|
----000000000000---------000000000000----------000000000000-|
    ************         ************          ************

-----------------------------------|
-----------------------------------|
-----------------------------------|
-8--8-4-4444-5-5555-8-8888-7-7777--|
-6--6-2-2222-3-3333-6-6666-5-5555--|
-----------------------------------|
        ****   ****   ****   ****




------------------------------------------------------------|
------------------------------------------------------------|
------------------------------------------------------------|
-9---------------8--8-9---------------8--8-9----------------|
-7\--------------6--6-7\--------------6--6-7\---------------|
----000000000000---------000000000000----------000000000000-|
    ************         ************          ************

-----------------------------------|
-----------------------------------|
-----------------------------------|
-8--8-4-4444-5-5555-8-8888-7-7777--|
-6--6-2-2222-3-3333-6-6666-5-5555--|
-----------------------------------|
        ****   ****   ****   ****


------------------------------------------------------------|
------------------------------------------------------------|
------------------------------------------------------------|
-9---------------8--8-9---------------8--8-9----------------|
-7\--------------6--6-7\--------------6--6-7\---------------|
----000000000000---------000000000000----------000000000000-|
    ************         ************          ************

-----------------------------------|
-----------------------------------|
-----------------------------------|
-8--8-4-4444-5-5555-8-8888-7-7777--|
-6--6-2-2222-3-3333-6-6666-5-5555--|
-----------------------------------|
        ****   ****   ****   ****






2:00


B
-------------------------------------------------------------|
-------------------------------------------------------------|
-------------------------------------------------------------|
-------------------------------------------------------------|
--8----5--7--4----------------8----5--7--4-------------------|
--6----3--5--2--2-3-5-6-5-3/5-6----3--5--2--222-222-222-22---|
     |  |  |                     |  |  |    *** *** *** **

-------------------------------------------------------------|
-------------------------------------------------------------|
-------------------------------------------------------------|
-------------------------------------------------------------|
--8----5--7--4----------------8----5--7--4-------------------|
--6----3--5--2--2-3-5-6-5-3/5-6----3--5--2--222-222-222-22---|
     |  |  |                     |  |  |    *** *** *** **

-------------------------------------------------------------|
-------------------------------------------------------------|
-------------------------------------------------------------|
-------------------------------------------------------------|
--8----5--7--4----------------8----5--7--4-------------------|
--6----3--5--2--2-3-5-6-5-3/5-6----3--5--2--222-222-222-22---|
     |  |  |                     |  |  |    *** *** *** **

-------------------------------------------------------------|
-------------------------------------------------------------|
-------------------------------------------------------------|
-------------------------------------------------------------|
--8----5--7--4----------------8----5--7--4-------------------|
--6----3--5--2--2-3-5-6-5-3/5-6----3--5--2--222-222-222-22---|
     |  |  |                     |  |  |    *** *** *** **





2:18


--------------------------------------------------------------|
--------------------------------------------------------------|
-------------_---------------_---------------_----------------|
------------/ \-------------/ \-------------/ \---7-----------|
-2-2-2-2-2-2-3-0-2-2-2-2-2-2-3-0-2-2-2-2-2-2-3-0--7-----------|
-2-2-2-2-2-2-3-0-2-2-2-2-2-2-3-0-2-2-2-2-2-2-3-0--5-----------|
 * *   * *       * *   * *       * *   * *

--------------------------------------------------------------|
--------------------------------------------------------------|
-------------_---------------_---------------_----------------|
------------/ \-------------/ \-------------/ \---7-----------|
-2-2-2-2-2-2-3-0-2-2-2-2-2-2-3-0-2-2-2-2-2-2-3-0--7--------5--|
-2-2-2-2-2-2-3-0-2-2-2-2-2-2-3-0-2-2-2-2-2-2-3-0--5--------3--|
 * *   * *       * *   * *       * *   * *



--------------------------------------------------------------|
--------------------------------------------------------------|
-------------_---------------_---------------_----------------|
------------/ \-------------/ \-------------/ \---7-----------|
-2-2-2-2-2-2-3-0-2-2-2-2-2-2-3-0-2-2-2-2-2-2-3-0--7-----------|
-2-2-2-2-2-2-3-0-2-2-2-2-2-2-3-0-2-2-2-2-2-2-3-0--5-----------|
 * *   * *       * *   * *       * *   * *

--------------------------------------------------------------|
--------------------------------------------------------------|
-------------_---------------_---------------_----------------|
------------/ \-------------/ \-------------/ \---7-----------|
-2-2-2-2-2-2-3-0-2-2-2-2-2-2-3-0-2-2-2-2-2-2-3-0--7--------5--|
-2-2-2-2-2-2-3-0-2-2-2-2-2-2-3-0-2-2-2-2-2-2-3-0--5--------3--|
 * *   * *       * *   * *       * *   * *





2:37


1
         _             _             _             _
--------/ \-----------/ \-----------/ \-----------/ \-------|
-------2-3-2---------3-4-3---------2-3-2---------1-2-1------|
-----4-------4-----4-------5-----4-------4-----3-------3----|
---4-------------4-------------4-------------3--------------|
-2-------------2-------------2-------------1----------------|
------------------------------------------------------------|
 * * *         * * *         * * *         * * *
2
------------------------------------------------------------|
------------------------------------------------------------|
------------------------------------------------------------|
-4--------------------5----4--------------3-----------------|
-2--------------------3----2--------------1-----------------|
-2--------------------3----2--------------1-----------------|



1
         _             _             _             _
--------/ \-----------/ \-----------/ \-----------/ \-------|
-------2-3-2---------3-4-3---------2-3-2---------1-2-1------|
-----4-------4-----4-------5-----4-------4-----3-------3----|
---4-------------4-------------4-------------3--------------|
-2-------------2-------------2-------------1----------------|
------------------------------------------------------------|
 * * *         * * *         * * *         * * *
2
------------------------------------------------------------|
------------------------------------------------------------|
------------------------------------------------------------|
-4--------------------5----4--------------3---3-------------|
-2--------------------3----2--------------1-3-1-------------|
-2--------------------3----2--------------1-1-1-------------|



1
         _             _             _             _
--------/ \-----------/ \-----------/ \-----------/ \-------|
-------2-3-2---------3-4-3---------2-3-2---------1-2-1------|
-----4-------4-----4-------5-----4-------4-----3-------3----|
---4-------------4-------------4-------------3--------------|
-2-------------2-------------2-------------1----------------|
------------------------------------------------------------|
 * * *         * * *         * * *         * * *
2
------------------------------------------------------------|
------------------------------------------------------------|
------------------------------------------------------------|
-4--------------------5----4--------------3-----------------|
-2--------------------3----2--------------1-----------------|
-2--------------------3----2--------------1-----------------|


1
         _             _             _             _
--------/ \-----------/ \-----------/ \-----------/ \-------|
-------2-3-2---------3-4-3---------2-3-2---------6-7-6------|
-----4-------4-----4-------5-----4-------4-----8-------8----|
---4-------------4-------------4-------------8--------------|
-2-------------2-------------2-------------6----------------|
------------------------------------------------------------|
 * * *         * * *         * * *         * * *

2
------------------------------------------------------------|
------------------------------------------------------------|
------------------------------------------------------------|
-4--------------------5----4--------------8-----------------|
-2--------------------3----2--------------6-----------------|
-2--------------------3----2--------------6-----------------|







2:51

1
---------------------------------------------------------|
---------_-------------_-------------_-------------_-----|
--------/ \-----------/ \-----------/ \-----------/ \----|
-----2-4-5-4-2-----2-4-5-4-2-----2-4-5-4-2-----2-4-5-4-1-|
---2-------------2-------------3-------------3-----------|
-0-------------0-------------0-------------0-------------|

2
---------------------------------------------------------|
---------------------------------------------------------|
---------------------------------------------------------|
-2-------------2-------------5-------------5------8------|
-2-------------2-------------3-------------3------6------|
-0-------------0-------------3-------------3------6------|


1
---------------------------------------------------------|
---------_-------------_-------------_-------------_-----|
--------/ \-----------/ \-----------/ \-----------/ \----|
-----2-4-5-4-2-----2-4-5-4-2-----2-4-5-4-2-----2-4-5-4-1-|
---2-------------2-------------3-------------3-----------|
-0-------------0-------------0-------------0-------------|

2
---------------------------------------------------------|
---------------------------------------------------------|
---------------------------------------------------------|
-2-------------2-------------5-------------5------8------|
-2-------------2-------------3-------------3------6------|
-0-------------0-------------3-------------3------6------|


1
---------------------------------------------------------|
---------_-------------_-------------_-------------_-----|
--------/ \-----------/ \-----------/ \-----------/ \----|
-----2-4-5-4-2-----2-4-5-4-2-----2-4-5-4-2-----2-4-5-4-1-|
---2-------------2-------------3-------------3-----------|
-0-------------0-------------0-------------0-------------|

2
---------------------------------------------------------|
---------------------------------------------------------|
---------------------------------------------------------|
-2-------------2-------------5-------------5------8------|
-2-------------2-------------3-------------3------6------|
-0-------------0-------------3-------------3------6------|


1
---------------------------------------------------------|
---------_-------------_-------------_-------------_-----|
--------/ \-----------/ \-----------/ \-----------/ \----|
-----2-4-5-4-2-----2-4-5-4-2-----2-4-5-4-2-----2-4-5-4-1-|
---2-------------2-------------3-------------3-----------|
-0-------------0-------------0-------------0-------------|

2
---------------------------------------------------------|
---------------------------------------------------------|
---------------------------------------------------------|
-2-------------2-------------5-------------5------8------|
-2-------------2-------------3-------------3------6------|
-0-------------0-------------3-------------3------6------|





3:05


L/R PAN



1
         _             _             _             _
--------/ \-----------/ \-----------/ \-----------/ \-------|
-------2-3-2---------3-4-3---------2-3-2---------1-2-1------|
-----4-------4-----4-------5-----4-------4-----3-------3----|
---4-------------4-------------4-------------3--------------|
-2-------------2-------------2-------------1----------------|
------------------------------------------------------------|
 * * *         * * *         * * *         * * *
2
------------------------------------------------------------|
------------------------------------------------------------|
------------------------------------------------------------|
-4--------------------5----4--------------3-----------------|
-2--------------------3----2--------------1-----------------|
-2--------------------3----2--------------1-----------------|



1
         _             _             _             _
--------/ \-----------/ \-----------/ \-----------/ \-------|
-------2-3-2---------3-4-3---------2-3-2---------1-2-1------|
-----4-------4-----4-------5-----4-------4-----3-------3----|
---4-------------4-------------4-------------3--------------|
-2-------------2-------------2-------------1----------------|
------------------------------------------------------------|
 * * *         * * *         * * *         * * *
2
------------------------------------------------------------|
------------------------------------------------------------|
------------------------------------------------------------|
-4--------------------5----4--------------3---3-------------|
-2--------------------3----2--------------1-3-1-------------|
-2--------------------3----2--------------1-1-1-------------|



1
         _             _             _             _
--------/ \-----------/ \-----------/ \-----------/ \-------|
-------2-3-2---------3-4-3---------2-3-2---------1-2-1------|
-----4-------4-----4-------5-----4-------4-----3-------3----|
---4-------------4-------------4-------------3--------------|
-2-------------2-------------2-------------1----------------|
------------------------------------------------------------|
 * * *         * * *         * * *         * * *
2
------------------------------------------------------------|
------------------------------------------------------------|
------------------------------------------------------------|
-4--------------------5----4--------------3-----------------|
-2--------------------3----2--------------1-----------------|
-2--------------------3----2--------------1-----------------|


1
         _             _             _             _
--------/ \-----------/ \-----------/ \-----------/ \-------|
-------2-3-2---------3-4-3---------2-3-2---------6-7-6------|
-----4-------4-----4-------5-----4-------4-----8-------8----|
---4-------------4-------------4-------------8--------------|
-2-------------2-------------2-------------6----------------|
------------------------------------------------------------|
 * * *         * * *         * * *         * * *

2
------------------------------------------------------------|
------------------------------------------------------------|
------------------------------------------------------------|
-4--------------------5----4--------------8-----------------|
-2--------------------3----2--------------6-----------------|
-2--------------------3----2--------------6-----------------|







3:18


B
---------------------------------------------------------|
---------_-------------_-------------_-------------_-----|
--------/ \-----------/ \-----------/ \-----------/ \----|
-----2-4-5-4-2-----2-4-5-4-2-----2-4-5-4-2-----2-4-5-4-1-|
---2-------------2-------------3-------------3-----------|
-0-------------0-------------0-------------0-------------|
 * * *         * * *         * * *         * * *

---------------------------------------------------------|
---------_-------------_-------------_-------------_-----|
--------/ \-----------/ \-----------/ \-----------/ \----|
-----2-4-5-4-2-----2-4-5-4-2-----2-4-5-4-2-----2-4-5-4-1-|
---2-------------2-------------3-------------3-----------|
-0-------------0-------------0-------------0-------------|
 * * *         * * *         * * *         * * *

---------------------------------------------------------|
---------_-------------_-------------_-------------_-----|
--------/ \-----------/ \-----------/ \-----------/ \----|
-----2-4-5-4-2-----2-4-5-4-2-----2-4-5-4-2-----2-4-5-4-1-|
---2-------------2-------------3-------------3-----------|
-0-------------0-------------0-------------0-------------|
 * * *         * * *         * * *         * * *

---------------------------------------------------------|
---------_-------------_-------------_-------------_-----|
--------/ \-----------/ \-----------/ \-----------/ \----|
-----2-4-5-4-2-----2-4-5-4-2-----2-4-5-4-2-----2-4-5-4-1-|
---2-------------2-------------3-------------3-----------|
-0-------------0-------------0-------------0-------------|
 * * *         * * *         * * *         * * *






3:31


1
---------------------------------------------------|
---------------------------------------------------|
------------------------------------4-4-2-0--------|
-------2---4-------4---5-------5------------4-2-1--|
---------------------------------------------------|
-0-0-0---0---0-0-0---0---0-0-0---0-----------------|
 * * *   *   * * *   *   * * *   *
2
---------------------------------------------------|
---------------------------------------------------|
---------------------------------------------------|
-------2---4-------4---5-------5----4-4-2-0--------|
--------------------------------------------3-2-0--|
-0-0-0---0---0-0-0---0---0-0-0---0-----------------|
 * * *   *   * * *   *   * * *   *


1
---------------------------------------------------|
---------------------------------------------------|
------------------------------------4-4-2-0-PH-----|
-------2---4-------4---5-------5------------4~-----|
---------------------------------------------------|
-0-0-0---0---0-0-0---0---0-0-0---0-----------------|
 * * *   *   * * *   *   * * *   *
2
---------------------------------------------------|
---------------------------------------------------|
---------------------------------------------------|
-------2---4-------4---5-------5----4-4-2-0-PH-----|
--------------------------------------------3~-----|
-0-0-0---0---0-0-0---0---0-0-0---0-----------------|
 * * *   *   * * *   *   * * *   *




1
---------------------------------------------------|
---------------------------------------------------|
------------------------------------4-4-2-0--------|
-------2---4-------4---5-------5------------4-2-1--|
---------------------------------------------------|
-0-0-0---0---0-0-0---0---0-0-0---0-----------------|
 * * *   *   * * *   *   * * *   *
2
---------------------------------------------------|
---------------------------------------------------|
---------------------------------------------------|
-------2---4-------4---5-------5----4-4-2-0--------|
--------------------------------------------3-2-0--|
-0-0-0---0---0-0-0---0---0-0-0---0-----------------|
 * * *   *   * * *   *   * * *   *


1
---------------------------------------------------|
---------------------------------------------------|
------------------------------------4-4-2-0-PH-----|
-------2---4-------4---5-------5------------4~-----|
---------------------------------------------------|
-0-0-0---0---0-0-0---0---0-0-0---0-----------------|
 * * *   *   * * *   *   * * *   *
2
---------------------------------------------------|
---------------------------------------------------|
---------------------------------------------------|
-------2---4-------4---5-------5----4-4-2-0-PH-----|
--------------------------------------------3~-----|
-0-0-0---0---0-0-0---0---0-0-0---0-----------------|
 * * *   *   * * *   *   * * *   *





3:45


1
------------------------------------------------------|
------------------------------------------------------|
--------------------------------------9-9-7-----------|
-------7---9-------9---10-------10----------10-9-7-6--|
-0-0-0---0---0-0-0---0----0-0-0----0------------------|
------------------------------------------------------|
 * * *   *   * * *   *    * * *    *
2
-----------------------------------------------------|
-----------------------------------------------------|
-----------------------------------------------------|
-------7---9-------9---10-------10----9-9-7-6--------|
-0-0-0---0---0-0-0---0----0-0-0----0----------8-7-5--|
-----------------------------------------------------|
 * * *   *   * * *   *    * * *    *


1
------------------------------------------------------|
------------------------------------------------------|
--------------------------------------9-9-7-ph--------|
-------7---9-------9---10-------10----------10--------|
-0-0-0---0---0-0-0---0----0-0-0----0------------------|
------------------------------------------------------|
 * * *   *   * * *   *    * * *    *
2
-----------------------------------------------------|
-----------------------------------------------------|
-----------------------------------------------------|
-------7---9-------9---10-------10----9-9-7-6-PH-----|
-0-0-0---0---0-0-0---0----0-0-0----0----------8------|
-----------------------------------------------------|
 * * *   *   * * *   *    * * *    *



1
------------------------------------------------------|
------------------------------------------------------|
--------------------------------------9-9-7-----------|
-------7---9-------9---10-------10----------10-9-7-6--|
-0-0-0---0---0-0-0---0----0-0-0----0------------------|
------------------------------------------------------|
 * * *   *   * * *   *    * * *    *
2
-----------------------------------------------------|
-----------------------------------------------------|
-----------------------------------------------------|
-------7---9-------9---10-------10----9-9-7-6--------|
-0-0-0---0---0-0-0---0----0-0-0----0----------8-7-5--|
-----------------------------------------------------|
 * * *   *   * * *   *    * * *    *


1
------------------------------------------------------|
------------------------------------------------------|
--------------------------------------9-9-7-ph--------|
-------7---9-------9---10-------10----------10--------|
-0-0-0---0---0-0-0---0----0-0-0----0------------------|
------------------------------------------------------|
 * * *   *   * * *   *    * * *    *
2
-----------------------------------------------------|
-----------------------------------------------------|
-----------------------------------------------------|
-------7---9-------9---10-------10----9-9-7-6-PH-----|
-0-0-0---0---0-0-0---0----0-0-0----0----------8------|
-----------------------------------------------------|
 * * *   *   * * *   *    * * *    *





3:58


1
--------------------------------------------------|
--------------------------------------------------|
-----2-----1-----5-----4-----0-----1-----4-----3--|
---3-----2-----7-----5-----1-----2-----5-----4----|
-5-----4-----8-----7-----3-----4-----7-----6------|
--------------------------------------------------|
 * *  *  *   * *  *  *   * *   * *   * *   * *
2
--------------------------------------------------|
--------------------------------------------------|
--------------------------------------------------|
-7-----6----10----9------5-----6-----9-----8------|
-5-----4-----8----7------3-----4-----7-----6------|
--------------------------------------------------|


1
--------------------------------------------------|
--------------------------------------------------|
-----2-----1-----5-----4-----0-----1-----4-----3--|
---3-----2-----7-----5-----1-----2-----5-----4----|
-5-----4-----8-----7-----3-----4-----7-----6------|
--------------------------------------------------|
 * *  *  *   * *  *  *   * *   * *   * *   * *
2
--------------------------------------------------|
--------------------------------------------------|
--------------------------------------------------|
-7-----6----10----9------5-----6-----9-----8------|
-5-----4-----8----7------3-----4-----7-----6------|
--------------------------------------------------|


1
--------------------------------------------------|
--------------------------------------------------|
-----2-----1-----5-----4-----0-----1-----4-----3--|
---3-----2-----7-----5-----1-----2-----5-----4----|
-5-----4-----8-----7-----3-----4-----7-----6------|
--------------------------------------------------|
 * *  *  *   * *  *  *   * *   * *   * *   * *
2
--------------------------------------------------|
--------------------------------------------------|
--------------------------------------------------|
-7-----6----10----9------5-----6-----9-----8------|
-5-----4-----8----7------3-----4-----7-----6------|
--------------------------------------------------|


1
-----------------------------------------------------|
-----------------------------------------------------|
-----2-----1-----5-----4-----0-----1-----4-----3-----|
---3-----2-----7-----5-----1-----2-----5-----4-----9-|
-5-----4-----8-----7-----3-----4-----7-----6-------7-|
---------------------------------------------------7\|
 * *  *  *   * *  *  *   * *   * *   * *   * *
2
-----------------------------------------------------|
-----------------------------------------------------|
-----------------------------------------------------|
-7-----6----10----9------5-----6-----9-----8-------9-|
-5-----4-----8----7------3-----4-----7-----6-------7-|
---------------------------------------------------7\|
comments
print report bad tab
I want to post or [tab]
guest
You may want to rate the tab now too:
select rating
Please do not post tabs as comments. Select "correction" instead!