Oops, an error
Loading. Please wait.

Koi No Aibou Kokoro No Cupido Tab

ver1
ver1

Whole song

Interactive

More versions @911Tabs.com
11,376 views 9 this week
no commentswrite comment
1 2 3 4 5
accurate
x 1
Autoscroll
+/-
esc
set tempo
stop
Contributor
Difficulty
novice
Hey! There's an official Ultimate Guitar app which is ideal
for learning songs when you're away from computer. Get the app
WARNING: You are trying to view
                                    content from Ultimate-Guitar.com
                                    in an unauthorized application,
                                    which is prohibited.

                                    Please use an official Ultimate
                                    Guitar Tabs application for iPhone,
                                    iPad or Android to access legitimate
                                    chords, guitar, bass, and drum tabs
                                    from Ultimate-Guitar.com database.

                                    Type "ultimate guitar tabs" in Apple
                                    App Store's or Android Market's
                                    search to find the application.
This is a tab for Koi no Aibou Kokoro no Cupido, from One Ok Rock. I think it's
played like this. Listen well to the song if you want to play it. Have fun!

Intro 0:00
  Guitar I & II
E|--------------------------------------------------------|
B|o------------------------------------------------------o|
G|-8---------8----10-8--------8---------8----10-8---------|
D|-8-10-8-10-8-10-10-8-10-8-8-8-10-8-10-8-10-10-8-10-8-8--|
A|o--10-8-10---10------10-8-8---10-8-10---10------10-8-8-o|
E|--------------------------------------------------------|
Tip: Bar your 1st finger on the 8th frets and play the 10s with
your 3th and 4th finger


Main Riff 0:05
  Guitar I & II                                     1.     2.
E|---------------------------------------------------|------|---|
B|o--------------------------------------------------|-----o|---|
G|-8---------8----10-8--------8---------8----10-8----|------|---|
D|-8-10-8-10-8-10-10-8-10-8-8-8-10-8-10-8-10-10-8-10-|-8-8--|-8-|
A|o--10-8-10---10------10-8-8---10-8-10---10------10-|-8-8-o|-8-|
E|---------------------------------------------------|------|---|
Play part 1 first, and after repeating, play part 2 instead of 1.


Verse 0:15
  Guitar I
E|-8-8-----8-8-----8-8-----8-8-----8-8-----8-8-----8-8-----8-8-------------|
B|-----8-8-----8-8-----8-8-----8-8-----9-9-----9-9-----9-9-----9-9---------|
G|-------------------------------------------------------------------------|
D|-------------------------------------------------------------------------|
A|-------------------------------------------------------------------------|
E|-------------------------------------------------------------------------|
 |                                                                         |
 |Guitar II                                                                |
E|-------------------------------------------------------------------------|
B|-------------------------------------------------------------------------|
G|-------------------------------------------------------------------------|
D|-------------------------------------------------------------------------|
A|-------------------------------------------------------------------------|
E|-------------------------------------------------------------------------|


  Guitar I
E|-10-10-----10-10-----10-10-----10-10-----8-8-----8-8-----7-7-----7-7-----|
B|-------8-8-------8-8-------8-8-------8-8-----9-9-----9-9-----8-8-----8-8-|
G|-------------------------------------------------------------------------|
D|-------------------------------------------------------------------------|
A|-------------------------------------------------------------------------|
E|-------------------------------------------------------------------------|
 |                                                                         |
 |Guitar II                                                                |
E|-------------------------------------------------------------------------|
B|-------------------------------------------------------------------------|
G|-------------------------------------------------------------------------|
D|-------------------------------------------------------------------------|
A|-------------------------------------------------------------------------|
E|-------------------------------------------------------------------------|


Guitar I
E|-8-8-----8-8-----8-8-----8-8-----8-8-----8-8-----8-8-----8-8-------------|
B|-----8-8-----8-8-----8-8-----8-8-----9-9-----9-9-----9-9-----9-9---------|
G|-------------------------------------------------------------------------|
D|-------------------------------------------------------------------------|
A|-------------------------------------------------------------------------|
E|-------------------------------------------------------------------------|
 |                                                                         |
 |Guitar II                                                                |
E|-------------------------------------------------------------------------|
B|-------------------------------------------------------------------------|
G|---5-5-5---5-5-5---5-5-5---5-5-5-----------------------------------------|
D|---5-5-5---5-5-5---5-5-5---5-5-5---6-6-6---6-6-6---6-6-6---6-6-6---------|
A|---3-3-3---3-3-3---3-3-3---3-3-3---6-6-6---6-6-6---6-6-6---6-6-6---------|
E|-----------------------------------4-4-4---4-4-4---4-4-4---4-4-4---------|


  Guitar I
E|-10-10-----10-10-----10-10-----10-10-----8-8-----8-8-----7-7-----7-7-----|
B|-------8-8-------8-8-------8-8-------8-8-----9-9-----9-9-----8-8-----8-8-|
G|-------------------------------------------------------------------------|
D|-------------------------------------------------------------------------|
A|-------------------------------------------------------------------------|
E|-------------------------------------------------------------------------|
 |                                                                         |
 |Guitar II                                                                |
E|-------------------------------------------------------------------------|
B|-------------------------------------------------------------------------|
G|-------------------------------------------------------------------------|
D|----8--8-8----8--8-8----8--8-8----8--8-8-6-6-6-6-6-6-6-6-5-5-5-5-5-5-5-5-|
A|----8--8-8----8--8-8----8--8-8----8--8-8-6-6-6-6-6-6-6-6-5-5-5-5-5-5-5-5-|
E|----6--6-6----6--6-6----6--6-6----6--6-6-4-4-4-4-4-4-4-4-3-3-3-3-3-3-3-3-|


Chorus 0:34
  Guitar I
E|-15-11-13----11----------------------------11-13-15-11-13----11----------|
B|----------15----13-15-11----11-13-11-13-15----------------15----13-15-11-|
G|-------------------------------------------------------------------------|
D|-------------------------------------------------------------------------|
A|-------------------------------------------------------------------------|
E|-------------------------------------------------------------------------|
 |                                                                         |
 |Guitar II                                                                |
E|-------------------------------------------------------------------------|
B|-------------------------------------------------------------------------|
G|-5--5--5--5--5--5--5--5--8--8--8--8--8--8--8--8--------------------------|
D|-5--5--5--5--5--5--5--5--8--8--8--8--8--8--8--8--6--6--6--6--6--6--6--6--|
A|-3--3--3--3--3--3--3--3--6--6--6--6--6--6--6--6--6--6--6--6--6--6--6--6--|
E|-------------------------------------------------4--4--4--4--4--4--4--4--|


Guitar I
E|-------------------11-13-15-11-13----11----------------------------11-13-|
B|----11-13-11-13-15----------------15----13-15-11----11-13-11-13-15-------|
G|-------------------------------------------------------------------------|
D|-------------------------------------------------------------------------|
A|-------------------------------------------------------------------------|
E|-------------------------------------------------------------------------|
 |                                                                         |
 |Guitar II                                                                |
E|-------------------------------------------------------------------------|
B|-------------------------------------------------------------------------|
G|-------------------------5--5--5--5--5--5--5--5--------------------------|
D|-8--8--8--8--8--8--8--8--5--5--5--5--5--5--5--5--6--6--6--6--6--6--6--6--|
A|-8--8--8--8--8--8--8--8--3--3--3--3--3--3--3--3--6--6--6--6--6--6--6--6--|
E|-6--6--6--6--6--6--6--6--------------------------4--4--4--4--4--4--4--4--|


Guitar I
E|-15-11-13----11----------------------------11-13-15-11-13----11----------|
B|----------15----13-15-11----12-13-12-13-15----------------15----13-15-11-|
G|-------------------------------------------------------------------------|
D|-------------------------------------------------------------------------|
A|-------------------------------------------------------------------------|
E|-------------------------------------------------------------------------|
 |                                                                         |
 |Guitar II                                                                |
E|-------------------------------------------------------------------------|
B|-------------------------------------------------------------------------|
G|-------------------------------------------------5--5--5--5--5--5--5--5--|
D|-8--8--8--8--8--8--8--8--5--5--5--5--5--5--5--5--5--5--5--5--5--5--5--5--|
A|-8--8--8--8--8--8--8--8--5--5--5--5--5--5--5--5--3--3--3--3--3--3--3--3--|
E|-6--6--6--6--6--6--6--6--3--3--3--3--3--3--3--3--------------------------|


Guitar I
E|-------------------11-13-15-11-13----11----------------------------11-13-|
B|----11-13-11-13-15----------------15----13-15-11----11-13-11-13-15-------|
G|-------------------------------------------------------------------------|
D|-------------------------------------------------------------------------|
A|-------------------------------------------------------------------------|
E|-------------------------------------------------------------------------|
 |                                                                         |
 |Guitar II                                                                |
E|-------------------------------------------------------------------------|
B|-------------------------------------------------------------------------|
G|-8--8--8--8--8--8--8--8--------------------------------------------------|
D|-8--8--8--8--8--8--8--8--6--6--6--6--6--6--6--6--8--8--8--8--8--8--8--8--|
A|-6--6--6--6--6--6--6--6--6--6--6--6--6--6--6--6--8--8--8--8--8--8--8--8--|
E|-------------------------4--4--4--4--4--4--4--4--6--6--6--6--6--6--6--6--|


  Guitar I
E|-15-11-13-15-11-13-15-11-13-15-11-13-15-11-13-15-11-13-15-11-13-15-11-13-|
B|-------------------------------------------------------------------------|
G|-------------------------------------------------------------------------|
D|-------------------------------------------------------------------------|
A|-------------------------------------------------------------------------|
E|-------------------------------------------------------------------------|
 |                                                                         |
 |Guitar II                                                                |
E|-------------------------------------------------------------------------|
B|-------------------------------------------------------------------------|
G|-------------------------------------------------------------------------|
D|-3--3--3--3--3--3--3--3--5--5--5--5--5--5--5--5--6--6--6--6--6--6--6--6--|
A|-3--3--3--3--3--3--3--3--5--5--5--5--5--5--5--5--6--6--6--6--6--6--6--6--|
E|-1--1--1--1--1--1--1--1--3--3--3--3--3--3--3--3--4--4--4--4--4--4--4--4--|


  Guitar I
E|-15-11-13-15-10---------|
B|------------------------|
G|------------------------|
D|------------------------|
A|------------------------|
E|------------------------|
 |                        |
 |Guitar II               |
E|------------------------|
B|------------------------|
G|------------------------|
D|-8--8--8--8--8--8--8----|
A|-8--8--8--8--8--8--8----|
E|-6--6--6--6--6--6--6----|


Main Riff 0:54
  Guitar I & II                                     1.     2.
E|--------------------------------------------------|--------|---|
B|o-------------------------------------------------|-------o|---|
G|----------8----10-8--------8---------8----10-8----|-----8--|---|
D|--10-8-10-8-10-10-8-10-8-8-8-10-8-10-8-10-10-8-10-|-8-8-8--|-8-|
A|o-10-8-10---10------10-8-8---10-8-10---10------10-|-8-8---o|-8-|
E|--------------------------------------------------|--------|---|


Verse 1:03
  Guitar I
E|-8-8-----8-8-----8-8-----8-8-----8-8-----8-8-----8-8-----8-8-------------|
B|-----8-8-----8-8-----8-8-----8-8-----9-9-----9-9-----9-9-----9-9---------|
G|-------------------------------------------------------------------------|
D|-------------------------------------------------------------------------|
A|-------------------------------------------------------------------------|
E|-------------------------------------------------------------------------|
 |                                                                         |
 |Guitar II                                                                |
E|-------------------------------------------------------------------------|
B|-------------------------------------------------------------------------|
G|-------------------------------------------------------------------------|
D|-------------------------------------------------------------------------|
A|-------------------------------------------------------------------------|
E|-------------------------------------------------------------------------|


  Guitar I
E|-10-10-----10-10-----10-10-----10-10-----8-8-----8-8-----7-7-----7-7-----|
B|-------8-8-------8-8-------8-8-------8-8-----9-9-----9-9-----8-8-----8-8-|
G|-------------------------------------------------------------------------|
D|-------------------------------------------------------------------------|
A|-------------------------------------------------------------------------|
E|-------------------------------------------------------------------------|
 |                                                                         |
 |Guitar II                                                                |
E|-------------------------------------------------------------------------|
B|-------------------------------------------------------------------------|
G|-------------------------------------------------------------------------|
D|-------------------------------------------------------------------------|
A|-------------------------------------------------------------------------|
E|-------------------------------------------------------------------------|


Guitar I
E|-8-8-----8-8-----8-8-----8-8-----8-8-----8-8-----8-8-----8-8-------------|
B|-----8-8-----8-8-----8-8-----8-8-----9-9-----9-9-----9-9-----9-9---------|
G|-------------------------------------------------------------------------|
D|-------------------------------------------------------------------------|
A|-------------------------------------------------------------------------|
E|-------------------------------------------------------------------------|
 |                                                                         |
 |Guitar II                                                                |
E|-------------------------------------------------------------------------|
B|-------------------------------------------------------------------------|
G|---5-5-5---5-5-5---5-5-5---5-5-5-----------------------------------------|
D|---5-5-5---5-5-5---5-5-5---5-5-5---6-6-6---6-6-6---6-6-6---6-6-6---------|
A|---3-3-3---3-3-3---3-3-3---3-3-3---6-6-6---6-6-6---6-6-6---6-6-6---------|
E|-----------------------------------4-4-4---4-4-4---4-4-4---4-4-4---------|


  Guitar I
E|-10-10-----10-10-----10-10-----10-10-----8-8-----8-8-----7-7-----7-7-----|
B|-------8-8-------8-8-------8-8-------8-8-----9-9-----9-9-----8-8-----8-8-|
G|-------------------------------------------------------------------------|
D|-------------------------------------------------------------------------|
A|-------------------------------------------------------------------------|
E|-------------------------------------------------------------------------|
 |                                                                         |
 |Guitar II                                                                |
E|-------------------------------------------------------------------------|
B|-------------------------------------------------------------------------|
G|-------------------------------------------------------------------------|
D|----8--8-8----8--8-8----8--8-8----8--8-8-6-6-6-6-6-6-6-6-5-5-5-5-5-5-5-5-|
A|----8--8-8----8--8-8----8--8-8----8--8-8-6-6-6-6-6-6-6-6-5-5-5-5-5-5-5-5-|
E|----6--6-6----6--6-6----6--6-6----6--6-6-4-4-4-4-4-4-4-4-3-3-3-3-3-3-3-3-|


Chorus 1:23
  Guitar I
E|-15-11-13----11----------------------------11-13-15-11-13----11----------|
B|----------15----13-15-11----11-13-11-13-15----------------15----13-15-11-|
G|-------------------------------------------------------------------------|
D|-------------------------------------------------------------------------|
A|-------------------------------------------------------------------------|
E|-------------------------------------------------------------------------|
 |                                                                         |
 |Guitar II                                                                |
E|-------------------------------------------------------------------------|
B|-------------------------------------------------------------------------|
G|-5--5--5--5--5--5--5--5--8--8--8--8--8--8--8--8--------------------------|
D|-5--5--5--5--5--5--5--5--8--8--8--8--8--8--8--8--6--6--6--6--6--6--6--6--|
A|-3--3--3--3--3--3--3--3--6--6--6--6--6--6--6--6--6--6--6--6--6--6--6--6--|
E|-------------------------------------------------4--4--4--4--4--4--4--4--|


  Guitar I
E|-------------------11-13-15-11-13----11----------------------------11-13-|
B|----11-13-11-13-15----------------15----13-15-11----11-13-11-13-15-------|
G|-------------------------------------------------------------------------|
D|-------------------------------------------------------------------------|
A|-------------------------------------------------------------------------|
E|-------------------------------------------------------------------------|
 |                                                                         |
 |Guitar II                                                                |
E|-------------------------------------------------------------------------|
B|-------------------------------------------------------------------------|
G|-------------------------5--5--5--5--5--5--5--5--------------------------|
D|-8--8--8--8--8--8--8--8--5--5--5--5--5--5--5--5--6--6--6--6--6--6--6--6--|
A|-8--8--8--8--8--8--8--8--3--3--3--3--3--3--3--3--6--6--6--6--6--6--6--6--|
E|-6--6--6--6--6--6--6--6--------------------------4--4--4--4--4--4--4--4--|


  Guitar I
E|-15-11-13----11----------------------------11-13-15-11-13----11----------|
B|----------15----13-15-11----12-13-12-13-15----------------15----13-15-11-|
G|-------------------------------------------------------------------------|
D|-------------------------------------------------------------------------|
A|-------------------------------------------------------------------------|
E|-------------------------------------------------------------------------|
 |                                                                         |
 |Guitar II                                                                |
E|-------------------------------------------------------------------------|
B|-------------------------------------------------------------------------|
G|-------------------------------------------------5--5--5--5--5--5--5--5--|
D|-8--8--8--8--8--8--8--8--5--5--5--5--5--5--5--5--5--5--5--5--5--5--5--5--|
A|-8--8--8--8--8--8--8--8--5--5--5--5--5--5--5--5--3--3--3--3--3--3--3--3--|
E|-6--6--6--6--6--6--6--6--3--3--3--3--3--3--3--3--------------------------|


 Guitar I
E|-------------------11-13-15-11-13----11----------------------------11-13-|
B|----11-13-11-13-15----------------15----13-15-11----11-13-11-13-15-------|
G|-------------------------------------------------------------------------|
D|-------------------------------------------------------------------------|
A|-------------------------------------------------------------------------|
E|-------------------------------------------------------------------------|
 |                                                                         |
 |Guitar II                                                                |
E|-------------------------------------------------------------------------|
B|-------------------------------------------------------------------------|
G|-8--8--8--8--8--8--8--8--------------------------------------------------|
D|-8--8--8--8--8--8--8--8--6--6--6--6--6--6--6--6--8--8--8--8--8--8--8--8--|
A|-6--6--6--6--6--6--6--6--6--6--6--6--6--6--6--6--8--8--8--8--8--8--8--8--|
E|-------------------------4--4--4--4--4--4--4--4--6--6--6--6--6--6--6--6--|


  Guitar I
E|-15-11-13-15-11-13-15-11-13-15-11-13-15-11-13-15-11-13-15-11-13-15-11-13-|
B|-------------------------------------------------------------------------|
G|-------------------------------------------------------------------------|
D|-------------------------------------------------------------------------|
A|-------------------------------------------------------------------------|
E|-------------------------------------------------------------------------|
 |                                                                         |
 |Guitar II                                                                |
E|-------------------------------------------------------------------------|
B|-------------------------------------------------------------------------|
G|-------------------------------------------------------------------------|
D|-3--3--3--3--3--3--3--3--5--5--5--5--5--5--5--5--6--6--6--6--6--6--6--6--|
A|-3--3--3--3--3--3--3--3--5--5--5--5--5--5--5--5--6--6--6--6--6--6--6--6--|
E|-1--1--1--1--1--1--1--1--3--3--3--3--3--3--3--3--4--4--4--4--4--4--4--4--|


  Guitar I
E|-15-11-13-15-10---------|
B|------------------------|
G|------------------------|
D|------------------------|
A|------------------------|
E|------------------------|
 |                        |
 |Guitar II               |
E|------------------------|
B|------------------------|
G|------------------------|
D|-8--8--8--8--8--8--8----|
A|-8--8--8--8--8--8--8----|
E|-6--6--6--6--6--6--6----|

Solo 1:42
  Guitar I
E|-------------------------------------------------------|
B|-------------------------------------------------------|
G|-------------------------------------------------------|
D|---------5---------------------------------------------|
A|---------------5---------------------6-----------------|
E|-------------------------------------------8-----------|
 |                                                       |
 |Guitar II                                              |
E|-------------------------------------------------------|
B|-------------------------------------------4---4---4-4-|
G|---------------4---4---4-4---5---5---5-5---5---5---5-5-|
D|-5---5---5-5---5---5---5-5---5---5---5-5---5---5---5-5-|
A|-5---5---5-5---5---5---5-5---3---3---3-3---3---3---3-3-|
E|-3---3---3-3---3---3---3-3-----------------------------|
(The notes I added to the power-chords are not played very clearly.
I think this is how it kinda sounds.)


  Guitar I
E|-------------------------------------------------------|
B|-------------------------------------------------------|
G|-------------------------------------------------------|
D|-------------------------------------------5-----------|
A|---------------5---------------------6-----------------|
E|---------7---------------------------------------------|
 |                                                       |
 |Guitar II                                              |
E|-------------------------------------------------------|
B|-------------------------------------------4---4---4-4-|
G|---------------4---4---4-4---5---5---5-5---5---5---5-5-|
D|-5---5---5-5---5---5---5-5---5---5---5-5---5---5---5-5-|
A|-5---5---5-5---5---5---5-5---3---3---3-3---3---3---3-3-|
E|-3---3---3-3---3---3---3-3-----------------------------|


Guitar I
E|--------------15-13-15-15-13-13----------------------------------------|
B|-/12-12h15p12-------------------16-16-15b16b15----------11-11b13b11b13-|
G|-----------------------------------------------12-10-12----------------|
D|-----------------------------------------------------------------------|
A|-----------------------------------------------------------------------|
E|-----------------------------------------------------------------------|
 |(at the first bend, bend 15 to 16 and back. At the second, bend 11 to  |
 |13 before playing the note, play the note, bend back to 11 and then to |
 |13 again)                                                              |
 |Guitar II                                                              |
E|-----------------------------------------------------------------------|
B|-----------------------------------------------------------------------|
G|-----------------------------5---5---5-5---5---5---5-5-----------------|
D|-5---5---5-5---5---5---5-5---5---5---5-5---5---5---5-5-----------------|
A|-5---5---5-5---5---5---5-5---3---3---3-3---3---3---3-3-----------------|
E|-3---3---3-3---3---3---3-3---------------------------------------------|
(Let the power-chords ring some more here. Guitar parts ar not synchrone shown here, the 
note from part II is at the same time as the last note from part I)


  Guitar I
E|-------------------------------------------------------------15-18-------|
B|-------------------------------10----------------------15-18-------------|
G|----------------10-10b12b10-12----------10----15-15-17-------------------|
D|----------------------------------12-12----12----------------------------|
A|-12----12----12----------------------------------------------------------|
E|----13----13-------------------------------------------------------------|
 |                                                                         |
 |Guitar II                                                                |
E|-------------------------------------------------------------------------|
B|-------------------------------------------------------------------------|
G|-------------------------------------------------------------------------|
D|-3---3---3-3---3---3---3-3---8---8---8-8---8---8---8-8-8-----------------|
A|-3---3---3-3---3---3---3-3---8---8---8-8---8---8---8-8-8-----------------|
E|-1---1---1-1---1---1---1-1---6---6---6-6---6---6---6-6-6-----------------|


  Guitar I
E|-18/20-20(play this note many times)-----------------|
B|-----------------------------------------------------|
G|-----------------------------------------------------|
D|-----------------------------------------------------|
A|-----------------------------------------------------|
E|-----------------------------------------------------|
 |                                                     |
 |Guitar II                                            |
E|-----------------------------------------------------|
B|-----------------------------------------------------|
G|---------8----10-8--------8---------8----10-8--------|
D|-10-8-10-8-10-10-8-10-8-8-8-10-8-10-8-10-10-8-10-8-8-|
A|-10-8-10---10------10-8-8---10-8-10---10------10-8-8-|
E|-----------------------------------------------------|


  Guitar I
E|-22b23(bend to 23 and swich between these two repeatedly|
B|--------------------------------------------------------|
G|--------------------------------------------------------|
D|--------------------------------------------------------|
A|--------------------------------------------------------|
E|--------------------------------------------------------|
 |(you mostly hear 23 and a few times 22)                 |
 |Guitar II                                               |
E|--------------------------------------------------------|
B|--------------------------------------------------------|
G|-8---------8----10-8--------8---------8----10-8---------|
D|-8-10-8-10-8-10-10-8-10-8-8-8-10-8-10-8-10-10-8-10-8----|
A|---10-8-10---10------10-8-8---10-8-10---10------10-8----|
E|--------------------------------------------------------|


Chorus 2:09
  Guitar I
E|-15-11-13----11----------------------------11-13-15-11-13----11----------|
B|----------15----13-15-11----11-13-11-13-15----------------15----13-15-11-|
G|-------------------------------------------------------------------------|
D|-------------------------------------------------------------------------|
A|-------------------------------------------------------------------------|
E|-------------------------------------------------------------------------|
 |                                                                         |
 |Guitar II                                                                |
E|-------------------------------------------------------------------------|
B|-------------------------------------------------------------------------|
G|-5--5--5--5--5--5--5--5--8--8--8--8--8--8--8--8--------------------------|
D|-5--5--5--5--5--5--5--5--8--8--8--8--8--8--8--8--6--6--6--6--6--6--6--6--|
A|-3--3--3--3--3--3--3--3--6--6--6--6--6--6--6--6--6--6--6--6--6--6--6--6--|
E|-------------------------------------------------4--4--4--4--4--4--4--4--|


Guitar I
E|-------------------11-13-15-11-13----11----------------------------11-13-|
B|----11-13-11-13-15----------------15----13-15-11----11-13-11-13-15-------|
G|-------------------------------------------------------------------------|
D|-------------------------------------------------------------------------|
A|-------------------------------------------------------------------------|
E|-------------------------------------------------------------------------|
 |                                                                         |
 |Guitar II                                                                |
E|-------------------------------------------------------------------------|
B|-------------------------------------------------------------------------|
G|-------------------------5--5--5--5--5--5--5--5--------------------------|
D|-8--8--8--8--8--8--8--8--5--5--5--5--5--5--5--5--6--6--6--6--6--6--6--6--|
A|-8--8--8--8--8--8--8--8--3--3--3--3--3--3--3--3--6--6--6--6--6--6--6--6--|
E|-6--6--6--6--6--6--6--6--------------------------4--4--4--4--4--4--4--4--|


Guitar I
E|-15-11-13----11----------------------------11-13-15-11-13----11----------|
B|----------15----13-15-11----12-13-12-13-15----------------15----13-15-11-|
G|-------------------------------------------------------------------------|
D|-------------------------------------------------------------------------|
A|-------------------------------------------------------------------------|
E|-------------------------------------------------------------------------|
 |                                                                         |
 |Guitar II                                                                |
E|-------------------------------------------------------------------------|
B|-------------------------------------------------------------------------|
G|-------------------------------------------------5--5--5--5--5--5--5--5--|
D|-8--8--8--8--8--8--8--8--5--5--5--5--5--5--5--5--5--5--5--5--5--5--5--5--|
A|-8--8--8--8--8--8--8--8--5--5--5--5--5--5--5--5--3--3--3--3--3--3--3--3--|
E|-6--6--6--6--6--6--6--6--3--3--3--3--3--3--3--3--------------------------|


Guitar I
E|-------------------11-13-15-11-13----11----------------------------11-13-|
B|----11-13-11-13-15----------------15----13-15-11----11-13-11-13-15-------|
G|-------------------------------------------------------------------------|
D|-------------------------------------------------------------------------|
A|-------------------------------------------------------------------------|
E|-------------------------------------------------------------------------|
 |                                                                         |
 |Guitar II                                                                |
E|-------------------------------------------------------------------------|
B|-------------------------------------------------------------------------|
G|-8--8--8--8--8--8--8--8--------------------------------------------------|
D|-8--8--8--8--8--8--8--8--6--6--6--6--6--6--6--6--8--8--8--8--8--8--8--8--|
A|-6--6--6--6--6--6--6--6--6--6--6--6--6--6--6--6--8--8--8--8--8--8--8--8--|
E|-------------------------4--4--4--4--4--4--4--4--6--6--6--6--6--6--6--6--|


  Guitar I
E|-15-11-13-15-11-13-15-11-13-15-11-13-15-11-13-15-11-13-15-11-13-15-11-13-|
B|-------------------------------------------------------------------------|
G|-------------------------------------------------------------------------|
D|-------------------------------------------------------------------------|
A|-------------------------------------------------------------------------|
E|-------------------------------------------------------------------------|
 |                                                                         |
 |Guitar II                                                                |
E|-------------------------------------------------------------------------|
B|-------------------------------------------------------------------------|
G|-------------------------------------------------------------------------|
D|-3--3--3--3--3--3--3--3--5--5--5--5--5--5--5--5--6--6--6--6--6--6--6--6--|
A|-3--3--3--3--3--3--3--3--5--5--5--5--5--5--5--5--6--6--6--6--6--6--6--6--|
E|-1--1--1--1--1--1--1--1--3--3--3--3--3--3--3--3--4--4--4--4--4--4--4--4--|


  Guitar I
E|-15-11-13-15-10---------|
B|------------------------|
G|------------------------|
D|------------------------|
A|------------------------|
E|------------------------|
 |                        |
 |Guitar II               |
E|------------------------|
B|------------------------|
G|------------------------|
D|-8--8--8--8--8--8--8----|
A|-8--8--8--8--8--8--8----|
E|-6--6--6--6--6--6--6----|


Main Riff 0:54
  Guitar I & II                                     1.     2.
E|--------------------------------------------------|--------|---|
B|o-------------------------------------------------|-------o|---|
G|----------8----10-8--------8---------8----10-8----|-----8--|---|
D|--10-8-10-8-10-10-8-10-8-8-8-10-8-10-8-10-10-8-10-|-8-8-8--|-8-|
A|o-10-8-10---10------10-8-8---10-8-10---10------10-|-8-8---o|-8-|
E|--------------------------------------------------|--------|---|

Outro 2:39
  Guitar I & II
E|-----------------------------------------------------|-------|
B|o---------------------------------------------------o|-------|
G|----------8----10-8----------------8----10-8---------|-8-----|
D|--10-8-10-8-10-10-8-10-8-8-10-8-10-8-10-10-8-10-8-8--|-8-10\-|
A|o-10-8-10---10------10-8-8-10-8-10---10------10-8-8-o|---10\-|
E|-----------------------------------------------------|-------|

...And that's it. :)

Tab made by VinniZ. The song does not belong to me.
comments
We did not receive enough feedback on this tab! Please rate:
print report bad tab
1 2 3 4 5
I want to post or [tab]
guest
You may want to rate the tab now too:
select rating
Please do not post tabs as comments. Select "correction" instead!