Oops, an error
Loading. Please wait.

The Beginning Tab

ver1
ver1

Whole song

Interactive

More versions @911Tabs.com
14,180 views 223 this week
no commentswrite comment
1 2 3 4 5
excellent!
x 7
Autoscroll
+/-
esc
set tempo
stop
Contributor
Difficulty
Tuning
novice
D A D G B E
Hey! There's an official Ultimate Guitar app which is ideal
for learning songs when you're away from computer. Get the app
WARNING: You are trying to view
                                    content from Ultimate-Guitar.com
                                    in an unauthorized application,
                                    which is prohibited.

                                    Please use an official Ultimate
                                    Guitar Tabs application for iPhone,
                                    iPad or Android to access legitimate
                                    chords, guitar, bass, and drum tabs
                                    from Ultimate-Guitar.com database.

                                    Type "ultimate guitar tabs" in Apple
                                    App Store's or Android Market's
                                    search to find the application.
The Beginning
One Ok Rock
Jinsei X Boku

Tabbed by Lec Segundo

Tuning: Drop D (DADGBe) 

Legend:

~ - Let Ring
. - Palm Mute
/ - Slide Downwards
\ - Slide Upwards
p - Pull-Off
v - Bend Upwards
________________________________________________________________

INTRO

        Rhythm

        e|--------------------------------------|
        B|--------------------------------------|
        G|--------------------5-----------------|
        D|--7--------3--------5-(x16)--5--------|       2x
        A|--7-(x16)--3-(x16)--3--------5-(x16)--|
        D|--7--------3-----------------5--------|
            .        .        .        .

        Piano (Transcribed to guitar)

        e|-----3~-------3~-------3~-------3~--1-0-----|
        B|-0-1------0-1------0-1------0-1----------3--|
        G|--------------------------------------------|  2x
        D|--------------------------------------------|
        A|-0-----------------3------------------------|
        D|----------1-----------------3---------------|

INTERLUDE

        Rhythm

        e|----------------------------------------|
        B|----------------------------------------|
        G|----------------------5-----------------|
        D|--7---------3---------5-(x8)----5-------|     3x
        A|--7-(x8)----3-(x8)----3---------5-(x8)--|
        D|--7---------3-------------------5-------|

        e|---------------------|
        B|---------------------|
        G|---------------------|
        D|--3---------5--------|     
        A|--3-(x16)---5-(x16)--|
        D|--3---------5--------|

        Lead

        e|---------------------------------|
        B|---------------------------------|
        G|---5--------5/999-77-7/44-4/5\4--|
        D|---x-(x16)--x/xxx-xx-x/xx-x/x\x--|
        A|---3--------3/777-55-5/22-2/3\2--|
        D|---------------------------------|

        e|---------------------------------|
        B|---------------------------------|
        G|---5--------5/999-10101010-7777--|
        D|---x-(x16)--x/xxx-x-x-x-x--xxxx--|
        A|---3--------3/777-8-8-8-8--5555--|
        D|---------------------------------|

        e|--------------------------------|
        B|------------------5-------------|
        G|----5------7-------------7p5----|
        D|--5----5-5----5-5----5-5--------|
        A|--------------------------------|
        D|--------------------------------|

        e|-------------------------------------|
        B|-------------------------------------|
        G|---5--------4-------/10101010-\7777--|
        D|---x-(x16)--x-(x8)--/x-x-x-x--\xxxx--|
        A|---3--------2-------/8-8-8-8--\5555--|
        D|-------------------------------------|

        Piano (Transcribed to guitar)

        e|---------------|      |---------------|        -|
        B|-----17-15-17--|      |-----17-15-17--|         |
        G|--14-----------|  2x  |--12-----------|   2x    |  All 2x
        D|---------------|      |---------------|         |
        A|---------------|      |---------------|         |
        D|---------------|      |---------------|        _|

        e|-----------------------------------|
        B|------------------5----------------|
        G|----5------7-------------7-5-------|
        D|--5----5-5----5-5----5-5-----------|
        A|-----------------------------------|
        D|-----------------------------------|
                
        e|---------------|      |--------------------------|
        B|-----17-15-17--|      |-----17-15-17----17-15----|
        G|--14-----------|  2x  |--12----------12-------12-|
        D|---------------|      |--------------------------|
        A|---------------|      |--------------------------|
        D|---------------|      |--------------------------|

VERSE

        Rhythm

        e|--------------------------------------|
        B|--------------------------------------|
        G|--------------------5-----------------|
        D|--7--------3--------5-(x16)--5--------|       
        A|--7-(x16)--3-(x16)--3--------5-(x16)--|
        D|--7--------3-----------------5--------|
            .        .        .        .

        e|--------------------------------------|
        B|--------------------------------------|
        G|--------------------------------------|
        D|-----7---7---7---7-----3---3---3---3--|
        A|--77-7-7-7-7-7-7-7--33-3-3-3-3-3-3-3--|
        D|--77-7-7-7-7-7-7-7--33-3-3-3-3-3-3-3--|
            ..   .   .   .    ..   .   .   .    

        e|-------------------------------------|
        B|-------------------------------------|
        G|-----5---5---5---5-------------------|
        D|--55-5-5-5-5-5-5-5-----5---5---5---5-|
        A|--33-3-3-3-3-3-3-3--55-5-5-5-5-5-5-5-|
        D|--------------------55-5-5-5-5-5-5-5-|
            ..   .   .   .    ..   .   .   .   

        Lead

        IDLE

        e|--------------------------------------|
        B|--------------------------------------|
        G|--------------------------------------|
        D|-----7---7---7---7-----3---3---3---3--|
        A|--77-7-7-7-7-7-7-7--33-3-3-3-3-3-3-3--|
        D|--77-7-7-7-7-7-7-7--33-3-3-3-3-3-3-3--|
            ..   .   .   .    ..   .   .   .    

        e|-------------------------------------|
        B|-------------------------------------|
        G|-----5---5---5---5-------------------|
        D|--55-5-5-5-5-5-5-5-----5---5---5---5-|
        A|--33-3-3-3-3-3-3-3--55-5-5-5-5-5-5-5-|
        D|--------------------55-5-5-5-5-5-5-5-|
            ..   .   .   .    ..   .   .   .   

REFRAIN

        Rhythm

        e|----------------------------------------|
        B|----------------------------------------|
        G|----------------------------------------|
        D|--3---------5---------3--------2--------|
        A|--3-(x16)---5-(x16)---3-(x16)--2-(x16)--|
        D|--3---------5---------3--------2--------|
        
        Lead

        e|--------------------------------------------------------|
        B|--------------------------------------------------------|
        G|--/14-14-13/14-14------\999--/14-14-13/14-14------\999--|
        D|--/x--x--x-/x--x--(x8)-\xxx--/x--x--x-/x--x--(x8)-\xxx--|
        A|--/12-12-11/12-12------\777--/12-12-11/12-12------\777--|
        D|--------------------------------------------------------|

        e|----------------------------------------------|
        B|----------------------------------------------|
        G|--/14-14-13/14-14------\1313-\9-------7-------|
        D|--/x--x--x-/x--x--(x8)-\x-x--\x-(x8)--x-(x8)--|
        A|--/12-12-11/12-12------\1111-\7-------5-------|
        D|----------------------------------------------|

CHORUS

        Rhythm

        e|-----------------------------------------|
        B|-----------------------------------------|
        G|----------------------5------------------|
        D|--7---------3---------5-(x16)---5--------|    
        A|--7-(x16)---3-(x16)---3---------5-(x16)--|
        D|--7---------3-------------------5--------|

        e|----------------------------------------------|
        B|----------------------------------------------|
        G|----------------------5-----------------------|
        D|--7---------3---------5-(x16)---5-------6-----|  
        A|--7-(x16)---3-(x16)---3---------5-(x8)--6-x8--|
        D|--7---------3-------------------5-------6-----|

        Piano (Transcribed to guitar)

        e|-------------|
        B|--10-8-10----|
        G|-------------|   32x
        D|-------------|
        A|-------------|
        D|-------------|

REPEAT INTERLUDE

VERSE2

        Rhythm

        IDLE

        e|--------------------------------------|
        B|--------------------------------------|
        G|--------------------------------------|
        D|-----7---7---7---7-----3---3---3---3--|
        A|--77-7-7-7-7-7-7-7--33-3-3-3-3-3-3-3--|
        D|--77-7-7-7-7-7-7-7--33-3-3-3-3-3-3-3--|
            ..   .   .   .    ..   .   .   .    

        e|-------------------------------------|
        B|-------------------------------------|
        G|-----5---5---5---5-------------------|
        D|--55-5-5-5-5-5-5-5-----5---5---5---5-|
        A|--33-3-3-3-3-3-3-3--55-5-5-5-5-5-5-5-|
        D|--------------------55-5-5-5-5-5-5-5-|
            ..   .   .   .    ..   .   .   .    

        Lead

        e|-----------------------------------------------|   \
        B|-------8-----------8-----------8-----------8---|    \
        G|---9-----9-----9-----9-----9-----9-----9-----9-|     \
        D|-7---7-----7-7---7-----7-7---7-----7-7---7-----|      \
        A|-----------------------------------------------|       \
        E|-----------------------------------------------|        \
                                                                   >  2x
        e|------------------------------------------------|       /
        B|-------8-----------8-----------8-----------8----|      /
        G|---9-----9-----9-----9-----7-----7-----7-----7--|     /
        D|------------------------------------------------|    /
        A|-10-10----10-10-10----10-10-10----10-10-10------|   /
        E|------------------------------------------------|  /

REFRAIN2

        Rhythm

        e|----------------------------------------|
        B|----------------------------------------|
        G|----------------------------------------|
        D|--3---------5---------3--------2--------|
        A|--3-(x16)---5-(x16)---3-(x16)--2-(x16)--|
        D|--3---------5---------3--------2--------|
        
        Lead

        e|--------------------------------------------------------|
        B|--------------------------------------------------------|
        G|--/14-14-13/14-14------\999--/14-14-13/14-14------\999--|
        D|--/x--x--x-/x--x--(x8)-\xxx--/x--x--x-/x--x--(x8)-\xxx--|
        A|--/12-12-11/12-12------\777--/12-12-11/12-12------\777--|
        D|--------------------------------------------------------|

        e|---------------------------------------------|
        B|---------------------------------------------|
        G|--/14-14-13/14-14------\1313-\9-------/7v~---|
        D|--/x--x--x-/x--x--(x8)-\x-x--\x-(x8)---------|
        A|--/12-12-11/12-12------\1111-\7--------------|
        D|---------------------------------------------|

REPEAT CHORUS   2x

ADLIB

        Rhythm

        e|---------------------|             |-----------|
        B|---------------------|             |-----------|
        G|---------------------|   3x Then   |-----------|
        D|--333-222--7-7-------|             |--5--------|
        A|--333-222--7-7-(x8)--|             |--5-(x16)--|
        D|--333-222--7-7-------|             |--5--------|

        e|---------------------|             |------|
        B|---------------------|             |------|
        G|---------------------|   3x Then   |------|
        D|--333-222--7-7-------|             |--2~--|
        A|--333-222--7-7-(x8)--|             |--2~--|
        D|--333-222--7-7-------|             |--2~--|

        Lead

        e|-----------------------|            
        B|-----------------------|             
        G|--101010-999-----------|   3x  
        D|--x-x-x--xxx-7-7-------|             
        A|--8-8-8--777-7-7-(x12)-|          
        D|-------------7-7-------|             

        e|-------------------------|
        B|-------------------------|
        G|--444-555-777777777777---|
        D|--xxx-xxx-xxxxxxxxxxxx---|
        A|--222-333-555555555555---|
        D|-------------------------|

        e|-----------------------------|
        B|-----------------------------|
        G|--141414-121212--------------|
        D|--x-x-x--x-x-x--10-10--------|    2x 
        A|--121212-101010-10-10-(x12)--|
        D|----------------10-10--------|
        
        e|---------------------------------|
        B|---------------------------------|
        G|--141414-121212-5-5---------/7v~-|
        D|--x-x-x--x-x-x--x-x-(x12)--------| 
        A|--121212-101010-3-3--------------|
        D|---------------------------------|

BRIDGE

        Rhythm

        e|--------------------------------------|
        B|--------------------------------------|
        G|--------------------5-----------------|
        D|--7--------3--------5-(x16)--5--------|       2x
        A|--7-(x16)--3-(x16)--3--------5-(x16)--|
        D|--7--------3-----------------5--------|
            .        .        .        .

        Piano (Transcribed to guitar)

        e|-----3~-------3~-------3~-------3~--1-0-----|
        B|-0-1------0-1------0-1------0-1----------3--|
        G|--------------------------------------------|  2x
        D|--------------------------------------------|
        A|-0-----------------3------------------------|
        D|----------1-----------------3---------------|

CHORUS

        Rhythm

        e|-----------------------------------------|
        B|-----------------------------------------|
        G|----------------------5------------------|
        D|--7---------3---------5-(x16)---5--------|   
        A|--7-(x16)---3-(x16)---3---------5-(x16)--|
        D|--7---------3-------------------5--------|

        e|--------------------------------------------|
        B|--------------------------------------------|
        G|----------------------5---------------------|
        D|--7---------3---------5-(x16)---5-------4~--|  
        A|--7-(x16)---3-(x16)---3---------5-(x8)--4~--|
        D|--7---------3-------------------5-------4~--|
        
        Lead

        e|-----------------------------------------|
        B|-----------------------------------------|
        G|----------------------5------------------|
        D|--7---------3---------5-(x16)---5--------|    
        A|--7-(x16)---3-(x16)---3---------5-(x16)--|
        D|--7---------3-------------------5--------|

        e|--------------------------------------------|
        B|--------------------------------------------|
        G|----------------------5---------------------|
        D|--7---------3---------5-(x16)---5-------4~--|  
        A|--7-(x16)---3-(x16)---3---------5-(x8)--4~--|
        D|--7---------3-------------------5-------4~--|

        Piano (Transcribed to guitar)

        e|-------------|
        B|--10-8-10----|
        G|-------------|   16x
        D|-------------|
        A|-------------|
        E|-------------|

CHORUS2 (Slower)
        
        Rhythm

        e|----------------------------------------|
        B|----------------------------------------|
        G|----------------------5-----------------|
        D|--3---------5---------5-(x16)--7--------|
        A|--3-(x16)---5-(x16)---3--------7-(x16)--|
        D|--3---------5------------------7--------|

        e|------------------------------------|
        B|------------------------------------|
        G|------------------------------------|
        D|--3---------5---------2--------3~---|
        A|--3-(x16)---5-(x16)---2-(x16)--3~---|
        D|--3---------5---------2--------3~---|

        Lead

        e|----------------------------------------|
        B|----------------------------------------|
        G|----------------------5-----------------|
        D|--3---------5---------5-(x16)--7--------|
        A|--3-(x16)---5-(x16)---3--------7-(x16)--|
        D|--3---------5------------------7--------|

        e|------------------------------------|
        B|------------------------------------|
        G|------------------------------------|
        D|--3---------5---------2--------3~---|
        A|--3-(x16)---5-(x16)---2-(x16)--3~---|
        D|--3---------5---------2--------3~---|

        Piano (Transcribed to guitar)

        e|-----3~-------3~-------3~-------3~--1-0-----|
        B|-0-1------0-1------0-1------0-1----------3--|
        G|--------------------------------------------|  2x
        D|--------------------------------------------|
        A|-0-----------------3------------------------|
        D|----------1-----------------3---------------|

END



Please Rate!,... :o
comments
print report bad tab
I want to post or [tab]
guest
You may want to rate the tab now too:
select rating
Please do not post tabs as comments. Select "correction" instead!