Oops, an error
Loading. Please wait.

Baying Of The Hounds Tab

ver1
ver1

Solo

Whole song

Interactive

More versions @911Tabs.com
20,709 views 45 this week
3 commentsread comments
1 2 3 4 5
excellent!
x 2
Autoscroll
+/-
esc
set tempo
stop
Contributor
Hey! There's an official Ultimate Guitar app which is ideal
for learning songs when you're away from computer. Get the app
WARNING: You are trying to view
                                    content from Ultimate-Guitar.com
                                    in an unauthorized application,
                                    which is prohibited.

                                    Please use an official Ultimate
                                    Guitar Tabs application for iPhone,
                                    iPad or Android to access legitimate
                                    chords, guitar, bass, and drum tabs
                                    from Ultimate-Guitar.com database.

                                    Type "ultimate guitar tabs" in Apple
                                    App Store's or Android Market's
                                    search to find the application.
#----------------------------------PLEASE NOTE---------------------------------#
#This file is the author's own work and represents their interpretation of the #
#song. You may only use this file for private study, scholarship, or research. #
#------------------------------------------------------------------------------#

THE BAYING OF THE HOUNDS
As recorded by Opeth
(From the 2005 Album GHOST REVERIES)

Transcribed by Anton Lidström, Erik Dietrich (zerosk8r4life12)
        

Words by Mikael Åkerfeldt Music by Opeth

Gtr I (D A D F A E) - 'Distorted [Left]'
Gtr II (D A D F A E) - 'Distorted [Right]'
Gtr III (D A D F A E) - 'Distorted [Centre]'
Gtr IV (D A D F A E) - 'Clean Electric'
Gtr V (D A D F A E) - 'Acoustic'

 0:00
  Fast Metal Q.=131
  D5                               C5  D5
 12/8
  Gtr I
  W.              +W.               E  E E E E E Q  E E E E
|---------------|----------------|----------------------------|
|---------------|----------------|--3s=5-5-5-5----------------|
|---------------|----------------|--2s=4-4-4-4----------------|
|-0-------------|-(0)------------|----------------------------|
|-0-------------|-(0)------------|--3s=5-5-5-5----------------|
|-0-------------|-(0)------------|-------------0-0--0-0-0-0---|
|
| Gtr II
| W.              +W.              +W.
|---------------|----------------|----------------------------|
|---------------|----------------|----------------------------|
|---------------|----------------|----------------------------|
|-0-------------|-(0)------------|-(0)------------------------|
|-0-------------|-(0)------------|-(0)------------------------|
|-0-------------|-(0)------------|-(0)------------------------|


  C5  D5                     C5  D5
   E  E E E E E Q  E E E E    E  E E E E E Q  E E E E
|--------------------------|--------------------------|
|--3s=5-5-5-5--------------|--3s=5-5-5-5--------------|
|--2s=4-4-4-4--------------|--2s=4-4-4-4--------------|
|--------------------------|--------------------------|
|--3s=5-5-5-5--------------|--3s=5-5-5-5--------------|
|-------------0-0--0-0-0-0-|-------------0-0--0-0-0-0-|
|
| +W.                        +W.
|--------------------------|--------------------------|
|--------------------------|--------------------------|
|--------------------------|--------------------------|
|-(0)----------------------|-(0)----------------------|
|-(0)----------------------|-(0)----------------------|
|-(0)----------------------|-(0)----------------------|


  D5 Eb5D5F5G5G#5   G5F5D5
   E  E E E E E +E  E E Q  E
|-----------------------------|
|-----------------------------|
|-----------------------------|
|-----------------------------|
|-12h13-0-3-5-6-(6)-5-3-0--0--|
|-12h13-0-3-5-6-(6)-5-3-0--0--|
|
|  E  E E E E E +E  E E Q  E
|-----------------------------|
|-----------------------------|
|-----------------------------|
|-----------------------------|
|-12h13-0-3-5-6-(6)-5-3-0--0--|
|-12h13-0-3-5-6-(6)-5-3-0--0--|


    C5D5                     C5D5                     C5D5
    Gtrs I, II
    E E E E E E Q  E E E E   E E E E E E Q  E E E E   E E E E E E Q  E E E E
||-------------------------|------------------------|------------------------|
||o-3s5-5-5-5--------------|-3s5-5-5-5--------------|-3s5-5-5-5--------------|
||--2s4-4-4-4--------------|-2s4-4-4-4--------------|-2s4-4-4-4--------------|
||-------------------------|------------------------|------------------------|
||o-3s5-5-5-5--------------|-3s5-5-5-5--------------|-3s5-5-5-5--------------|
||------------0-0--0-0-0-0-|-----------0-0--0-0-0-0-|-----------0-0--0-0-0-0-|


                                    0:49
  D5 Eb5D5F5G5G#5   G5F5D5           Gm       Bbm    C#m         Em
   E  E E E E E +E  E E Q  E  5x      E  E E  E E E    E   E  E   E   E    E
|-----------------------------||-||-------------------------------------------|
|----------------------------o||-||o------------------------------------------|
|-----------------------------||-||---5--5-5/-8-8-8/--11--11-11/-14--14---14/-|
|-----------------------------||-||---5--5-5/-8-8-8/--11--11-11/-14--14---14/-|
|-12h13-0-3-5-6-(6)-5-3-0--0-o||-||o------------------------------------------|
|-12h13-0-3-5-6-(6)-5-3-0--0--||-||---5--5-5/-8-8-8/--11--11-11/-14--14---14/-|
|
|                                    Gtr III
|  W                          5x      H.              +H             +Q
|-----------------------------||-||--12--------------(12)-----------(12)/-----|
|----------------------------o||-||o------------------------------------------|
|-----------------------------||-||-------------------------------------------|
|-----------------------------||-||-------------------------------------------|
|----------------------------o||-||o------------------------------------------|
|-----------------------------||-||-------------------------------------------|


  Gm                               D5
   E   E  E  E  E  E   E   E  E  E   E   E
|------------------------------------------|
|------------------------------------------|
|-17--17-17-17-17-17--17--17-17-17---------|
|-17--17-17-17-17-17--17--17-17-17---0---0-|
|------------------------------------0---0-|
|-17--17-17-17-17-17--17--17-17-17---0---0-|
|
|  H.                 +H            +Q
|-15-----------------(15)----------(15)\---|
|------------------------------------------|
|------------------------------------------|
|------------------------------------------|
|------------------------------------------|
|------------------------------------------|


  Gm       Bbm    C#m         Em
   E  E E  E E E    E   E  E   E   E    E
|------------------------------------------|
|------------------------------------------|
|--5--5-5/-8-8-8/--11--11-11/-14--14---14\-|
|--5--5-5/-8-8-8/--11--11-11/-14--14---14\-|
|------------------------------------------|
|--5--5-5/-8-8-8/--11--11-11/-14--14---14\-|
|
|  H.              +H             +Q
|-12--------------(12)-----------(12)\-----|
|------------------------------------------|
|------------------------------------------|
|------------------------------------------|
|------------------------------------------|
|------------------------------------------|


  1.,2.,3.                                   4.
  C#m                             D5         C#m                              D5
   E   E  E  E  E  E  E   E  E  E  E   E  3x  E   E  E  E  E  E  E    E  E  E E E
|-----------------------------------------||---------------------------------------||
|----------------------------------------o||---------------------------------------||
|-11--11-11-11-11-11-11--11-11-11---------||-11--11-11-11-11-11-11---11-11-11------||
|-11--11-11-11-11-11-11--11-11-11--0---0--||-11--11-11-11-11-11-11---11-11-11-0-0--||
|----------------------------------0---0-o||----------------------------------0-0--||
|-11--11-11-11-11-11-11--11-11-11--0---0--||-11--11-11-11-11-11-11---11-11-11-0-0--||
|
|  H.                +H           +Q      3x  H.                +H.
|--9-----------------(9)----------(9)/----||--9-----------------(9)/---------------||
|----------------------------------------o||---------------------------------------||
|-----------------------------------------||---------------------------------------||
|-----------------------------------------||---------------------------------------||
|----------------------------------------o||---------------------------------------||
|-----------------------------------------||---------------------------------------||


 1:19
  C5 D5
   E E E E E E Q  E E E E
|-------------------------|
|--3s5-5-5-5--------------|
|--2s4-4-4-4--------------|
|-------------------------|
|--3s5-5-5-5--------------|
|------------0-0--0-0-0-0-|
|
|  W.
|-22----------------------|
|-------------------------|
|-------------------------|
|-------------------------|
|-------------------------|
|-------------------------|


  C5   D5                     C5D5
    E  E E E E E Q  E E E E   E E E E E E Q  E E E E
|---------------------------|-------------------------|
|---3s=5-5-5-5--------------|-3s5-5-5-5---------------|
|---2s=4-4-4-4--------------|-2s4-4-4-4---------------|
|---------------------------|-------------------------|
|---3s=5-5-5-5--------------|-3s5-5-5-5---------------|
|--------------0-0--0-0-0-0-|-----------0-0--0-0-0-0--|
|
|   >
|  +W.                        W
|-(22)----------------------|-------------------------|
|---------------------------|-------------------------|
|---------------------------|-------------------------|
|---------------------------|-------------------------|
|---------------------------|-------------------------|
|---------------------------|-------------------------|


  D5 Eb5D5F5G5G#5   G5F5D5
   E  E E E E E +E  E E Q  E
|----------------------------|
|----------------------------|
|----------------------------|
|----------------------------|
|-12h13-0-3-5-6-(6)-5-3-0--0-|
|-12h13-0-3-5-6-(6)-5-3-0--0-|


    C5D5                     C5D5
    E E E E E E Q  E E E E   E E E E E E Q  E E E E
||-------------------------|-------------------------|
||o-3s5-5-5-5--------------|-3s5-5-5-5---------------|
||--2s4-4-4-4--------------|-2s4-4-4-4---------------|
||-------------------------|-------------------------|
||o-3s5-5-5-5--------------|-3s5-5-5-5---------------|
||------------0-0--0-0-0-0-|-----------0-0--0-0-0-0--|


  C5D5                     D5 Eb5D5F5G5G#5   G5F5D5       N.C.
  E E E E E E Q  E E E E    E  E E E E E +E  E E Q  E  3x W
|------------------------|-----------------------------||------||
|-3s5-5-5-5--------------|----------------------------o||------||
|-2s4-4-4-4--------------|-----------------------------||------||
|------------------------|-----------------------------||------||
|-3s5-5-5-5--------------|-12h13-0-3-5-6-(6)-5-3-0--0-o||------||
|-----------0-0--0-0-0-0-|-12h13-0-3-5-6-(6)-5-3-0--0--||------||


   1:51
    N.C.
    PM--------------------------|             PM----|
    E E E E E E E E E E E E   E E E E E E E E E E E E  8x
||--------------------------|--------------------------||
||o-------------------------|-------------------------o||
||--------------------------|--------------------------||
||--------------------------|-----5-4---4--------------||
||o-0---0---0-0-0---0---0-3-|-5-6-----5---3s5---0-0-0-o||
||--0---0---0-0-0---0---0---|-----------------0-0-0-0--||


   2:20
    Gm                        Gm/A
    Gtr III
    E E E E E E E E E E E E   E E E E E E E E E E E E
||--------------------------|-------------------------|
||o-------------------------|-------------------------|
||--5-5-5-5-----5-5-5-5-----|-5-5-5-5-----5-5-5-5-----|
||--5-5-5-5-x-x-5-5-5-5-x-x-|-5-5-5-5-x-x-5-5-5-5-x-x-|
||o-5-5-5-5-x-x-5-5-5-5-x-x-|-5-5-5-5-x-x-5-5-5-5-x-x-|
||--5-5-5-5-x-x-5-5-5-5-x-x-|-7-7-7-7-x-x-7-7-7-7-x-x-|


  Gm/Bb                     N.C.        A5
  E E E E E E E E E E E E   E E E E E E E E E E E E
|-------------------------|---------------------------|
|-------------------------|---------------------------|
|-5-5-5-5-----5-5-5-5-----|---------------------------|
|-5-5-5-5-x-x-5-5-5-5-x-x-|-8-8-8-8-x-x-7-7-7-7-x-x---|
|-5-5-5-5-x-x-5-5-5-5-x-x-|-7-7-7-7-x-x-7-7-7-7-x-x---|
|-8-8-8-8-x-x-8-8-8-8-x-x-|-7-7-7-7-x-x-7-7-7-7-x-x---|


  Gm                        Gm/A
  E E E E E E E E E E E E   E E E E E E E E E E E E
|-------------------------|-------------------------|
|-------------------------|-------------------------|
|-5-5-5-5-----5-5-5-5-----|-5-5-5-5-----5-5-5-5-----|
|-5-5-5-5-x-x-5-5-5-5-x-x-|-5-5-5-5-x-x-5-5-5-5-x-x-|
|-5-5-5-5-x-x-5-5-5-5-x-x-|-5-5-5-5-x-x-5-5-5-5-x-x-|
|-5-5-5-5-x-x-5-5-5-5-x-x-|-7-7-7-7-x-x-7-7-7-7-x-x-|


  Gm/Bb                     A
  E E E E E E E E E E E E   E E E E E E E E E E E E
|-------------------------|-----------------------------||
|-------------------------|----------------------------o||
|-5-5-5-5-----5-5-5-5-----|-8-8-8-8-x-x-8-8-8-8-x-x-----||
|-5-5-5-5-x-x-5-5-5-5-x-x-|-7-7-7-7-x-x-7-7-7-7-x-x-----||
|-5-5-5-5-x-x-5-5-5-5-x-x-|-7-7-7-7-x-x-7-7-7-7-x-x----o||
|-8-8-8-8-x-x-8-8-8-8-x-x-|-7-7-7-7-x-x-7-7-7-7-x-x-----||


 2:49
  Gm                            Gm/A
 6/4
  Gtrs I, II
   ~~~                            ~~~~~~~~~~~~~~~~~
   H.            Q    Q   Q       H.            H.
|-----------------------------|------------------------------|
|-----------------------------|-/10------------13------------|
|-------------------------9---|------------------------------|
|-/8------------/8---10-------|------------------------------|
|-----------------------------|------------------------------|
|-----------------------------|------------------------------|
|
| Gtr III
|  E  E E E E E  E E  E E E E     E  E E E E E  E  E E E E E
|-----------------------------|------------------------------|
|-----------------------------|------------------------------|
|--5--5-5-5------5-5--5-5-----|---5--5-5-5------5--5-5-5-----|
|--5--5-5-5-x-x--5-5--5-5-x-x-|---5--5-5-5-x-x--5--5-5-5-x-x-|
|--5--5-5-5-x-x--5-5--5-5-x-x-|---5--5-5-5-x-x--5--5-5-5-x-x-|
|--5--5-5-5-x-x--5-5--5-5-x-x-|---7--7-7-7-x-x--7--7-7-7-x-x-|


  Gm/Bb                             N.C.          A5
             ~~~~~~~~~               ~~~~~~~~~~~~~~~~~
   Q    Q    Q    +Q     Q    Q      H.            H.
|---------------------------------|------------------------------|
|-12---10-------------------------|------------------------------|
|---------------------------------|------------------------------|
|-----------12---(12)---10h==12---|-11------------\7-------------|
|---------------------------------|------------------------------|
|---------------------------------|------------------------------|
|
|  E E  E E  E E   E  E  E E  E E    E  E E E E E  E  E E E E E
|---------------------------------|------------------------------|
|---------------------------------|------------------------------|
|--5-5--5-5--------5--5--5-5------|------------------------------|
|--5-5--5-5--x-x---5--5--5-5--x-x-|--8--8-8-8-x-x--7--7-7-7-x-x--|
|--5-5--5-5--x-x---5--5--5-5--x-x-|--7--7-7-7-x-x--7--7-7-7-x-x--|
|--8-8--8-8--x-x---8--8--8-8--x-x-|--7--7-7-7-x-x--7--7-7-7-x-x--|


  Gm                             Gm/A
  Gtr I
   ~~~                             ~~~~~~~~~~~~~~~~~~
   H.            Q    Q    Q       H.             H.
|------------------------------|----------------/15------------|
|-------------------------12---|--13---------------------------|
|------------------------------|-------------------------------|
|-12------------12---15--------|-------------------------------|
|------------------------------|-------------------------------|
|------------------------------|-------------------------------|
|
| Gtr II
|  ~~~                             ~~~~~~~~~~~~~~~~~~
|  H.            Q    Q    Q       H.             H.
|------------------------------|-------------------------------|
|------------------------------|-/10-------------13------------|
|--------------------------9---|-------------------------------|
|-/8------------/8---10--------|-------------------------------|
|------------------------------|-------------------------------|
|------------------------------|-------------------------------|
|
| Gtr III
|  E  E E E E E  E E  E E  E E     E  E E E E E   E  E E E E E
|------------------------------|-------------------------------|
|------------------------------|-------------------------------|
|--5--5-5-5------5-5--5-5------|---5--5-5-5-------5--5-5-5-----|
|--5--5-5-5-x-x--5-5--5-5--x-x-|---5--5-5-5-x-x---5--5-5-5-x-x-|
|--5--5-5-5-x-x--5-5--5-5--x-x-|---5--5-5-5-x-x---5--5-5-5-x-x-|
|--5--5-5-5-x-x--5-5--5-5--x-x-|---7--7-7-7-x-x---7--7-7-7-x-x-|


  Gm/Bb                             A
             ~~~~~~~~~               ~~~
   Q    Q    Q    +Q     Q    Q      W.
|-13---10-------------------------|------------------------------||
|-----------13---(13)---13h==15---|-12---------------------------||
|---------------------------------|------------------------------||
|---------------------------------|------------------------------||
|---------------------------------|------------------------------||
|---------------------------------|------------------------------||
|
|            ~~~~~~~~~               ~~~
|  Q    Q    Q    +Q     Q    Q      W.
|---------------------------------|------------------------------||
|-12---10-------------------------|------------------------------||
|---------------------------------|------------------------------||
|-----------12---(12)---10h==12---|-11---------------------------||
|---------------------------------|------------------------------||
|---------------------------------|------------------------------||
|
|  E E  E E  E E   E  E  E E  E E    E  E E E E E E E E E E E
|---------------------------------|------------------------------||
|---------------------------------|------------------------------||
|--5-5--5-5--------5--5--5-5------|--8--8-8-8-x-x-8-8-8-8-x-x----||
|--5-5--5-5--x-x---5--5--5-5--x-x-|--7--7-7-7-x-x-7-7-7-7-x-x----||
|--5-5--5-5--x-x---5--5--5-5--x-x-|--7--7-7-7-x-x-7-7-7-7-x-x----||
|--8-8--8-8--x-x---8--8--8-8--x-x-|--7--7-7-7-x-x-7-7-7-7-x-x----||


 3:04
  N.C.
  Gtrs I, II
                                     PM----|
  Q  Q  E E E q  E +Q      q  q  E E E E E E E E   E E E E E E  E E E  E E E
|------------------------|-----------------------|----------------------------|
|------------------------|-----------------------|----------------------------|
|------------------------|-9--8------------------|----------------------------|
|-7--7--7-7-x-7--7-(7)\--|-----------------------|---0-0---0-0----0-0----0-0--|
|------------------------|-5--4--0-----------0-5-|-7-----8-----10-----12------|
|-7--7--7-7-x-7--7-(7)\--|---------3-2-0-2-3-----|----------------------------|


  Gtr I
                      ~
   E E E E  E  E  E E Q  +Q
|------------------------------|
|------------------------------|
|------------------------------|
|-10p9---9-10-13-10p9----------|
|------9--------------9--(9)\--|
|------------------------------|
|
| Gtr II
|                     ~
|  E E E E  E  E  E E Q  +Q
|------------------------------|
|------------------------------|
|------------------------------|
|-10p9---9-10-13-10p9----------|
|------9--------------9--(9)\--|
|------------------------------|


   E  E  E  E  E  E  E  E E  E E E   E E E E E E E E E E E E
|----------------------------------|--------------------------||
|----------------------------------|--------------------------||
|----------------------------------|--------------------------||
|-13p12-11-12-10-11-11p10-9-10-8-9-|-7h8---7------------------||
|----------------------------------|-----9---8h9-7h8---7------||
|----------------------------------|-----------------9---8h9--||
|
|  E  E  E  E  E  E  E  E E  E E E   E E E E E E E E E E E E
|----------------------------------|--------------------------||
|----------------------------------|--------------------------||
|----------------------------------|--------------------------||
|-12p11-10-11--9-10-10p=9-8--9-7-8-|-6h7---6------------------||
|----------------------------------|-----8---7h8-6h7---6------||
|----------------------------------|-----------------8---7h8--||


 3:15
  D5
  Gtrs I, II
                                    >
  W.              +W.              +W.
|---------------|----------------|--------|
|---------------|----------------|--------|
|---------------|----------------|--------|
|-0-------------|-(0)------------|-(0)----|
|-0-------------|-(0)------------|-(0)----|
|-0-------------|-(0)------------|-(0)----|


                   N.C.
  +W.              Wx20
|----------------|---------||
|----------------|---------||
|----------------|---------||
|-(0)------------|---------||
|-(0)------------|---------||
|-(0)------------|---------||


   3:58
    D+                                D
    Gtr IV
     W.              +W.               W.              +W.
||-----------------|----------------|----------------|--------|
||o-^5-------------|-(5)------------|-^5-------------|-(5)----|
||--^5-------------|-(5)------------|-^4-------------|-(4)----|
||--^4-------------|-(4)------------|-^4-------------|-(4)----|
||o----------------|----------------|----------------|--------|
||-----------------|----------------|----------------|--------|


  Dm
   W.              +W.
|----------------|----------------|
|-^5-------------|-(5)------------|
|-^4-------------|-(4)------------|
|-^3-------------|-(3)------------|
|----------------|----------------|
|----------------|----------------|


  N.C.
  Q.   Q  E E Q  Q  E    Q  E Q  E Q  E Q  E     4x
|---------------------|--------------------------||
|---------------------|-------------------------o||
|------4----4s2--1--2-|-/5----5----4----4--------||
|---------0-----------|-----0----0----0----0-----||
|---------------------|-------------------------o||
|-0-------------------|--------------------------||


    D+                                  D
      W.               +W.               W.               +W.
||------------------|-----------------|----------------|---------|
||o-^-5-------------|--(5)------------|-^5-------------|--(5)----|
||--^-5-------------|--(5)------------|-^4-------------|--(4)----|
||--^-4-------------|--(4)------------|-^4-------------|--(4)----|
||o-----------------|-----------------|----------------|---------|
||------------------|-----------------|----------------|---------|
|
|   Gtr III
|     W.               +W.               W.               +W.
||------------------|-----------------|----------------|---------|
||o-/13-------------|-(13)------------|-12-------------|-(12)----|
||------------------|-----------------|----------------|---------|
||------------------|-----------------|----------------|---------|
||o-----------------|-----------------|----------------|---------|
||------------------|-----------------|----------------|---------|


  Dm
   W.              +W.
|----------------|----------------|
|-^5-------------|-(5)------------|
|-^4-------------|-(4)------------|
|-^3-------------|-(3)------------|
|----------------|----------------|
|----------------|----------------|
|
|  W.              +W.
|----------------|----------------|
|-\8-------------|-(8)------------|
|----------------|----------------|
|----------------|----------------|
|----------------|----------------|
|----------------|----------------|


  1.
  N.C.
  Q.   Q  E E Q  Q  E    Q   E Q  E Q  E Q  E
|---------------------|---------------------------||
|---------------------|--------------------------o||
|------4----4s2--1--2-|-/5-----5----4----4--------||
|---------0-----------|------0----0----0----0-----||
|---------------------|--------------------------o||
|-0-------------------|---------------------------||
|
| W.                    +W.
|---------------------|---------------------------||
|-5-------------------|-(5)----------------------o||
|---------------------|---------------------------||
|---------------------|---------------------------||
|---------------------|--------------------------o||
|---------------------|---------------------------||


  2.
  Gmadd9
    W.               +W.
|-^-5-------------|--(5)------------|
|-^-5-------------|--(5)------------|
|-^-5-------------|--(5)------------|
|-^-5-------------|--(5)------------|
|-----------------|-----------------|
|-----------------|-----------------|
|
|   W.               +W.
|-----------------|-----------------|
|-/17-------------|-(17)------------|
|-----------------|-----------------|
|-----------------|-----------------|
|-----------------|-----------------|
|-----------------|-----------------|


   5:25
    D5              A5/E              C#5              A5
    Gtr III
     Q   E  Q     E  Q   E  Q     E    W.
||----------------------------------|--------------------------------|
||o---------------------------------|--------------------------------|
||--12--12-12----12-12--12-12----12-|-11-----------------------------|
||----------------------------------|--------------------------------|
||o---------------------------------|--------------------------------|
||----------------------------------|--------------------------------|
|
|   Gtrs I, II
|    Q   E  E  E  E  Q   E  E  E  E    Q    E  E  E  E Q  E E E E
||----------------------------------|--------------------------------|
||o---------------------------------|--------------------------------|
||----------------------------------|--------------------------------|
||--14--14-14-14-14-14--14-14-14-14-|--------------------------------|
||o-12--12-12-12-12-12--12-12-12-12-|-11---11-11-11-11-7--7-7-7-7----|
||--12--12-12-12-12-14--14-14-14-14-|-11---11-11-11-11-7--7-7-7-7----|


  D5              A5/E
   Q   E  Q     E  E  Q     Q     E
|-----------------------------------|
|-----------------------------------|
|-12--12-12----12-12s14----14----12-|
|-----------------------------------|
|-----------------------------------|
|-----------------------------------|
|
|  Q   E  E  E  E  Q     E  E  E  E
|-----------------------------------|
|-----------------------------------|
|-----------------------------------|
|-14--14-14-14-14-14----14-14-14-14-|
|-12--12-12-12-12-12----12-12-12-12-|
|-12--12-12-12-12-14----14-14-14-14-|


  C#5               A5              E5              B5/F#
   E  E  H           +H.             Q   E  Q     E  Q   E  Q     E
|---------------------------------|----------------------------------|
|---------------------------------|-10--10-10----10-10--10-10----10--|
|-14s12-11----------(11)----------|----------------------------------|
|---------------------------------|----------------------------------|
|---------------------------------|----------------------------------|
|---------------------------------|----------------------------------|
|
|  Q     E  E  E  E   Q   E E E E    Q   E  E  E  E  Q   E  E  E  E
|---------------------------------|----------------------------------|
|---------------------------------|----------------------------------|
|---------------------------------|----------------------------------|
|---------------------------------|----------------------------------|
|-11----11-11-11-11---7---7-7-7-7-|-14--14-14-14-14-14--14-14-14-14--|
|-11----11-11-11-11---7---7-7-7-7-|-14--14-14-14-14-16--16-16-16-16--|


  Eb5                               G5              F5
   Q   E  Q     E  Q   E  Q     E    Q   E  Q     E  Q   E  Q.
|-----10-------10-----10-------10-|-----10-------10-----10-----------|
|-13-----13-------13-----13-------|-13-----13-------12-----12/-------|
|---------------------------------|----------------------------------|
|---------------------------------|----------------------------------|
|---------------------------------|----------------------------------|
|---------------------------------|----------------------------------|
|
|  Q   E  E  E  E  Q   E  E  E  E    Q   E  E  E  E  Q   E  E   E  E
|---------------------------------|----------------------------------|
|---------------------------------|----------------------------------|
|---------------------------------|----------------------------------|
|---------------------------------|----------------------------------|
|-13--13-13-13-13-13--13-13-13-13-|-17--17-17-17-17-15--15-15--15-15-|
|-13--13-13-13-13-13--13-13-13-13-|-17--17-17-17-17-15--15-15--15-15-|


  1.,2.,3.
  Eb5
   Q   E  Q     E  Q   E  Q.
|------------------------------------||
|-17-----17-------17-----17\--------o||
|-----20-------20-----20-------------||
|------------------------------------||
|-----------------------------------o||
|------------------------------------||
|
|  Q   E  E  E  E  Q   E  E   E  E
|------------------------------------||
|-----------------------------------o||
|------------------------------------||
|------------------------------------||
|-13--13-13-13-13-13--13-13--13-13--o||
|-13--13-13-13-13-13--13-13--13-13---||


                                    6:23
  4.
  Eb5                                N.C.
                                    12/8
                                                    >
   Q   E  Q     E  Q   E  Q     E     H.           +H.
|---------------------------------||----------------------------|
|-17-----17-------17-----17-------||-17-----------(17)----------|
|-----20-------20-----20-------20-||----------------------------|
|---------------------------------||----------------------------|
|---------------------------------||----------------------------|
|---------------------------------||----------------------------|
|
|  Q   E  E  E  E  Q   E  E  E  E     E E E E E E   E E E E E E
|---------------------------------||----------------------------|
|---------------------------------||----------------------------|
|---------------------------------||----------------------------|
|---------------------------------||----------------------------|
|-13--13-13-13-13-13--13-13-13-13-||----------------------------|
|-13--13-13-13-13-13--13-13-13-13-||--1p0-0-1p0-0---1p0-1p0-0-0-|


  W                         W
|-------------------------|--------------------------|
|-------------------------|--------------------------|
|-------------------------|--------------------------|
|-------------------------|--------------------------|
|-------------------------|--------------------------|
|-------------------------|--------------------------|
|
| E E E E E E E E E E E E   E E E E E E E E E E E E
|-------------------------|--------------------------|
|-------------------------|--------------------------|
|-------------------------|--------------------------|
|-------------------------|--------------------------|
|-------------------------|--------------------------|
|-1p0-0-1p0-0-1p0-1p0-0-0-|-1p0-0-1p0-0-1p0-1p0-0-0--|


  Gtrs I, II
  E E E E E E E E E E E E     E E E E E E E E E E E E
|-------------------------||--------------------------|
|-------------------------||o-------------------------|
|-------9-----------------||--------------------------|
|-----6---6-----6---------||--------------------------|
|---5-------4s5---5-6p5---||o-------------------------|
|-0---------------------0-||--1p0-0-1p0-0-1p0-1p0-0-0-|


  E E E E E E E E E E E E
|--------------------------|
|--------------------------|
|--------------------------|
|--------------------------|
|--------------------------|
|-1p0-0-1p0-0-1p0-1p0-0-0--|


                            1.
  E E E E E E E E E E E E   E E E E E E E E E E E E
|-------------------------|--------------------------||
|-------------------------|-------------------------o||
|-------------------------|-------9------------------||
|-------------------------|-----6---6-----6----------||
|-------------------------|---5-------4s5---5-6p5---o||
|-1p0-0-1p0-0-1p0-1p0-0-0-|-0---------------------0--||


  2.
                        PM
  E E E E E E E E E E E E
|--------------------------|
|--------------------------|
|-------9------------------|
|-----6---6-----6----------|
|---5-------4s5---5-6p5----|
|-0---------------------0--|


      PM    PM        PM|       PM    PM        PM|
  E E E E E E E E E E E E   E E E E E E E E E E E E
|-------------------------|-------------------------|
|-------------------------|-------------------------|
|-------------------------|-------------------------|
|-------------------------|-------------------------|
|-------------------------|-------------------------|
|-1p0-0-1p0-0-1p0-1p0-0-0-|-1p0-0-1p0-0-1p0-1p0-0-0-|


      PM    PM        PM|                         PM
  E E E E E E E E E E E E   E E E E E E E E E E E E
|-------------------------|----------------------------||
|-------------------------|----------------------------||
|-------------------------|-------9--------------------||
|-------------------------|-----6---6-----6------------||
|-------------------------|---5-------4s5---5-6p5------||
|-1p0-0-1p0-0-1p0-1p0-0-0-|-0---------------------0----||


 6:52
         D5
  Gtr III
                   ~~~~~~~~~~~~~
   a      +Q.     +Q.      +Q.       a      +E    E  E
|------------------------------------------------12-13-|
|-15b17==(15)----(15)-----(15)r-----15b17==(15)r-------|
|------------------------------------------------------|
|------------------------------------------------------|
|------------------------------------------------------|
|------------------------------------------------------|
|
| Gtrs I, II
|                     PM|
|          Q   E   E  E E   E   E E          E    E  E
|------------------------------------------------------|
|------------------------------------------------------|
|------------------------------------------------------|
|----------0---0---0-------------------------0----0--0-|
|----------0---0---0--0-0--------------------0----0--0-|
|----------0---0---0--0-0---2p==0-0----------0----0--0-|


         N.C.
   a      +H.             a      +E   +E       +E   +Q     E    E  E  E E  E E E E E E  E E
|-15b17==(15)r-----------15b17==(15)r(15)b17==(15)r(15)------|---------------------------------|
|---------------------------------------------------------12-|-15-10-12-8h10-7h8---7-8s10-8----|
|------------------------------------------------------------|-------------------9-------------|
|------------------------------------------------------------|---------------------------------|
|------------------------------------------------------------|---------------------------------|
|------------------------------------------------------------|---------------------------------|
|
|          Q    E +E  Q           Q             E    E  E  E    E  E  E E  E E E E E E  E E
|------------------------------------------------------------|---------------------------------|
|------------------------------------------------------------|--0--0--0-0--0-0-----------------|
|------------------------------------------------------------|--0--0--0-0--0-0-----------------|
|---------/7----7-(7)-5-----------2-------------2----2--2--2-|--3--3--3-0--0-0-7-7-7-6--6-6\---|
|------------------------------------------------------------|---------------------------------|
|---------/7----7-(7)-5-----------2-------------2----2--2--2-|-----------------7-7-7-6--6-6\---|


                        Bb               B°     Dm/C
   E      +E   E  a      +E   +E   +S  S  E E E E E E
|--------------8--------------------------------------|
|-10b12==(10)r---10b12==(10)-(10)r(10)p8-10p8-7-8p7---|
|---------------------------------------------------9-|
|-----------------------------------------------------|
|-----------------------------------------------------|
|-----------------------------------------------------|
|
|  E       E   E          E    E    E     E E E E E E
|-----------------------------------------------------|
|-----------------------------------------------------|
|-----------------------------------0---------0-----0-|
|------------------------------0------------0-----0---|
|-------------------------1---------------2-----3-----|
|--1p======0---0--------------------------------------|


  D5                          N.C.
  ~~~~~~~~~~~~~~~~~~~~~~                                   ~~~~~~
  H.          Q.    +Q    E   a    +E  +E  E  E   E E  E E E +Q    +E
|---------------------------|-------------------------------------------|
|---------------------------|-------------------------------------------|
|-------------7-----(7)---9-|-----------------------7-------------------|
|-7-------------------------|-5b6==(5)r(5)----5--/7---\5----------------|
|---------------------------|--------------8-------------8-5-(5)---(5)/-|
|---------------------------|-------------------------------------------|
|
|         PM|
| Q   E E E E E E E  E  E E         Q      E +E   Q    Q   E  E  E  E
|---------------------------|-------------------------------------------|
|---------------------------|-------------------------------------------|
|---------------------------|-------------------------------------------|
|-0---0-0------------0--0-0-|------/7------7-(7)--5----2---2--2--2--2---|
|-0---0-0-0-0--------0--0-0-|-------------------------------------------|
|-0---0-0-0-0-2p0-0--0--0-0-|------/7------7-(7)--5----2---2--2--2--2---|


   a      +E   +E       +E   +E   +E   +E   E  E  E  E  E  E
|-------------------------------------------------------------|
|-10b12==(10)r(10)b12==(10)-(10)-(10)r(10)--------------------|
|------------------------------------------11h12----11--------|
|------------------------------------------------12----11h12--|
|-------------------------------------------------------------|
|-------------------------------------------------------------|
|
|          E    E        E    E    E    E   E  E  E  E  E  E
|-------------------------------------------------------------|
|----------0----0--------0----0----0----0---------------------|
|----------0----0--------0----0----0----0---------------------|
|----------3----3--------3----0----0----0---7--7--7--6--6--6\-|
|-------------------------------------------------------------|
|-------------------------------------------7--7--7--6--6--6\-|


           Bb       B°      Dm/C            D5
                                              ~~~~~~~~~~~~~~~~~~
   E  E  E  E  E  E  E  E E  E E E    a      +H.           +Q.      E  E E
|----------------------------------|----------------------------------------|
|-------10-12----12----------------|----------------------------------------|
|-11-12-------12----11h12-9h11-7h9-|-------------------------------------9--|
|----------------------------------|--------------------------------7h10----|
|----------------------------------|-10b12==(10)----------(10)r-------------|
|----------------------------------|----------------------------------------|
|
|                                                     PM|
|  E  E  E  E  E  E  E  E E  E E E            Q   E E E E   E   E E E  E E
|----------------------------------|----------------------------------------|
|----------------------------------|----------------------------------------|
|-----------------0-------0------0-|----------------------------------------|
|--------------0--------0------0---|----------0---0-0---------------0--0-0--|
|-----------1--------2-------3-----|----------0---0-0-0-0-----------0--0-0--|
|--1p=0--0-------------------------|----------0---0-0-0-0---2p==0-0-0--0-0--|


        N.C.
  a     +Q.    +Q     E a     +Q    E a     +E  +E      +E
|------------------------------------------------------------|
|---------------------8--------------------------------------|
|-9b11==(9)----(9)r-----9b11==(9)r--9-9b11==(9)r(9)b11==(9)r-|
|------------------------------------------------------------|
|------------------------------------------------------------|
|------------------------------------------------------------|
|
|        Q   E +E   Q          Q    E        E   E       E
|------------------------------------------------------------|
|------------------------------------------------------------|
|------------------------------------------------------------|
|-------/7---7-(7)--5----------2----2--------2---2-------2---|
|------------------------------------------------------------|
|-------/7---7-(7)--5----------2----2--------2---2-------2---|


                                         Bb      B°      Dm/C
                                   ~~~
  E E E   +E  E E Q.     E E E    +Q.     Q.     Q   S S Q.
|-------------------------------|---------------------------------|
|-------------------------------|---------------------------------|
|-7h9---------------------------|---------------------------------|
|-----7b8r(7)-5-7---------------|--------/7------6h==7p6-5--------|
|-----------------7------5-7-8--|-(8)-----------------------------|
|-------------------------------|---------------------------------|
|
| E E E    E  E E E  E E E E E     E E E  E  E E E E E   E  E E
|-------------------------------|---------------------------------|
|-0-0-0----0--0-0---------------|---------------------------------|
|-0-0-0----0--0-0---------------|--------------0-----0--------0---|
|-3-3-3----0--0-0-7--7-7-6-6-6\-|------------0-----0--------0-----|
|-------------------------------|---------1------2-------3--------|
|-----------------7--7-7-6-6-6\-|--1p0-0--------------------------|


  D5
  H.          +E   a       +Q     +E   +E   +E
|----------------[13]b15==(13)---(13)-(13)r(13)-|
|-----------------------------------------------|
|-----------------------------------------------|
|-3-----------(3)-------------------------------|
|-----------------------------------------------|
|-----------------------------------------------|
|
|         PM|
| Q   E E E E  E            E  E   E    E    E
|-----------------------------------------------|
|-----------------------------------------------|
|-----------------------------------------------|
|-0---0-0--------------------------0----0----0--|
|-0---0-0-0-0----------------------0----0----0--|
|-0---0-0-0-0--2p===========0--0---0----0----0--|


  N.C.
                       ~~~~~~~~~~~
   E  E  E  E   E   E  Q.     +Q     +E     E E  E  E  E  E  S  S  S  S  E  E  E  E
|-12h13-12--------------------------------|-----------10-12-12h13p12p10----10--------|
|----------15-----------------------------|---8-10s12-------------------12----12-10--|
|--------------14-\12-11-----(11)---(11)\-|-9----------------------------------------|
|-----------------------------------------|------------------------------------------|
|-----------------------------------------|------------------------------------------|
|-----------------------------------------|------------------------------------------|
|
|  Q     E +E   Q      Q   E   E  E   E     E E  E  E  E  E  E     E     E  E  E  E
|-----------------------------------------|------------------------------------------|
|-----------------------------------------|-0-0--0--0--0--0--------------------------|
|-----------------------------------------|-0-0--0--0--0--0--------------------------|
|-/7-----7-(7)--5------2---2---2--2---2---|-3-3--3--0--0--0--7-----7-----7--6--6--6\-|
|-----------------------------------------|------------------------------------------|
|-/7-----7-(7)--5------2---2---2--2---2---|------------------7-----7-----7--6--6--6\-|


                 Bb           B°    Dm/C
   E  E E  a      +E    S S E E E E  Q   E
|------------------------------------------|
|-12p10s8-10b12==(10)r-10p8---8------------|
|---------------------------9---9s7-\2---0-|
|------------------------------------------|
|------------------------------------------|
|------------------------------------------|
|
|  E  E E          E    E   E E E E  E E E
|------------------------------------------|
|------------------------------------------|
|---------------------------0-----0------0-|
|-----------------------0-------0------0---|
|------------------1----------2------3-----|
|--1p=0-0----------------------------------|


    D5
 6/4
  a Q   E  E E E +H.          +W.     3x
|-------------------------||----------||
|-------3-----------------||o--------o||
|-2s4-----\2-0------------||----------||
|--------------2-(2)------||--(2)-----||
|-------------------------||o--------o||
|-------------------------||----------||
|
|   W.                        +W.     3x
|-------------------------||----------||
|-------------------------||o--------o||
|-------------------------||----------||
|---0---------------------||--(0)-----||
|---0---------------------||o-(0)----o||
|---0---------------------||--(0)-----||


   7:28
    Fmaj9/D                 Fmaj9/C                 Fmaj9/B
    Gtr V
    Q  E E E E E E E Q  E   Q  E E E E E E E Q  E   Q  E E E E E E E Q  E
||-------------------0----|------------------0----|------------------0----|
||o------------0--------0-|------------0--------0-|------------0--------0-|
||-------2-------2--------|------2-------2--------|------2-------2--------|
||-----3---3--------------|----3---3--------------|----3---3--------------|
||o-5--------5-----5------|-3--------3-----3------|-2--------2-----2------|
||------------------------|-----------------------|-----------------------|


  F6     Bb5   Bbb5  Ebsus2    N.C.
   E E E E E E E E E E E E  4x Q  E E E E E E E E E E   Q  Q  Q  H.
|----5-----1-----0----------||------------------------|-5--------------|
|-/5-----2-----1-------1---o||----------0-----0-----0-|----8-----------|
|------0-----0-----0-----0--||--------5---8p5---9-----|-------6--------|
|--------------------1------||----6s7-------------8---|----------7-----|
|--------------------------o||-4----------------------|----------------|
|---------------------------||------------------------|----------------|


   8:03
    B+sus2
    Q   E E E E  E E E Q   E  8x
||--7------------------0------||
||o----10-------10--------10-o||
||--------8---8----8----------||
||----------9--------9--------||
||o--------------------------o||
||----------------------------||


  G#m   Bmaj7/Bb            Bm    Dmaj7/CD
  E E E E E E E E E E E E   E E E  E E E  E E E E  E E
|-------------------------|----------------------------|
|-----6-----6-----6-------|-----9------9------9--------|
|---6-----6-----6---6---6-|---9------9------9---9----9-|
|-6-----8-----9-------9---|-9-----11-----12-------12---|
|-------------------------|----------------------------|
|-------------------------|----------------------------|


  Dm       Fmaj7/E  F
   E  E  E  E  E  E  E  E  E  E  E  E
|-------------------------------------|
|-------12-------12-------12----------|
|----12-------12-------12----12----12-|
|-12-------14-------15----------15----|
|-------------------------------------|
|-------------------------------------|


  A5/E    A5/Eb   N.C.          G#m   Bmaj7/Bb    B/Eb
   E  E E  E  E E E E E E E E   E E E E E E E E E E E E
|-----------------------------|--------------------------|
|-------0-------0---0---0-----|-----6-----6-----6-----6--|
|----11------11---5-------5---|---6-----6-----6-----6----|
|-14------13----------7-----7-|-6-----8-----9------------|
|-----------------------------|-------------------6------|
|-----------------------------|--------------------------|


  Bbmaj7b9/D               A5    A5/EA5/E    A5/C  A5/D
  Q  E E E E E E E E E E   E E E E E E E E E E  E   E
|----------5-------------|-----0-----------------------|
|----5-------5-----5-----|---0-----------0-------------|
|------5-------5-----5---|-4-------4---4---4----4--(4)-|
|--------9-------9-----9-|-------1---2--------------0--|
|-5----------------------|-------------------3-(3)-----|
|------------------------|-----------------------------|


        A5/BA5
  E E E E E E +Q.   Q.
|-------------------------||
|---0---------------------||
|-4---4---4---------------||
|-------------------------||
|-------1---0-(0)---------||
|-------------------------||


    B+sus2
    Q   E E E E  E E E Q   E  8x
||--7------------------0------||
||o----10-------10--------10-o||
||--------8---8----8----------||
||----------9--------9--------||
||o--------------------------o||
||----------------------------||


  G#m   Bmaj7/Bb            Bm    Dmaj7/CD
  E E E E E E E E E E E E   E E E  E E E  E E E E  E E
|-------------------------|----------------------------|
|-----6-----6-----6-------|-----9------9------9--------|
|---6-----6-----6---6---6-|---9------9------9---9----9-|
|-6-----8-----9-------9---|-9-----11-----12-------12---|
|-------------------------|----------------------------|
|-------------------------|----------------------------|


  Dm       Fmaj7/E  F
   E  E  E  E  E  E  E  E  E  E  E  E
|-------------------------------------|
|-------12-------12-------12----------|
|----12-------12-------12----12----12-|
|-12-------14-------15----------15----|
|-------------------------------------|
|-------------------------------------|


  A5/E    A5/Eb   N.C.          G#m   Bmaj7/Bb    B/Eb
   E  E E  E  E E E E E E E E   E E E E E E E E E E E E
|-----------------------------|--------------------------|
|-------0-------0---0---0-----|-----6-----6-----6-----6--|
|----11------11---5-------5---|---6-----6-----6-----6----|
|-14------13----------7-----7-|-6-----8-----9------------|
|-----------------------------|-------------------6------|
|-----------------------------|--------------------------|


  Bbmaj7b9/D               A5    A5/EA5/E    A5/C  A5/D
  Q  E E E E E E E E E E   E E E E E E E E E E  E   E
|----------5-------------|-----0-----------------------|
|----5-------5-----5-----|---0-----------0-------------|
|------5-------5-----5---|-4-------4---4---4----4--(4)-|
|--------9-------9-----9-|-------1---2--------------0--|
|-5----------------------|-------------------3-(3)-----|
|------------------------|-----------------------------|


        A5/BA5
  E E E E E E +Q.   Q.
|-------------------------||
|---0---------------------||
|-4---4---4---------------||
|-------------------------||
|-------1---0-(0)---------||
|-------------------------||


   9:07
    G#5  Bb5        D5     G#/C                      D5
   12/8
    Gtrs I, II
              PM--|
    Q.   Q.   E E E Q  E   E E E E E E E E E E E E   E E E E E E E E E E E E
||-----------------------|-------------------------|--------------------------|
||o----------------------|-------------------------|--------------------------|
||-----------------------|-------------------------|--------------------------|
||--6----8----------0--0-|-6-6-6-6-x-x-6-6-6-6-x-x-|-7-7-7-7-x-x-7-7-7-7-x-x--|
||o-6----8----------0--0-|-3-3-3-3-x-x-3-3-3-3-x-x-|-5-5-5-5-x-x-5-5-5-5-x-x--|
||--6----8----1-3-1-0--0-|-------------------------|-0-0-0-0-x-x-0-0-0-0-x-x--|


  Asus2                     Bb/Eb                     G#/C
  E E E E E E E E E E E E   E E E E E E E E E E E E   E E E E E E E E E E E E
|-------------------------|-------------------------|--------------------------|
|-------------------------|-------------------------|--------------------------|
|-6-6-6-6-x-x-6-6-6-6-x-x-|-9-9-9-9-x-x-9-9-9-9-x-x-|--------------------------|
|-7-7-7-7-x-x-7-7-7-7-x-x-|-8-8-8-8-x-x-8-8-8-8-x-x-|-6-6-6-6-x-x-6-6-6-6-x-x--|
|-7-7-7-7-x-x-7-7-7-7-x-x-|-6-6-6-6-x-x-6-6-6-6-x-x-|-3-3-3-3-x-x-3-3-3-3-x-x--|
|-7-7-7-7-x-x-7-7-7-7-x-x-|-------------------------|--------------------------|


  D5                        Asus2
  E E E E E E E E E E E E   E E E E E E E E E E E E
|-------------------------|-------------------------|
|-------------------------|-------------------------|
|-------------------------|-6-6-6-6-x-x-6-6-6-6-x-x-|
|-7-7-7-7-x-x-7-7-7-7-x-x-|-7-7-7-7-x-x-7-7-7-7-x-x-|
|-5-5-5-5-x-x-5-5-5-5-x-x-|-7-7-7-7-x-x-7-7-7-7-x-x-|
|-0-0-0-0-x-x-0-0-0-0-x-x-|-7-7-7-7-x-x-7-7-7-7-x-x-|


 1.                           2.
  Bb/Eb
  E E E E E E E E E E E E     E E E E E E E E E Q.
|--------------------------||-------------------------|
|-------------------------o||-------------------------|
|-9-9-x-9-9-x-9-9-x-9-9-x--||-9-9-x-9-9-x-9-9-x-9-----|
|-8-8-x-8-8-x-8-8-x-8-8-x--||-8-8-x-8-8-x-8-8-x-8-----|
|-6-6-x-6-6-x-6-6-x-6-6-x-o||-6-6-x-6-6-x-6-6-x-6-----|
|--------------------------||-------------------------|


   9:43
    D5/A        F/A           C5/A        G/A
   6/4
    Gtrs I, II, IV
    E E E E E E E E E E E E   E E E E E E E E E E E E
||--5-5-5-5-x-x-8-8-8-8-8-8-|-3-3-3-3-3-3-3-3-3-3-x-x--|
||o-5-5-5-5-x-x-8-8-8-8-8-8-|-3-3-3-3-3-3-2-2-2-2-x-x--|
||--4-4-4-4-x-x-7-7-7-7-7-7-|-2-2-2-2-2-2-2-2-2-2-x-x--|
||--------------------------|--------------------------|
||o-0-0-0-0-x-x-0-0-0-0-0-0-|-0-0-0-0-0-0-0-0-0-0------|
||--------------------------|--------------------------|


  D5                        C5/F       C/E
  Gtrs I, II
  E E E E E E E E E E E E   Q  Q   Q   Q  Q   Q
|-------------------------|------------------------||
|-5-5-5-5-5-5-5-5-5-5-5-5-|--------3----------3---o||
|-4-4-4-4-4-4-4-4-4-4-4-4-|----2----------2--------||
|-0-0-0-0-0-0-0-0-0-0-0-0-|-3----------2-----------||
|-------------------------|-----------------------o||
|-------------------------|------------------------||
|
| Gtr IV
| E E E E E E E E E E E E   Q  E E E E Q  E E E E
|-------------------------|------------------------||
|-5-5-5-5-5-5-5-5-5-5-5-5-|-3--3-3-3-3-3--3-3-3-3-o||
|-4-4-4-4-4-4-4-4-4-4-4-4-|-2--2-2-2-2-2--2-2-2-2--||
|-0-0-0-0-0-0-0-0-0-0-0-0-|-3--3-3-3-3-2--2-2-2-2--||
|-------------------------|-----------------------o||
|-------------------------|------------------------||


    D5/A        F/A           C5/A        G/A
   12/8
    Gtrs I, II, IV
    E E E E E E E E E E E E   E E E E E E E E E E E E
||--5-5-5-5-x-x-8-8-8-8-8-8-|-3-3-3-3-3-3-3-3-3-3-x-x--|
||o-5-5-5-5-x-x-8-8-8-8-8-8-|-3-3-3-3-3-3-2-2-2-2-x-x--|
||--4-4-4-4-x-x-7-7-7-7-7-7-|-2-2-2-2-2-2-2-2-2-2-x-x--|
||--------------------------|--------------------------|
||o-0-0-0-0-x-x-0-0-0-0-0-0-|-0-0-0-0-0-0-0-0-0-0------|
||--------------------------|--------------------------|


  D5                        C5/F       C/E
  Gtrs I, II
  E E E E E E E E E E E E   Q  Q   Q   Q  Q   Q
|-------------------------|------------------------||
|-5-5-5-5-5-5-5-5-5-5-5-5-|--------3----------3---o||
|-4-4-4-4-4-4-4-4-4-4-4-4-|----2----------2--------||
|-0-0-0-0-0-0-0-0-0-0-0-0-|-3----------2-----------||
|-------------------------|-----------------------o||
|-------------------------|------------------------||
|
| Gtr IV
| E E E E E E E E E E E E   Q  E E E E Q  E E E E
|-------------------------|------------------------||
|-5-5-5-5-5-5-5-5-5-5-5-5-|-3--3-3-3-3-3--3-3-3-3-o||
|-4-4-4-4-4-4-4-4-4-4-4-4-|-2--2-2-2-2-2--2-2-2-2--||
|-0-0-0-0-0-0-0-0-0-0-0-0-|-3--3-3-3-3-2--2-2-2-2--||
|-------------------------|-----------------------o||
|-------------------------|------------------------||


 10:14
  G#/C                      D5
  Gtrs I, II
  E E E E E E E E E E E E   E E E E E E E E E E E E
|-------------------------|-------------------------|
|-------------------------|-------------------------|
|-------------------------|-------------------------|
|-6-6-6-6-x-x-6-6-6-6-x-x-|-7-7-7-7-x-x-7-7-7-7-x-x-|
|-3-3-3-3-x-x-3-3-3-3-x-x-|-5-5-5-5-x-x-5-5-5-5-x-x-|
|-------------------------|-0-0-0-0-x-x-0-0-0-0-x-x-|


  Asus2                     Bb/Eb                     G#/C
  E E E E E E E E E E E E   E E E E E E E E E E E E   E E E E E E E E E E E E
|-------------------------|-------------------------|--------------------------|
|-------------------------|-------------------------|--------------------------|
|-6-6-6-6-x-x-6-6-6-6-x-x-|-9-9-9-9-x-x-9-9-9-9-x-x-|--------------------------|
|-7-7-7-7-x-x-7-7-7-7-x-x-|-8-8-8-8-x-x-8-8-8-8-x-x-|-6-6-6-6-x-x-6-6-6-6-x-x--|
|-7-7-7-7-x-x-7-7-7-7-x-x-|-6-6-6-6-x-x-6-6-6-6-x-x-|-3-3-3-3-x-x-3-3-3-3-x-x--|
|-7-7-7-7-x-x-7-7-7-7-x-x-|-------------------------|--------------------------|


  D5                        Asus2                     Bb/Eb
  E E E E E E E E E E E E   E E E E E E E E E E E E   E E E E E E E E E E E E
|-------------------------|-------------------------|--------------------------|
|-------------------------|-------------------------|--------------------------|
|-------------------------|-6-6-6-6-x-x-6-6-6-6-x-x-|-9-9-x-9-9-x-9-9-x-9-9-x--|
|-7-7-7-7-x-x-7-7-7-7-x-x-|-7-7-7-7-x-x-7-7-7-7-x-x-|-8-8-x-8-8-x-8-8-x-8-8-x--|
|-5-5-5-5-x-x-5-5-5-5-x-x-|-7-7-7-7-x-x-7-7-7-7-x-x-|-6-6-x-6-6-x-6-6-x-6-6-x--|
|-0-0-0-0-x-x-0-0-0-0-x-x-|-7-7-7-7-x-x-7-7-7-7-x-x-|--------------------------|


                                                      G#5  Bb5        D5
                                                                PM--|
  E E E E E E E E E E E E   E E E E E E E E E E E E   Q.   Q.   E E E Q  E
|-------------------------|-------------------------|-----------------------*|
|-------------------------|-------------------------|-----------------------*|
|-9-9-x-9-9-x-9-9-x-9-9-x-|-9-9-x-9-9-x-9-9-x-9-9-x-|-----------------------*|
|-8-8-x-8-8-x-8-8-x-8-8-x-|-8-8-x-8-8-x-8-8-x-8-8-x-|-6----8----------0-----*|
|-6-6-x-6-6-x-6-6-x-6-6-x-|-6-6-x-6-6-x-6-6-x-6-6-x-|-6----8----------0-----*|
|-------------------------|-------------------------|-6----8----1-3-1-0-----*|



Duration Legend
---------------
W - whole; H - half; Q - quarter; E - 8th; S - 16th; T - 32nd; X - 64th; a - acciaccatura
+ - note tied to previous; . - note dotted; .. - note double dotted
Uncapitalized letters represent notes that are staccato (1/2 duration)
Irregular groupings are notated above the duration line
Duration letters will always appear directly above the note/fret number it represents the
duration for.  Duration letters with no fret number below them represent rests.  Multi-
bar rests are notated in the form Wxn, where n is the number of bars to rest for.  Low
melody durations appear below the staff

Tablature Legend
----------------
 h   - hammer-on
 p   - pull-off
 b   - bend
 pb  - pre-bend
 r   - bend release (if no number after the r, then release immediately)
 /\  - slide into or out of (from/to "nowhere")
 s   - legato slide
 S   - shift slide
 - natural harmonic
[n]  - artificial harmonic
n(n) - tapped harmonic
 ~   - vibrato
 tr  - trill
 T   - tap
 TP  - trem. picking
 PM  - palm muting
\n/  - tremolo bar dip; n = amount to dip
 \n  - tremolo bar down
 n/  - tremolo bar up
/n\  - tremolo bar inverted dip
 =   - hold bend; also acts as connecting device for hammers/pulls
 <> - volume swell (louder/softer)
 x   - on rhythm slash represents muted slash
 o   - on rhythm slash represents single note slash

Misc Legend
-----------
 |  - bar
||  - double bar
||o - repeat start
o|| - repeat end
*|  - double bar (ending)
 :  - bar (freetime)
 $  - Segno
 &  - Coda
Tempo markers -  = BPM(8/16=s8/s16), where s8 = swing 8ths, s16 = swing 16ths

comments
We did not receive enough feedback on this tab! Please rate:
print report bad tab
1 2 3 4 5
3 comments total.
+1 reply
MutilationOfMan wrote on April 9 2010, 10:52 am

what a weird tuning what is it??? never heard of it before

0 reply
spongemonkey95 wrote on March 12 2011, 10:18 pm

Yeah, it seems this could have just been tabbed in drop D, but nice work though, I managed to transcribe most of it and it sounds good. Badass song!

0 reply
metalz4life wrote on July 1 2013, 06:20 am

MutilationOfMan It is a variant of Open D Tuning which is DADF♯AD in this case the tuning is DADFAE and it is so named Open Dmadd9 Tuning.

I want to post or [tab]
guest
You may want to rate the tab now too:
select rating
Please do not post tabs as comments. Select "correction" instead!