Oops, an error
Loading. Please wait.

Blackwater Park Tab

ver2
ver2

Whole song

Interactive

More versions @911Tabs.com
21,271 views 54 this week
2 commentsread comments
1 2 3 4 5
accurate
x 11
add to favorites launch autoscroll
font size
0
reset
Autoscroll
+/-
esc
set tempo
stop
Contributor
Tuning
D A D G B E
WARNING: You are trying to view
                                    content from Ultimate-Guitar.com
                                    in an unauthorized application,
                                    which is prohibited.

                                    Please use an official Ultimate
                                    Guitar Tabs application for iPhone,
                                    iPad or Android to access legitimate
                                    chords, guitar, bass, and drum tabs
                                    from Ultimate-Guitar.com database.

                                    Type "ultimate guitar tabs" in Apple
                                    App Store's or Android Market's
                                    search to find the application.
#----------------------------------PLEASE NOTE---------------------------------#
#This file is the author's own work and represents their interpretation of the #
#song. You may only use this file for private study, scholarship, or research. #
#------------------------------------------------------------------------------#

BLACKWATER PARK
As recorded by Opeth
(From the 2001 Album BLACKWATER PARK)

Transcribed by Anton Lidström (discoloredcactus@hotmail.com)
	

Words and Music by Mikael Åkerfeldt
Arranged by Opeth

Dmadd9
x 5 7 7 6 0
	
Fm/maj7
x 8 10 10 9 0
	
F5
3 3 3 x x x
	
D5
0 0 0 x x x

G5
5 5 5 x x x

Gtr I (D A D G B E) - 'Distorted Guitar 1'
Gtr II (D A D G B E) - 'Distorted Guitar 2'
Gtr III (D A D G B E) - 'Distorted Guitar 3'
Gtr IV (D A D G B E) - 'Acoustic Guitar 1'
Gtr V (D A D G B E) - 'Clean Guitar 1'

 Intro
  Moderately Q=89
  N.C.                         C#m7
 4/4        2/4               4/4
  Gtrs I, II
                 |-3-|
  W           E  S S S E E     E S S S S E S S S S E S S
|----------|---------------||--0-0-0-x-x-0-0-0-0-0-0------|
|----------|---------------||o-0-0-0-x-x-0-0-0-0-0-0-0-0--|
|----------|---------------||--6-6-6-x-x-6-6-6-6-6-6-0-0--|
|----------|---------------||--6-6-6-x-x-6-6-6-6-6-6-0-0--|
|----------|-/8--7h8p7-5-0-||o-4-4-4-x-x-4-4-4-4-4-4------|
|----------|---------------||-----------------------------|
|
| Gtr III
| <
| W          +H                W
|----------|---------------||-----------------------------|
|----------|---------------||o----------------------------|
|-9--------|-(9)-----------||--9--------------------------|
|----------|---------------||-----------------------------|
|----------|---------------||o----------------------------|
|----------|---------------||-----------------------------|


  F6                          AmAsus2
  E S S S S E S S S S E S S   S  S  S S S S E S S S S E S S
|---------------------------|-0-(0)-0-0-x-x-0-0-0-0-0-0-----|
|-3-3-3-x-x-3-3-3-3-3-3-0-0-|-1p=0--0-0-x-x-0-0-0-0-0-0-0-0-|
|-2-2-2-x-x-2-2-2-2-2-2-0-0-|-2-(2)-2-2-x-x-2-2-2-2-2-2-0-0-|
|-0-0-0-x-x-0-0-0-0-0-0-0-0-|-2-(2)-2-2-x-x-2-2-2-2-2-2-0-0-|
|---------------------------|-0-(0)-0-0-x-x-0-0-0-0-0-0-----|
|-3-3-3-x-x-3-3-3-3-3-3-----|-------------------------------|
|
| W                           W
|---------------------------|-------------------------------|
|---------------------------|-------------------------------|
|-7-------------------------|-5-----------------------------|
|---------------------------|-------------------------------|
|---------------------------|-------------------------------|
|---------------------------|-------------------------------|


  Eb
  E S S S S E S S S S E S S
|-----------------------------|
|-----------------------------|
|-0-0-0-x-x-0-0-0-0-0-0-0-0---|
|-1-1-1-x-x-1-1-1-1-1-1-1-1---|
|-1-1-1-x-x-1-1-1-1-1-1-1-1---|
|-1-1-1-x-x-1-1-1-1-1-1-1-1---|
|
| W
|-----------------------------|
|-----------------------------|
|-4---------------------------|
|-----------------------------|
|-----------------------------|
|-----------------------------|


  C#m7                        F6
  E S S S S E S S S S E S S     E S S S S E   S  S S S E  S S
|-0-0-0-x-x-0-0-0-0-0-0-----|---------------------------------|
|-0-0-0-x-x-0-0-0-0-0-0-0-0-|---3-3-3-x-x-3---3--3-3-3-3--0-0-|
|-6-6-6-x-x-6-6-6-6-6-6-0-0-|---2-2-2-x-x-2---2--2-2-2-2--0-0-|
|-6-6-6-x-x-6-6-6-6-6-6-0-0-|---0-0-0-x-x-0---0--0-0-0-0--0-0-|
|-4-4-4-x-x-4-4-4-4-4-4-----|---------------------------------|
|---------------------------|---3-3-3-x-x-3---3--3-3-3-3------|
|
| W                             H            +Q.          E
|---------------------------|---------------------------------|
|---------------------------|-/10-----------(10)---------12---|
|-9-------------------------|---------------------------------|
|---------------------------|---------------------------------|
|---------------------------|---------------------------------|
|---------------------------|---------------------------------|


  1.,2.
  Am Asus2
   S  S  S S   S   S  E   S  S S S E    S S
|--0-(0)-0-0---x---x--0---0--0-0-0-0----------|
|--1p=0--0-0---x---x--0---0--0-0-0-0----0-0---|
|--2-(2)-2-2---x---x--2---2--2-2-2-2----0-0---|
|--2-(2)-2-2---x---x--2---2--2-2-2-2----0-0---|
|--0-(0)-0-0---x---x--0---0--0-0-0-0----------|
|---------------------------------------------|
|
|  Q          +E      E  +Q        Q
|---------------------------------------------|
|-12---------(12)\---10-(10)------------------|
|----------------------------------7b8========|
|---------------------------------------------|
|---------------------------------------------|
|---------------------------------------------|


  Eb
   E   S S S S E S S S S E S S
|-------------------------------||
|------------------------------o||
|--0---0-0-x-x-0-0-0-0-0-0-0-0--||
|--1---1-1-x-x-1-1-1-1-1-1-1-1--||
|--1---1-1-x-x-1-1-1-1-1-1-1-1-o||
|--1---1-1-x-x-1-1-1-1-1-1-1-1--||
|
| +W
|-------------------------------||
|------------------------------o||
|-(7)r--------------------------||
|-------------------------------||
|------------------------------o||
|-------------------------------||


  3.
  Am Asus2                                    Eb           E     F
   S  S  S S   S   S  E   S  S S S E    S S    E   S S S S E S S E E S S
|--0-(0)-0-0---x---x--0---0--0-0-0-0--------|----------------------------||
|--1p=0--0-0---x---x--0---0--0-0-0-0----0-0-|----------------------------||
|--2-(2)-2-2---x---x--2---2--2-2-2-2----0-0-|--0---0-0-x-x-1-1-1-2-------||
|--2-(2)-2-2---x---x--2---2--2-2-2-2----0-0-|--1---1-1-x-x-2-2-2-3-3-3-3-||
|--0-(0)-0-0---x---x--0---0--0-0-0-0--------|--1---1-1-x-x-2-2-2-3-3-3-3-||
|-------------------------------------------|--1---1-1-x-x-2-2-2-3-3-3-3-||
|
|  Q          +E      E  +Q        Q          +W
|-------------------------------------------|----------------------------||
|-12---------(12)\---10-(10)----------------|----------------------------||
|----------------------------------7b8======|=(7)r-----------------------||
|-------------------------------------------|----------------------------||
|-------------------------------------------|----------------------------||
|-------------------------------------------|----------------------------||


                                Instrumental Bre
  N.C.                           D5          Eb5
  Gtr I                          Gtrs I, II
  E S S E   +S  S S E S S E.     H.      +E. S
|----------------------------||----------------|
|----------------------------||o---------------|
|----------------------------||----------------|
|----------------------------||--0-------(0)---|
|----------------------------||o-0-------(0)-1p|
|-2-2p0-2b3r(2)-0-2s6-0-6h7\-||--0-------(0)-1p|
|
| Gtr II                         Gtr III
| E S S E   +S  S S E S S E.     H.      +E. S
|----------------------------||----------------|
|----------------------------||o---------------|
|-------1b2r(1)--------------||----------------|
|-2-2p0-2b3r(2)-0-2s6-0-6h7\-||--0-------(0)---|
|----------------------------||o-0-------(0)-1p|
|----------------------------||--0-------(0)-1p|
|
| Gtr III
| >
| W                              W
|----------------------------||----------------|
|----------------------------||o---------------|
|-9--------------------------||----------------|
|----------------------------||----------------|
|----------------------------||o---------------|
|----------------------------||----------------|


 ak #1
  D5N.C.                  F5     D5
              ~~ PM     PM
  S E    +S   E. S  S S S  S +S  S S S
|----------------------------------------||
|---------------------------------------o||
|----------------------------------5s6---||
|----------------------------------------||
|-0-4b5==(4)r-4-----------/3-(3)-0-3s4--o||
|-0--------------0-/6-3-0-/3-(3)-0-------||
|
|             ~~ PM     PM
| S E    +S   E. S  S S S  S +S  S S S
|----------------------------------------||
|---------------------------------------o||
|---6b7==(6)r-6--------------------5s6---||
|----------------------------------------||
|-0-----------------------/3-(3)-0-3s4--o||
|-0--------------0-/6-3-0-/3-(3)-0-------||
|
| W
|----------------------------------------||
|---------------------------------------o||
|----------------------------------------||
|----------------------------------------||
|---------------------------------------o||
|----------------------------------------||


    D5                                Eb5
    H.                       +E.      S
||--------------------------------------|
||o-------------------------------------|
||--------------------------------------|
||--0------------------------(0)--------|
||o-0------------------------(0)------1p|
||--0------------------------(0)------1p|
|
|                             |-3-|
|   S  S S S S S S S +S  E S  S S S S S
||--------------------------------------|
||o-------------------------------------|
||-----------5--------------------------|
||-----0-6h7---7-6-7-(7)-4-6--4h6p4-0---|
||o-0---------------------------------1p|
||--0---------------------------------1p|


  D5N.C.                   F5     D5
               ~~~PM     PM
  S E    +S    E. S  S S S  S +S  S S S  4x
|----------------------------------------||
|---------------------------------------o||
|-----------------------------------5s6--||
|----------------------------------------||
|-0-4b5==(4)r--4-----------/3-(3)-0-3s4-o||
|-0---------------0-/6-3-0-/3-(3)-0------||
|
|              ~~~PM     PM
| S E    +S    E. S  S S S  S +S  S S S  4x
|----------------------------------------||
|---------------------------------------o||
|---6b7==(6)r-[6]-------------------5s6--||
|----------------------------------------||
|-0------------------------/3-(3)-0-3s4-o||
|-0---------------0-/6-3-0-/3-(3)-0------||


   Pre-Verse/Verse #1
    N.C.                           D5
    Gtr IV
                     ~~~~~~
     E S S T T T T S S +S  S S S S e S
||--------------------------------------||
||o------------------------------------o||
||--------------------------------------||
||-----0-----------------------6--------||
||o-/5---5-4h5p4p0---------------5-0---o||
||-----------------0-1-(1)-0-6-----0-0--||
|
|   Gtrs I, II
|    W
||--------------------------------------||
||o------------------------------------o||
||--------------------------------------||
||--------------------------------------||
||o------------------------------------o||
||--------------------------------------||


  N.C.                               C5 D5   Bb5    G5    A5     F5 G5F5E5
                     ~~~~~~
   E   S S T T T T S S +S  S S S S S  E      W
|------------------------------------------|-------------------------------|
|------------------------------------------|-------------------------------|
|------------------------------------------|-------------------------------|
|------0-----------------------6-----------|-------------------------------|
|-/5-----5-4h5p4p0---------------5---------|-------------------------------|
|------------------0-1-(1)-0-6-----0-------|-------------------------------|
|
|                                                                     PM|
|  H..                                S  S   E +S   S +E  E +S   E. E S S
|------------------------------------------|-------------------------------|
|------------------------------------------|-------------------------------|
|------------------------------------------|-------------------------------|
|------------------------------------------|-------------------------------|
|------------------------------------10s12-|-8-(8)\-5-(5)-7-(7)\-3--5-3-2--|
|------------------------------------10s12-|-8-(8)\-5-(5)-7-(7)\-3--5-3-2--|


    N.C.                           D5    N.C.                           D5
    Gtrs I, II
                     ~~~~~~                               ~~~~~~
     E S S T T T T S S +S  S S S S e S    E S S T T T T S S +S  S S S S e S
||-------------------------------------|-------------------------------------|
||o------------------------------------|-------------------------------------|
||-------------------------------------|-------------------------------------|
||-----0-----------------------6-------|----0-----------------------6--------|
||o-/5---5-4h5p4p0---------------5-0---|-/5---5-4h5p4p0---------------5-0----|
||-----------------0-1-(1)-0-6-----0-0-|----------------0-1-(1)-0-6-----0-0--|


  N.C.                             C5 D5   Bb5    G5    A5     F5 G5F5E5
                   ~~~~~~                                           PM|
   E S S T T T T S S +S  S S S S S  S  S   E +S   S +E  E +S   E. E S S   4x
|----------------------------------------|--------------------------------||
|----------------------------------------|-------------------------------o||
|----------------------------------------|--------------------------------||
|----0-----------------------6-----------|--------------------------------||
|-/5---5-4h5p4p0---------------5---10s12-|-8-(8)\-5-(5)-7-(7)\-3--5-3-2--o||
|----------------0-1-(1)-0-6-----0-10s12-|-8-(8)\-5-(5)-7-(7)\-3--5-3-2---||


                                Interlude - Pt. I
  H.=H                           Slightly Slower Q=77
                                 $
  Dm                             Dsus2                 Dsus2/Ab
                >
   W           +W                W
|-----------|----------------||-----------------------------------|
|-----------|----------------||o----------------------------------|
|-----------|----------------||-----------------------------------|
|--0--------|--(0)-----------||-----------------------------------|
|--0--------|--(0)-----------||o----------------------------------|
|--0--------|--(0)-----------||-----------------------------------|
|
| Gtr III
|               >
|  ~~~~~~~~~~~~~~~~
|  W           +W                W
|-----------|----------------||-----------------------------------|
|-10--------|-(10)-----------||o----------------------------------|
|-10--------|-(10)-----------||-----------------------------------|
|-----------|----------------||-----------------------------------|
|-----------|----------------||o----------------------------------|
|-----------|----------------||-----------------------------------|
|
| Gtr V
|  W            H.      E. S     S S S S S S S S S S S S S S S S
|-----------|----------------||--5-------5-------5-------5--------|
|-----------|----------------||o---5-------5-------5-------5------|
|-----------|----------------||------7-------7-------7-------7----|
|-----------|--------------0-||--------0-------0-------6-------5--|
|-----------|----------------||o----------------------------------|
|-----------|----------------||-----------------------------------|


  Gsus4                             Bb/F  Bb/C# Bb/D
                                   2/4
  Gtr V
  S S S S S S S S S S S S S S S S   S S S S S S S S
|-3-------3-------3-------3-------|-----------------|
|---3-------3-------3-------3-----|-----3-----------|
|-----5-------5-------5-------5---|---3-------3-----|
|-------5-------5-------5-------5-|-3-------3-----3-|
|---------------------------------|-------4-----5---|
|---------------------------------|-----------------|


  D5       Db5   D      Dm     N.C.  D5
 4/4
  S  S S S S S S S +S    S S S S S S S
|----------------------------------------|
|----------------------------------------|
|------7-----7---------------------------|
|---/7---7-6---6s4-(4)\----3-------------|
|-----------------------/5---5-----------|
|-0----------------------------3s5h6-0---|


             Db5   D                       Dsus2                        Dsus2/Ab
                           ~~~~~~
  +S   S S S S S S S +S  S E +E. S          S S S S   S  S S S   S  S S S S S S S
|-----------------------------------||-||---5---------5----------5--------5-------|
|--------------------------7-(7)---o||-||o----5----------5----------5-------5-----|
|--------7-----7--------------------||-||-------7----------7----------7-------7---|
|-----/7---7-6---6-0-(0)-4-------0--||-||---------0----------0----------6-------5-|
|----------------------------------o||-||o----------------------------------------|
|-(0)-------------------------------||-||-----------------------------------------|
|
| Gtr III
|                                           <
|  W                                        Q        +Q         +H
|-----------------------------------||-||--10-------(10)-------(10)---------------|
|----------------------------------o||-||o----------------------------------------|
|-----------------------------------||-||-----------------------------------------|
|-----------------------------------||-||-----------------------------------------|
|----------------------------------o||-||o----------------------------------------|
|-----------------------------------||-||-----------------------------------------|


  Gsus4
    S  S S S S S S S   S S S S S S S S
|---3--------3---------3-------3---------|
|------3-------3---------3-------3-------|
|--------5-------5---------5-------5-----|
|----------5-------5---------5-------5---|
|----------------------------------------|
|----------------------------------------|
|
|  +H                  H
|-(10)---------------/13-----------------|
|----------------------------------------|
|----------------------------------------|
|----------------------------------------|
|----------------------------------------|
|----------------------------------------|


  1.
  Bb/F    Bb/C# Bb/D  D5         Db5   D      Dm     N.C.  D5
 2/4                 4/4
    S S S S S S S S     S  S S S S S S S +S    S S S S S S S
|-------------------|----------------------------------------|
|-------3-----------|----------------------------------------|
|-----3-------3-----|--------7-----7-------------------------|
|---3-------3-----3-|-----/7---7-6---6s4-(4)\----3-----------|
|---------4-----5---|-------------------------/5---5---------|
|-------------------|---0----------------------------3s5h6-0-|
|
|                       <
|   H                   W
|-/15---------------|-/17------------------------------------|
|-------------------|----------------------------------------|
|-------------------|----------------------------------------|
|-------------------|----------------------------------------|
|-------------------|----------------------------------------|
|-------------------|----------------------------------------|


              Db5   D
                             ~~~~~~
   +S   S S S S S S S  +S  S E +E.       S
|--------------------------------------------||
|----------------------------7-(7)----------o||
|---------7-----7----------------------------||
|------/7---7-6---6-0--(0)-4-------------0---||
|-------------------------------------------o||
|--(0)---------------------------------------||
|
|                       >
|  +H                  +Q.          +E
|-(17)----------------(17)---------(17)\-----||
|-------------------------------------------o||
|--------------------------------------------||
|--------------------------------------------||
|-------------------------------------------o||
|--------------------------------------------||


  2.
  Bb/F     Bb/C#      Bb/D  D5          Db5   D      Dm     N.C.  D5
 2/4                       4/4
    S  S S   S   S  S S S     S   S S S S S S S +S    S S S S S S S
|-------------------------|-----------------------------------------|
|--------3----------------|-----------------------------------------|
|------3------------3-----|---------7-----7-------------------------|
|---3------------3------3-|------/7---7-6---6s4-(4)\----3-----------|
|------------4--------5---|--------------------------/5---5---------|
|-------------------------|---0-----------------------------3s5h6-0-|
|
|   E.       S  +Q           +W
|-/15------/17-(17)-------|-(17)------------------------------------|
|-------------------------|-----------------------------------------|
|-------------------------|-----------------------------------------|
|-------------------------|-----------------------------------------|
|-------------------------|-----------------------------------------|
|-------------------------|-----------------------------------------|


              Db5   D
                            ~~~~~~
   +S   S S S S S S S +S  S E +E. S
|-------------------------------------||
|---------------------------7-(7)-----||
|---------7-----7---------------------||
|------/7---7-6---6-0-(0)-4-------0---||
|-------------------------------------||
|--(0)--------------------------------||
|
|   >                  <
|  +H                  H
|-(17)--------------------------------||
|-------------------------------------||
|---------------------11--------------||
|-------------------------------------||
|-------------------------------------||
|-------------------------------------||


   Interlude - Pt. II
    Fmaj13   Dm7      C#m
    Gtr IV
     S S S S   S  S S S +S  S S S S S S S
||---------0---5------4-(4)---------------|
||o------3--------3---------4h5-----------|
||-----2------------5-----------4h6-------|
||---3---------0--------------------4h6---|
||o-------------------4-(4)-------------4-|
||----------------------------------------|
|
|    Q        +E.     S +H
||----------------------------------------|
||o---------------------------------------|
||--10-------(10)-----9-(9)---------------|
||----------------------------------------|
||o---------------------------------------|
||----------------------------------------|


                                                      To Coda
  Cm              Bsus2
                                            2/4
   S  S S S S S S S +S  S  S S  S  S S S      S  S S S S S S S
|-----------3h4p3-2-(2)---------2---------||--2--------2---------||
|---------4-------------2----------2-----o||-----2-------2-------||
|-------5------------------4---------4----||-------4-------4-----||
|-----5----------------------4---------4--||---------4-------4---||
|--3--------------2-(2)------------------o||---------------------||
|-----------------------------------------||---------------------||
|
|                                             >
| +H                +S  E.     +Q            +H
|-----------------------------------------||---------------------||
|----------------------------------------o||---------------------||
|-(9)---------------(9)-8------(8)--------||-(8)-----------------||
|-----------------------------------------||---------------------||
|----------------------------------------o||---------------------||
|-----------------------------------------||---------------------||


 Interlude - Pt. I
  Dsus2                 Dsus2/Ab
 4/4
  Gtr V
  S S S S S S S S S S S S S S S S
|-5-------5-------5-------5-------|
|---5-------5-------5-------5-----|
|-----7-------7-------7-------7---|
|-------0-------0-------6-------5-|
|---------------------------------|
|---------------------------------|
|
| >
| W
|---------------------------------|
|---------------------------------|
|-7-------------------------------|
|---------------------------------|
|---------------------------------|
|---------------------------------|


  Gsus4                             Bb/Fb Bb/C# Bb/D
                                   2/4
  S S S S S S S S S S S S S S S S   S S S S S S S S
|-3-------3-------3-------3-------|-------------------|
|---3-------3-------3-------3-----|-----3-------------|
|-----5-------5-------5-------5---|---3-------3-------|
|-------5-------5-------5-------5-|-3-------3-----3---|
|---------------------------------|-------4-----5-----|
|---------------------------------|-------------------|
|
| W                                 W
|---------------------------------|-------------------|
|---------------------------------|-------------------|
|---------------------------------|-------------------|
|---------------------------------|-------------------|
|---------------------------------|-------------------|
|---------------------------------|-------------------|


                                                            D.S. al Coda
  D5       Db5   D      Dm     N.C.  D5             Db5   D
 4/4
                                                                  ~~~~~~
  S  S S S S S S S +S    S S S S S S S   +S   S S S S S S S +S  S E +E. S
|--------------------------------------|----------------------------------||
|--------------------------------------|--------------------------7-(7)---||
|------7-----7-------------------------|--------7-----7-------------------||
|---/7---7-6---6s4-(4)\----3-----------|-----/7---7-6---6-0-(0)-4-------0-||
|-----------------------/5---5---------|----------------------------------||
|-0----------------------------3s5h6-0-|-(0)------------------------------||


  H=H
  &
  Bm/F#                                                        D5F5G5
  Gtr IV
   W                                 W
|----------------------------------|---------------------------------||
|-^3-------------------------------|---------------------------------||
|-^4-------------------------------|---------------------------------||
|-^4-------------------------------|---------------------------------||
|----------------------------------|---------------------------------||
|----------------------------------|---------------------------------||
|
| Gtr III
|  >
|  W                                 W
|----------------------------------|---------------------------------||
|--3-------------------------------|---------------------------------||
|----------------------------------|---------------------------------||
|----------------------------------|---------------------------------||
|----------------------------------|---------------------------------||
|----------------------------------|---------------------------------||
|
| GtrGtGtGtGtGtGtGtGtGtGtGtGtGtGtGtr GtGtGtGtGtGtGtGtGtGtGtGtr Gtrs I, II
|  < < < < < < < < < < < < < < < <   < < < < < < < < < < < <
|  S S S S S S S S S S S S S S S S   S S S S S S S S S S S S S S S S
|----------------------------------|---------------------------------||
|----------------------------------|---------------------------------||
|----------------------------------|---------------------------------||
|----------------------------------|---------------------------------||
|--0-0-0-0-0-0-0-0-0-0-0-0-0-0-0-0-|-0-0-0-0-0-0-0-0-0-0-0-0---0-3s5-||
|--0-0-0-0-0-0-0-0-0-0-0-0-0-0-0-0-|-0-0-0-0-0-0-0-0-0-0-0-0---0-3s5-||


   Pre-Verse/Verse #2
    Slightly Faster Q=82
    AbD5                        D5F5G5  AbD5                        D5F5G5
    Gtrs I, II
    ~                                   ~
    E E S S S S   +S  S S S +S  S S S   E E S S S S   +S  S S S +S  S S S
||------------------------------------|-----------------------------------|
||o-----------------------------------|-----------------------------------|
||--------7---------------------------|-------7---------------------------|
||------0---6-5b6r(5)p0---------------|-----0---6-5b6r(5)p0---------------|
||o-6-0-----------------0-3-(3)-0-3s5-|-6-0-----------------0-3-(3)-0-3s5-|
||--6-0-------------------------0-3s5-|-6-0-------------------------0-3s5-|


                                      1.,2.,3.
  AbD5                        N.C.    Bm+5  F6sus2Asus4 N.C.       D5F5G5
  ~                                                                PM--|
  E E S S S S   +S  S S S +S  S S S   S S S S S S S S S  S S S T T S S S
|-----------------------------------|--------------------------------------||
|-----------------------------------|-------------------------------------o||
|-------7---------------------------|-----0-----0-----2--------------------||
|-----0---6-5b6r(5)p0---------------|---0-----0-----0------6-7-6h7---------||
|-6-0-----------------0-3-(3)-0-3-5-|-2-----------0-----/5---------0-3-5--o||
|-6-0-------------------------------|-------3----------------------0-3-5---||


  4.
  Bm+5  F6sus2Asus4 N.C.
  S S S S S S S S S  S S S S S S S
|----------------------------------|
|----------------------------------|
|-----0-----0-----2------8---------|
|---0-----0-----0------6---7p6s4---|
|-2-----------0-----/5-----------3-|
|-------3--------------------------|
|
| Gtr III
| W
|----------------------------------|
|----------------------------------|
|----------------------------------|
|----------------------------------|
|----------------------------------|
|----------------------------------|


   Bridge #1
    N.C.
     E  S  S  S  S  S  S  +S   S  S  S  S  S  S  S
||--------------------------------------------------|
||o-------------------------------------------------|
||---9--9--9--9--9--9--8--(8)--8--8--8--8--8--8--8--|
||--------------------------------------------------|
||o--7--7--7--7--7--7--6--(6)--6--6--6--6--6--6--6--|
||--------------------------------------------------|
|
|    E  S  S  S  S  S  S  +S   S  S  S  S  S  S  S
||--------------------------------------------------|
||o-12-12-12-12-12-12-11-(11)-11-11-11-11-11-11-11--|
||--12-12-12-12-12-12-11-(11)-11-11-11-11-11-11-11--|
||--------------------------------------------------|
||o-------------------------------------------------|
||--------------------------------------------------|
     E  S  S  S  S  S  S  +S   S  S  S  S  S  S  S


             Eb5   D5  N.C.
           PM
   E S S S S S S S E S  S E S
|-----------------------------|
|-----------------------------|
|-----------------------------|
|-----------------------------|
|-/5-5-4-3---1-1-x-0----------|
|----------0-1-1-x-0-1-/4-1-1-|
|
|  W
|-----------------------------|
|--6--------------------------|
|--7--------------------------|
|-----------------------------|
|-----------------------------|
|-----------------------------|
   W


  1.,2.,3.                      4.
              Eb5   D5  N.C.                Eb5   D5  N.C.
            PM           ~~               PM
   E  S S S S S S S E S  Q       E  S S S S S S S E S  Q
|----------------------------||----------------------------||
|---------------------------o||----------------------------||
|----------------------------||----------------------------||
|----------------------------||----------------------------||
|-/5--5-4-3---1-1-x-0-------o||-/5--5-4-3---1-1-x-0--------||
|-----------0-1-1-x-0-1-/4---||-----------0-1-1-x-0-1-/4/--||
|
| +W                            +W
|----------------------------||----------------------------||
|-(6)-----------------------o||-(6)------------------------||
|-(7)------------------------||-(7)------------------------||
|----------------------------||----------------------------||
|---------------------------o||----------------------------||
|----------------------------||----------------------------||
  +W                            +W


   Chorus #1
    Q=85                                   1.,2.,3.
    N.C.                           C#b5Bb5   Fb5     B/Fb5 B/Eb  N.C.
               ~~~~~~~         ~
      S  S  S  S  +S  S  S S S E S S e S   S S S S S e S S S S S  Q
||---------------------------------------|-----------------------------||
||o--------------------------------------|----------------------------o||
||---------------------------------------|-----------------------------||
||------11-----------------6-------5-5-3-|-----------------------------||
||o--------------------------------4-4-2-|---2-2-2---2-2---2-2-2------o||
||--/11----11-10-(10)-0-/6---6-7-0-------|---3-3-3---1-3---1-1-1-/4/---||


                                   Pre-Solo
  4.
    Fb5     B/Fb5 B/Eb              D5        N.C.
                                    PM------|  ~~~~~~
  S S S S S e S S S S S S S S S     S e S S S  E +S  S S S S S S S  4x
|-------------------------------||----------------------------------||
|-------------------------------||o--------------------------------o||
|-------------------------------||----------------------------------||
|-------------------------------||-------------------7---5---6------||
|---2-2-2---2-2---2-2-2---2-2-2-||o-0-0-0-0-0----------------------o||
|---3-3-3---1-3---1-1-1---1-1-1-||--0-0-0-0-0-/7-(7)---5---6---3p0--||


 Guitar Solo
  D5                    N.C.
   PM--------------|     ~~~~~~~~~~~~
   S e      S  S   S     E       +S    S    S   S    S    S   S   S
|----------------------------------------------------------------------|
|----------------------------------------------------------------------|
|----------------------------------------------------------------------|
|--------------------------------------7--------5---------6------------|
|--0-0------0--0---0---------------------------------------------------|
|--0-0------0--0---0----/7-------(7)--------5--------6--------3p==0----|
|
| Gtr III
|  |--3---|    |-------6-------|  |-------6--------| |------6-------|
|  e    e e    S S    S  S  S  S  S  S   S  S S    S S  S   S S S   S
|---------9------9-----------------------------------------------------|
|-10---11-----11-----11-10h11p10--9h10p==9----8------------------------|
|------------------------------------------10-----10-9h10p==9-7h9p==7--|
|----------------------------------------------------------------------|
|----------------------------------------------------------------------|
|----------------------------------------------------------------------|


  D5                    N.C.
  PM---------------|      ~~~~~~~
  S e      S  S     S     E  +S  S S S S S   S   S
|--------------------------------------------------|
|--------------------------------------------------|
|--------------------------------------------------|
|--------------------------------7---5---6---------|
|-0-0------0--0-----0------------------------------|
|-0-0------0--0-----0----/7--(7)---5---6-----3p==0-|
|
|                         ~~~~~~~
| |--3---|
| e    e e    T  T  T T   E  +Q.            +E
|--------------------------------------------------|
|--------9-----------------------------------------|
|-9---10-----10h13p10p9-/14-(14)-----------(14)\---|
|--------------------------------------------------|
|--------------------------------------------------|
|--------------------------------------------------|


  D5                N.C.
   PM----------|     ~~~~~~~~~~~~
   S e S  S    S     E       +S    S     S    S     S    S     S    S
|--------------------------------------------------------------------------|
|--------------------------------------------------------------------------|
|--------------------------------------------------------------------------|
|----------------------------------7----------5----------6-----------------|
|--0-0-0--0----0-----------------------------------------------------------|
|--0-0-0--0----0----/7-------(7)---------5----------6----------3p===0------|
|
|  ~~
|         |-------6--------|  |--------6---------|  |--------6---------|
|  Q      S  S    S  S  S  S  S  S    S  S  S    S  S  S    S  S  S    S
|-------------------------12-13p12------12------12----12------12------12---|
|----------------------15------------15----13------12----------------------|
|-------------------14-------------------------------------14----13--------|
|-12-----12-14---15--------------------------------------------------------|
|--------------------------------------------------------------------------|
|--------------------------------------------------------------------------|


  D5                        N.C.
   PM-------------------|    ~~~~~~~~
   S  e  S       S       S   E   +S S S S S   S   S   S
|---------------------------------------------------------||
|---------------------------------------------------------||
|---------------------------------------------------------||
|-----------------------------------7---5-----6-----------||
|--0--0--0-------0-------0--------------------------------||
|--0--0--0-------0-------0--/7---(7)--5---6-------3p==0---||
|
|                                 ~~~
|        |--3--|                          |------6------|
|  S  e  T  T  T S a    +S  +E    E.    S S S   S S S   S
|---------------------------------------------------------||
|---------------------------------------------------------||
|-10-13-10h13p10-9-7b9==(7)r(7)\--6h====7-6p5-----5-------||
|-----------------------------------------------7---7p==6-||
|---------------------------------------------------------||
|---------------------------------------------------------||


 Chorus #2
  N.C.                           C#b5Bb5
             ~~~~~~~         ~
    S  S  S  S  +S  S  S S S E S S e S
|--------------------------------------|
|--------------------------------------|
|--------------------------------------|
|-----11-----------------6-------5-5-3-|
|--------------------------------4-4-2-|
|-/11----11-10-(10)-0-/6---6-7-0-------|
|
|   >
|   W
|--------------------------------------|
|--------------------------------------|
|--/9----------------------------------|
|--------------------------------------|
|--------------------------------------|
|--------------------------------------|


    Fb5     B/Fb5 B/Eb  N.C.     N.C.                           C#b5Bb5
                                            ~~~~~~~         ~
  S S S S S e S S S S S  Q         S  S  S  S  +S  S  S S S E S S e S
|----------------------------||----------------------------------------|
|----------------------------||o---------------------------------------|
|----------------------------||----------------------------------------|
|----------------------------||------11-----------------6-------5-5-3--|
|---2-2-2---2-2---2-2-2------||o--------------------------------4-4-2--|
|---3-3-3---1-3---1-1-1-/4/--||--/11----11-10-(10)-0-/6---6-7-0--------|


  1.,2.                          3.
    Fb5     B/Fb5 B/Eb  N.C.       Fb5     B/Fb5 B/Eb
  S S S S S e S S S S S  Q       S S S S S e S S S S S S S S S
|-----------------------------||--------------------------------||
|----------------------------o||--------------------------------||
|-----------------------------||--------------------------------||
|-----------------------------||--------------------------------||
|---2-2-2---2-2---2-2-2------o||---2-2-2---2-2---2-2-2---2-2-2--||
|---3-3-3---1-3---1-1-1-/4/---||---3-3-3---1-3---1-1-1---1-1-1--||


   Instrumental Break #2
    Dmadd9            Fm/maj7
    Gtr IV
    E S S E   S S +S  S S S S S S S
    | | | |   | |     | | | | | | |
    / / / /   / /     / / / / / x x

    Gtr III
    ~
    Q     S S S S +S  S S S S S S S
||----------------------------------|
||o---------5h6---------------------|
||--7-----7-----6-(6)---------------|
||--------------------7-----------7-|
||o---------------------8-7-5h7-8---|
||----------------------------------|


  Dmadd9                Fm/maj7
  E S S E   S S    +S   S S S S     S   S  S
  | | | |   | |         | | | |     |   |  |
  / / / /   / /         / / / /     /   x  x

  ~                                     ~~~
  Q     S S S S    +S   S S S S    +S  +E      4x
|----------------------------------------------||
|---------5h6-6b8==(6)r-6-5---5b6==(5)r(5)----o||
|-7-----7-------------------7------------------||
|----------------------------------------------||
|---------------------------------------------o||
|----------------------------------------------||


   Pre-Verse/Verse #3
    D                                  Db5          (D)        D5
    Gtrs I, II
     E  S  S  S  S  S  S  +S   S  S  S   E  S  S    E S S S S  E S S S S E S S
||------------------------------------------------|----------------------------|
||o-----------------------------------------------|----------------------------|
||--11-11-11-11-11-11-11-(11)-11-11-11-/13-13-13\-|-7-7-7-7-7\-2-2-2-2-2-2-2-2-|
||------------------------------------------------|----------------------------|
||o--9--9--9--9--9--9--9--(9)--9--9--9-/11-11-11\-|-5-5-5-5-5\-0-0-0-0-0-0-0-0-|
||---0--0--0--0--0--0--0--(0)--0--0--0---0--0--0--|-0-0-0-0-0--0-0-0-0-0-0-0-0-|


  N.C.                          F5     D5     F5     G5     D5
  Gtr III
  W                             E.     S +E   E   +S E.     Q
                                |      |  |   |    | |      |
                                /      /  /   /    / /      /

  S S S S S S E S S S S E S S   S  S S S  S S S S  S S  S S S S S S  6x
|-----------------------------|--------------------------------------||
|-----------------------------|-------------------------------------o||
|-8-8-8-6-6-6-7-7-7-7-7-7-7-7-|-7--7-7-7--7-7-7-7--7-7--7-7-6s7-7-7--||
|-----------------------------|--------------------------------------||
|-6-6-6-4-4-4-5-5-5-5-5-5-5-5-|-5--5-5-5--5-5-5-5--5-5--5-5-4s5-5-5-o||
|-0-0-0-0-0-0-0-0-0-0-0-0-0-0-|-0--0-0-0--0-0-0-0--0-0--0-0-0---0-0--||


   Instrumental Break #3
    Dmadd9            Fm/maj7
    Gtr IV
    E S S E   S S +S  S S S S S S S
    | | | |   | |     | | | | | | |
    / / / /   / /     / / / / / x x

    Gtr III
    ~
    Q     S S S S +S  S S S S S S S
||----------------------------------|
||o---------5h6---------------------|
||--7-----7-----6-(6)---------------|
||--------------------7-----------7-|
||o---------------------8-7-5h7-8---|
||----------------------------------|


  Dmadd9                Fm/maj7
  E S S E   S S    +S   S S S S     S   S  S
  | | | |   | |         | | | |     |   |  |
  / / / /   / /         / / / /     /   x  x

  ~                                     ~~~
  Q     S S S S    +S   S S S S    +S  +E      4x
|----------------------------------------------||
|---------5h6-6b8==(6)r-6-5---5b6==(5)r(5)----o||
|-7-----7-------------------7------------------||
|----------------------------------------------||
|---------------------------------------------o||
|----------------------------------------------||


  Dmadd9         Fm/maj7         Dmadd9           Fm/maj7
  E S S E S S +S S S S S S S S    E  S S E S S +S S S S S S S S
  | | | | | |    | | | | | | |    |  | | | | |    | | | | | | |
  / / / / / /    / / / / / x x    /  / / / / /    / / / / / x x

                                  >
  ~
  W                              +W
|------------------------------|--------------------------------|
|------------------------------|--------------------------------|
|-7----------------------------|-(7)----------------------------|
|------------------------------|--------------------------------|
|------------------------------|--------------------------------|
|------------------------------|--------------------------------|


  Dmadd9                Fm/maj7            Dmadd9             Fm/maj7
   E  S S  E   S S  +S  S  S S  S  S S S   E  S S  E  S S +S  S  S S S S S S
   |  | |  |   | |      |  | |  |  | | |   |  | |  |  | |     |  | | | | | |
   /  / /  /   / /      /  / /  /  / x x   /  / /  /  / /     /  / / / / x x

  Gtrs I, II
   E.   S +E   E    +S  E.     +Q          E.   S +E  E   +S  E.     Q
|----------------------------------------|-----------------------------------||
|----------------------------------------|-----------------------------------||
|----------------------------------------|-----------------------------------||
|-12----7-(7)-10---(10)-6------(6)-------|-7----6-(6)-3---(3)-0------0-------||
|-12----7-(7)-10---(10)-6------(6)-------|-7----6-(6)-3---(3)-0------0-------||
|-12----7-(7)-10---(10)-6------(6)-------|-7----6-(6)-3---(3)-0------0-------||


   Pre-Chorus/Chorus #3
    N.C.
     S  S  S S S S  S  S  S S S S S S S S   S S S S S S S S S S S S S S E
||----------------------------------------|-------------------------------|
||o---------------------------------------|-------------------------------|
||----------------------------------------|-------------------------------|
||--12-12-12-7-7-7-10-10-10-6-6-6-6-6-6-6-|-7-7-7-6-6-6-3-3-3-6-6-6-6s7-6-|
||o---------------------------------------|-------------------------------|
||--12-12-12-7-7-7-10-10-10-6-6-6-6-6-6-6-|-7-7-7-6-6-6-3-3-3-6-6-6-6s7-6-|


                                                            D5
   S  S  S S S S  S  S  S S S S S S S S   S S S S S S S S S S E E E  4x
|---------------------------------------|----------------------------||
|---------------------------------------|---------------------------o||
|---------------------------------------|----------------------------||
|-12-12-12-7-7-7-10-10-10-6-6-6-6-6-6-6-|-7-7-7-6-6-6-3-3-3-0-0-0-0--||
|---------------------------------------|-------------------0-0-0-0-o||
|-12-12-12-7-7-7-10-10-10-6-6-6-6-6-6-6-|-7-7-7-6-6-6-3-3-3-0-0-0-0--||


  N.C.
   S  S  S S S S  S  S  S S S S S S S S   S S S S S S S S S S S S S S E
|---------------------------------------|--------------------------------|
|---------------------------------------|--------------------------------|
|---------------------------------------|--------------------------------|
|-12-12-12-7-7-7-10-10-10-6-6-6-6-6-6-6-|-7-7-7-6-6-6-3-3-3-6-6-6-6s7-6--|
|---------------------------------------|--------------------------------|
|-12-12-12-7-7-7-10-10-10-6-6-6-6-6-6-6-|-7-7-7-6-6-6-3-3-3-6-6-6-6s7-6--|


   S   S  S S S S  S  S  S S S S  S     S S S
|---------------------------------------------|
|---------------------------------------------|
|---------------------------------------------|
|-12--12-12-7-7-7-10-10-10-6-6-6--6-----6-6-6-|
|---------------------------------------------|
|-12--12-12-7-7-7-10-10-10-6-6-6--6-----6-6-6-|
|
| Gtr III
|                                 <
|  H.                             Q
|--------------------------------13b14========|
|---------------------------------------------|
|---------------------------------------------|
|---------------------------------------------|
|---------------------------------------------|
|---------------------------------------------|


                          D5
    S  S S S S S S S   S  S E E E
|---------------------------------|
|---------------------------------|
|---------------------------------|
|---7--7-7-6-6-6-3-3---3--0-0-0-0-|
|-------------------------0-0-0-0-|
|---7--7-7-6-6-6-3-3---3--0-0-0-0-|
|
|  +H                 +H
|-(13)---------------(13)r========|
|---------------------------------|
|---------------------------------|
|---------------------------------|
|---------------------------------|
|---------------------------------|


  N.C.
    S   S  S S   S    S  S  S  S  S S S S S S S
|-----------------------------------------------|
|-----------------------------------------------|
|-----------------------------------------------|
|--12--12-12-7---7----7-10-10-10--6-6-6-6-6-6-6-|
|-----------------------------------------------|
|--12--12-12-7---7----7-10-10-10--6-6-6-6-6-6-6-|
|
|                        <
|                \0.5
|  +Q           +E       E    +H
|-(13)---------(13)------9----(9)---------------|
|-----------------------------------------------|
|-----------------------------------------------|
|-----------------------------------------------|
|-----------------------------------------------|
|-----------------------------------------------|


   S  S S S S S S S S S S S  S  S E
|------------------------------------|
|------------------------------------|
|------------------------------------|
|--7--7-7-6-6-6-3-3-3-6-6-6--6s=7-6--|
|------------------------------------|
|--7--7-7-6-6-6-3-3-3-6-6-6--6s=7-6--|
|
|                            >
| +H.                       +Q
|-(9)-----------------------(9)------|
|------------------------------------|
|------------------------------------|
|------------------------------------|
|------------------------------------|
|------------------------------------|


                                                            D5
   S  S  S S S S  S  S  S S S S S S S S   S S S S S S S S S S E E E
|---------------------------------------|---------------------------||
|---------------------------------------|---------------------------||
|---------------------------------------|---------------------------||
|-12-12-12-7-7-7-10-10-10-6-6-6-6-6-6-6-|-7-7-7-6-6-6-3-3-3-0-0-0-0-||
|---------------------------------------|-------------------0-0-0-0-||
|-12-12-12-7-7-7-10-10-10-6-6-6-6-6-6-6-|-7-7-7-6-6-6-3-3-3-0-0-0-0-||


   Outro - Pt. I
    (D5)
    Gtr III
     E     S S  S  S  S  S  S  S  S  S  S  S  S  S   3x
||---------------------------------------------------||
||o-------------------------------------------------o||
||---------------------------------------------------||
||---------------------------------------------------||
||o--0----------------0--5h=6p=5--0-----5-----------o||
||---0-----0-0--0h=3-----------------6-----6--5p=3---||
|
|   Gtr I
|    Q          S  S  S  S  S  S  S  S  S  S  S  S   3x
||---------------------------------------------------||
||o-13b15======13-13-13-13-13-13-13-13-13-13-13-13r-o||
||---------------------------------------------------||
||---------------------------------------------------||
||o-------------------------------------------------o||
||---------------------------------------------------||
|
|   Gtr II
|    W                                               3x
||---------------------------------------------------||
||o-------------------------------------------------o||
||---------------------------------------------------||
||---------------------------------------------------||
||o-------------------------------------------------o||
||---------------------------------------------------||


   E     S S  S  S  S  S  S  S  S  S  S  S  S  S
|--------------------------------------------------|
|--------------------------------------------------|
|--------------------------------------------------|
|--------------------------------------------------|
|--0----------------0--5h=6p=5--0-----5------------|
|--0-----0-0--0h=3-----------------6-----6--5p=3---|
|
|  Q          S  S  S  S  S  S  S  S  S  S  S  S
|--------------------------------------------------|
|-13b15======13-13-13-13-13-13-13-13-13-13-13-13r--|
|--------------------------------------------------|
|--------------------------------------------------|
|--------------------------------------------------|
|--------------------------------------------------|
|
|  W
|-12b14--------------------------------------------|
|--------------------------------------------------|
|--------------------------------------------------|
|--------------------------------------------------|
|--------------------------------------------------|
|--------------------------------------------------|


      E       S S  S  S  S  S  S  S  S  S  S  S  S  S
||-----------------------------------------------------|
||o----------------------------------------------------|
||-----------------------------------------------------|
||-----------------------------------------------------|
||o---0------------------0--5h=6p=5--0-----5-----------|
||----0-------0-0--0h=3-----------------6-----6--5p=3--|
|
|     Q            S  S  S  S  S  S  S  S  S  S  S  S
||-----------------------------------------------------|
||o--13b15========13-13-13-13-13-13-13-13-13-13-13-13r-|
||---13-----------13-13-13-13-13-13-13-13-13-13-13-13--|
||-----------------------------------------------------|
||o----------------------------------------------------|
||-----------------------------------------------------|
|     Q            S  S  S  S  S  S  S  S  S  S  S  S
|
|    +W
||--(12)pb14===========================================|
||o----------------------------------------------------|
||-----------------------------------------------------|
||-----------------------------------------------------|
||o----------------------------------------------------|
||-----------------------------------------------------|


    E     S S  S  S  S  S  S  S  S  S  S  S  S  S
|----------------------------------------------------||
|---------------------------------------------------o||
|----------------------------------------------------||
|----------------------------------------------------||
|---0----------------0--5h=6p=5--0-----5------------o||
|---0-----0-0--0h=3-----------------6-----6--5p=3----||
|
|   Q          S  S  S  S  S  S  S  S  S  S  S  S
|----------------------------------------------------||
|--13b15======13-13-13-13-13-13-13-13-13-13-13-13r--o||
|--13---------13-13-13-13-13-13-13-13-13-13-13-13----||
|----------------------------------------------------||
|---------------------------------------------------o||
|----------------------------------------------------||
|   Q          S  S  S  S  S  S  S  S  S  S  S  S
|
|  +W
|-(12)r----------------------------------------------||
|---------------------------------------------------o||
|----------------------------------------------------||
|----------------------------------------------------||
|---------------------------------------------------o||
|----------------------------------------------------||


 Outro - Pt. II
  Slower Q.=50
  Dmadd9                      Am/E
 6/8
   E   Q       Q.             W
|---------------------------|-------------------------|
|---------------------------|-------------------------|
|---------------------------|-------------------------|
|---------------------------|-------------------------|
|--0------------------------|-------------------------|
|--0------------------------|-------------------------|
|
| Gtr IV
|  S S S S S S S  S S S S S   S S S S S S S S S S S S
|--------------0------------|-------------5-----------|
|--------6--------6---6-----|-------5-------5---5-----|
|------7---7--------7---7---|-----5---5-------5---5---|
|----7-------7------------7-|---7-------7-----------7-|
|-/5------------------------|-7-----------------------|
|---------------------------|-------------------------|


  Dmadd9                    Fmaj7       Eb
  W                         W
|-------------------------|--------------------------|
|-------------------------|--------------------------|
|-------------------------|--------------------------|
|-------------------------|--------------------------|
|-------------------------|--------------------------|
|-------------------------|--------------------------|
|
| S S S S S S S S S S S S   S S S S S S S S S S S S
|-------------0-----------|--------------------------|
|-------6-------6---6-----|-------5-----------4------|
|-----7---7-------7---7---|-----5---5-------3---3----|
|---7-------7-----------7-|---7-------7---5-------5--|
|-5-----------------------|-8-----------6------------|
|-------------------------|--------------------------|


    Dmadd9                     Am/E
    Gtr IV
     S S S S S S S S S S S S   S S S S S S S S S S S S
||---------------0-----------|-------------5-----------|
||o--------6-------6---6-----|-------5-------5---5-----|
||-------7---7-------7---7---|-----5---5-------5---5---|
||-----7-------7-----------7-|---7-------7-----------7-|
||o-/5-----------------------|-7-----------------------|
||---------------------------|-------------------------|


  Dmadd9                    Fmaj7       Eb
  S S S S S S S S S S S S   S S S S S S S S S S S S    4x
|-------------0-----------|----------------------------||
|-------6-------6---6-----|-------5-----------4-------o||
|-----7---7-------7---7---|-----5---5-------3---3------||
|---7-------7-----------7-|---7-------7---5-------5----||
|-5-----------------------|-8-----------6-------------o||
|-------------------------|----------------------------||



Duration Legend
---------------
W - whole; H - half; Q - quarter; E - 8th; S - 16th; T - 32nd; X - 64th; a - acciaccatura
+ - note tied to previous; . - note dotted; .. - note double dotted
Uncapitalized letters represent notes that are staccato (1/2 duration)
Irregular groupings are notated above the duration line
Duration letters will always appear directly above the note/fret number it represents the
duration for.  Duration letters with no fret number below them represent rests.  Multi-
bar rests are notated in the form Wxn, where n is the number of bars to rest for.  Low
melody durations appear below the staff

Tablature Legend
----------------
 h   - hammer-on
 p   - pull-off
 b   - bend
 pb  - pre-bend
 r   - bend release (if no number after the r, then release immediately)
 /\  - slide into or out of (from/to "nowhere")
 s   - legato slide
 S   - shift slide
<n> - natural harmonic
[n]  - artificial harmonic
n(n) - tapped harmonic
 ~   - vibrato
 tr  - trill
 T   - tap
 TP  - trem. picking
 PM  - palm muting
\n/  - tremolo bar dip; n = amount to dip
 \n  - tremolo bar down
 n/  - tremolo bar up
/n\  - tremolo bar inverted dip
 =   - hold bend; also acts as connecting device for hammers/pulls
 <> - volume swell (louder/softer)
 x   - on rhythm slash represents muted slash
 o   - on rhythm slash represents single note slash

Misc Legend
-----------
 |  - bar
||  - double bar
||o - repeat start
o|| - repeat end
*|  - double bar (ending)
 :  - bar (freetime)
 $  - Segno
 &  - Coda
Tempo markers - <E/E./Q/Q./H/H.> = BPM(8/16=s8/s16), where s8 = swing 8ths, s16 = swing 16ths

comments
print report bad tab
2 comments total.
0 reply
Aethen wrote on February 3 2009, 11:07 pm

The chords in the beginning are incorect, so is the second riff, and as far as i can tell, the rest of it too

0 reply
fireaxx789 wrote on July 31 2010, 11:38 pm

all of the album is in E standard tuning

I want to post or [tab]
guest
You may want to rate the tab now too:
select rating
Please do not post tabs as comments. Select "correction" instead!