Oops, an error
Loading. Please wait.

Death Whispered A Lullabye Tab

23,404 views 36 this week
6 commentsread comments
1 2 3 4 5
accurate
x 7
Autoscroll
+/-
esc
set tempo
stop
Contributor
Hey! There's an official Ultimate Guitar app which is ideal
for learning songs when you're away from computer. Get the app
WARNING: You are trying to view
                                    content from Ultimate-Guitar.com
                                    in an unauthorized application,
                                    which is prohibited.

                                    Please use an official Ultimate
                                    Guitar Tabs application for iPhone,
                                    iPad or Android to access legitimate
                                    chords, guitar, bass, and drum tabs
                                    from Ultimate-Guitar.com database.

                                    Type "ultimate guitar tabs" in Apple
                                    App Store's or Android Market's
                                    search to find the application.
.  - palm mute           /  - slide up to
\  - slide down to       ~  - vibrato
h  - hammer on           b  - Bend
p  - pull off            Suffixes for bend
t  - tap                 f  - full bend    h - half bend
ph - pinched harmonic    q  - quarter bend t - tap bend
*  - see comment         ^  - Hold bend    r release bend
x  - Stuccatto           ~  - vibrato bend
,  - slight palm mute    () - ghost note, sustained note
"  - tremolo note        <> - Trill

Tuning E A D G B E

|Intro|
                                                  2x
|---------------------------|----------------------||
|---------------------------|----------------------||
|*--------------0-----------|--------2------------*||
|*--------4--------4--------|-----2---------------*||
|------4-----4--------4-----|--2-------------------||
|---2--------------------3--|----------------------||

|Verse|
                                                  x4
|---------------------------|----------------------||
|---------------------------|----------------------||
|*--------------0-----------|--------2------------*||
|*--------4--------4--------|-----2---------------*||
|------4-----4--------4-----|--2-------------------||
|---2--------------------3--|----------------------||


|Lead Break|

||----------|--------------------|--------------------|------------12------|
||--7-7-10--|------------12------|--14----------------|--------------------|
||----------|--------------------|--------------------|------------9-------|
||--4-4-7---|------------9-------|--11----------------|--------------------|
||----------|--------------------|--------------------|--------------------|
||----------|--------------------|--------------------|--------------------|

|--------------------------|----------------------|----------------|------||
|--14--------12/-14----12--|------10/-9----7------|--5/-7----------|------||
|--------------------------|----------------------|----------4--6--|------||
|--11--------9/--11----9---|------7/--6----4------|--2/-4----------|------||
|--------------------------|----------------------|----------2--4--|------||
|--------------------------|----------------------|----------------|------||


|Chorus|

||-------------------------|-----------------------|
||----------------------4--|----4--------4----4----|
||*------------------5-----|-------4h-5--5----5----|
||*---------------7--------|------------------7----|
||-------------0-----------|-----------------------|
||---5------0--------------|-----------------------|

|----------------------|---------------------|----------------------|
|--10------5------8----|---------------------|-------------------4--|
|--9-------5------5----|----8------5---------|----------------5-----|
|----------------------|----9------7----7----|-------------7--------|
|----------------------|----------------7----|----------0-----------|
|----------------------|---------------------|--5----0--------------|

|----------------------|---------------------|----------------------|
|----4--------4----4---|--10------5------8---|----------------------|
|-------4h-5--5----5---|--9-------5------5---|----8------5---------*|
|------------------7---|---------------------|----9------7----7----*|
|----------------------|---------------------|----------------7-----|
|----------------------|---------------------|----------------------|

|--3------3--3------3--|--3----3--3----3--3--|--5------5--5------5--|
|--4------4--4------4--|--4----4--4----4--4--|--7------7--7------7--|
|--5------5--5------5--|--5----5--5----5--5--|--7------7--7------7--|
|--5------5--5------5--|--5----5--5----5--5--|--7------7--7------7--|
|--3------3--3------3--|--3----3--3----3--3--|--5------5--5------5--|
|----------------------|---------------------|----------------------|

|----5----5--5---5--5--|--2------2--2-----2--|---2----2--2----2--2--|
|----7----7--7---7--7--|--2------2--2-----2--|---2----2--2----2--2--|
|----7----7--7---7--7--|--4------4--4-----4--|---4----4--4----4--4--|
|----7----7--7---7--7--|--4------4--4-----4--|---4----4--4----4--4--|
|----5----5--5---5--5--|--2------2--2-----2--|---4----2--2----2--2--|
|----------------------|--2------2--2-----2--|---2----2--2----2--2--|


|--------------5----------|-------5----5----5--5--|-------------5----------|
|--------------5----------|-------8----8----8--8--|-------------5----------|
|*----------5--5----------|----5--5----5----5--5--|----------5--5----------|
|*--5h-7----7--7----5h-7--|----7--7----7----7--7--|--5h-7----7--7----5h-7--|
|---5h-7----7--7----5h-6--|----6--6----6----6--6--|--5h-7----7--7----5h-6--|
|---5-------5--5----5-----|----5--5----5----5--5--|--5-------5--5----5-----|

|-------5----5----5--5---||
|-------8----8----8--8---||
|----5--5----5----5--5--*||
|----7--7----7----7--7--*||
|----6--6----6----6--6---||
|----5--5----5----5--5---||


*Repeat Verse*
*Repeat Lead Break*
*Repeat Chorus*


|Peter's Solo|

||----------------|-----------------|---------------|-5------------|
||----------------|---6h-5h--6------|---6--5--6--8--|--------------|
||---------7------|-----------------|---------------|--------------|
||----------------|-----------------|---------------|--------------|
||---5------------|-----------------|---------------|--------------|
||----------------|-----------------|---------------|--------------|

||--5---5---5--5--|--5----5---5--5--|--5--5---5--5--|--5-5----5--5-|
||--5---5---5--5--|--5----5---5--5--|--5--5---5--5--|--5-5----5--5-|
||--7---7---7--7--|--7----7---7--7--|--7--7---7--7--|--7-7----7--7-|
||--7---7---7--7--|--7----7---7--7--|--7--7---7--7--|--7-7----7--7-|
||--5---5---5--5--|--5----5---5--5--|--5--5---5--5--|--5-5----5--5-|
||--5---5---5--5--|--5----5---5--5--|--5--5---5--5--|--5-5----5--5-|

Guitar I
|--13---------10--|13-12-10-13-12-10|--15----17-----|--17----17----|
|-----------------|-----------------|---------------|--------------|
|-----------------|-----------------|---------------|--------------|
|-----------------|-----------------|---------------|--------------|
|-----------------|-----------------|---------------|--------------|
|-----------------|-----------------|---------------|--------------|
Guitar II
|--3----3---3--3--|--3----3---3--3--|--3---3--3--3--|--3--3--3--3--|
|--3----3---3--3--|--3----3---3--3--|--3---3--3--3--|--3--3--3--3--|
|--5----5---5--5--|--5----5---5--5--|--5---5--5--5--|--5--5--5--5--|
|--5----5---5--5--|--5----5---5--5--|--5---5--5--5--|--5--5--5--5--|
|--3----3---3--3--|--3----3---3--3--|--3---3--3--3--|--3--3--3--3--|
|--3----3---3--3--|--3----3---3--3--|--3---3--3--3--|--3--3--3--3--|

Guitar I
|-----------------|-----------------|---------------|--------------|
|--12---------12--|-12--------------|---------------|--------------|
|-----------------|-----------------|-12-10--9-9h10-|--9------8----|
|-----------------|-----------------|---------------|--------------|
|-----------------|-----------------|---------------|--------------|
|-----------------|-----------------|---------------|--------------|
Guitar II
|--5----5---5--5--|--5----5---5--5--|--5---5--5--5--|--5--5--5--5--|
|--5----5---5--5--|--5----5---5--5--|--5---5--5--5--|--5--5--5--5--|
|--7----7---7--7--|--7----7---7--7--|--7---7--7--7--|--7--7--7--7--|
|--7----7---7--7--|--7----7---7--7--|--7---7--7--7--|--7--7--7--7--|
|--5----5---5--5--|--5----5---5--5--|--5---5--5--5--|--5--5--5--5--|
|--5----5---5--5--|--5----5---5--5--|--5---5--5--5--|--5--5--5--5--|

Guitar I
|-----------------|-----------------|---------------|--------------|
|-----------------|-----------------|---------------|--------------|
|--10-----10--12--|-12------12--12--|----------12---|--10~----8----|
|-----------------|-----12----------|---------------|--------------|
|-----------------|-----------------|-10~-----------|--------------|
|-----------------|-----------------|---------------|--------------|
Guitar II
|--3----3---3--3--|--3----3---3--3--|--3---3--3--3--|--3--3--3--3--|
|--3----3---3--3--|--3----3---3--3--|--3---3--3--3--|--3--3--3--3--|
|--5----5---5--5--|--5----5---5--5--|--5---5--5--5--|--5--5--5--5--|
|--5----5---5--5--|--5----5---5--5--|--5---5--5--5--|--5--5--5--5--|
|--3----3---3--3--|--3----3---3--3--|--3---3--3--3--|--3--3--3--3--|
|--3----3---3--3--|--3----3---3--3--|--3---3--3--3--|--3--3--3--3--|

Guitar I
|-----------------|-----------------|---------------|--------------|
|-----------------|-----------------|---------------|--------------|
|--------------5--|-----------------|---------------|--------------|
|-----------------|-----------------|---------------|--------------|
|-----------------|-----------------|---------------|--------------|
|-----------------|-----------------|---------------|--------------|
Guitar II
|-----------------|-----------------|---------------|--------------|
|-----------------|-----------------|---------------|--------------|
|-----------------|-----------------|---------------|--------------|
|-----------------|-----------------|---------------|--------------|
|-----------------|-----------------|---------------|--------------|
|-----------------|-----------------|---------------|--------------|


|Verse|
                                                  9x
|---------------------------|----------------------||
|---------------------------|----------------------||
|*--------------0-----------|--------2------------*||
|*--------4--------4--------|-----2---------------*||
|------4-----4--------4-----|--2-------------------||
|---2--------------------3--|----------------------||


|Chorus|

||-------------------------|-----------------------|
||----------------------4--|----4--------4----4----|
||*------------------5-----|-------4h-5--5----5----|
||*---------------7--------|------------------7----|
||-------------0-----------|-----------------------|
||---5------0--------------|-----------------------|

|----------------------|---------------------|----------------------|
|--10------5------8----|---------------------|-------------------4--|
|--9-------5------5----|----8------5---------|----------------5-----|
|----------------------|----9------7----7----|-------------7--------|
|----------------------|----------------7----|----------0-----------|
|----------------------|---------------------|--5----0--------------|

|----------------------|---------------------|----------------------|
|----4--------4----4---|--10------5------8---|----------------------|
|-------4h-5--5----5---|--9-------5------5---|----8------5---------*|
|------------------7---|---------------------|----9------7----7----*|
|----------------------|---------------------|----------------7-----|
|----------------------|---------------------|----------------------|

|--3------3--3------3--|----3----3--3----3--3--|--5------5--5-------5--|
|--4------4--4------4--|----4----4--4----4--4--|--7------7--7-------7--|
|--5------5--5------5--|----5----5--5----5--5--|--7------7--7-------7--|
|--5------5--5------5--|----5----5--5----5--5--|--7------7--7-------7--|
|--3------3--3------3--|----3----3--3----3--3--|--5------5--5-------5--|
|----------------------|-----------------------|-----------------------|

|----5----5--5----5--5--|--2------2--2------2--|----2----2--2----2--2--|
|----7----7--7----7--7--|--2------2--2------2--|----2----2--2----2--2--|
|----7----7--7----7--7--|--4------4--4------4--|----4----4--4----4--4--|
|----7----7--7----7--7--|--4------4--4------4--|----4----4--4----4--4--|
|----5----5--5----5--5--|--2------2--2------2--|----4----2--2----2--2--|
|-----------------------|--2------2--2------2--|----2----2--2----2--2--|

|--------------5--------|-------5----5---5--5--|-------------5---------|
|--------------5--------|-------8----8---8--8--|-------------5---------|
|*----------5--5--------|----5--5----5---5--5--|----------5--5---------|
|*--5h-7----7--7--5h-7--|----7--7----7---7--7--|--5h-7----7--7---5h-7--|
|---5h-7----7--7--5h-6--|----6--6----6---6--6--|--5h-7----7--7---5h-6--|
|---5-------5--5--5-----|----5--5----5---5--5--|--5-------5--5---5-----|

|-------5----5----5--5---||
|-------8----8----8--8---||
|----5--5----5----5--5--*||
|----7--7----7----7--7--*||
|----6--6----6----6--6---||
|----5--5----5----5--5---||


|Mikeal's Solo/Outro|

||--10------------|-----------------|---------------|------13------|
||--13b-----------|-----------------|---------------|------15------|
||----------------|-----------------|---------------|--------------|
||----------------|-----------------|---------------|--------------|
||----------------|-----------------|---------------|--------------|
||----------------|-----------------|---------------|--------------|

||--5---5---5--5--|--5----5---5--5--|--5---5--5--5--|--5---5--5--5-|
||--5---5---5--5--|--5----5---5--5--|--5---5--5--5--|--5---5--5--5-|
||--7---7---7--7--|--7----7---7--7--|--7---7--7--7--|--7---7--7--7-|
||--7---7---7--7--|--7----7---7--7--|--7---7--7--7--|--7---7--7--7-|
||--5---5---5--5--|--5----5---5--5--|--5---5--5--5--|--5---5--5--5-|
||--5---5---5--5--|--5----5---5--5--|--5---5--5--5--|--5---5--5--5-|


Guitar I                                                          x2
|--13-------------|-----------------|---------------|--5-----------||
|--15-------------|-----------------|---------------|--8b----------||
|-----------------|---------14---12-|---------------|--------------||
|-----------------|-5/---12---------|--12\----0-----|--------------||
|-----------------|-----------------|---------------|--------------||
|-----------------|-----------------|---------------|--------------||
Guitar II
|--3----3---3--3--|--3----3---3--3--|--3---3--3--3--|--3--3--3--3--||
|--3----3---3--3--|--3----3---3--3--|--3---3--3--3--|--3--3--3--3--||
|--5----5---5--5--|--5----5---5--5--|--5---5--5--5--|--5--5--5--5--||
|--5----5---5--5--|--5----5---5--5--|--5---5--5--5--|--5--5--5--5--||
|--3----3---3--3--|--3----3---3--3--|--3---3--3--3--|--3--3--3--3--||
|--3----3---3--3--|--3----3---3--3--|--3---3--3--3--|--3--3--3--3--||


Guitar I
||--5------9------|---8--------------|--8------------|-8------------|
||--8b-----11-----|---11-------------|---------------|-----10-------|
||----------------|------------------|---------------|---------12---|
||----------------|------------------|---------------|--------------|
||----------------|------------------|---------------|--------------|
||----------------|------------------|---------------|--------------|
Guitar II
||--5---5----5--5-|--5----5----5--5--|--5---5--5--5--|--5--5---5--5-|
||--5---5----5--5-|--5----5----5--5--|--5---5--5--5--|--5--5---5--5-|
||--7---7----7--7-|--7----7----7--7--|--7---7--7--7--|--7--7---7--7-|
||--7---7----7--7-|--7----7----7--7--|--7---7--7--7--|--7--7---7--7-|
||--5---5----5--5-|--5----5----5--5--|--5---5--5--5--|--5--5---5--5-|
||--5---5----5--5-|--5----5----5--5--|--5---5--5--5--|--5--5---5--5-|

Guitar I
|-----------------|--------55--------|---------------|--------------|
|-----------------|-------6--6-------|---------------|--------------|
|-----------------|------7----7------|---------------|--------------|
|--12-------------|-----7------7-----|---------------|--------------|
|--10-------------|--5h8---------8p5-|--5------------|--5-----------|
|-----------------|------------------|---------------|--------------|
Guitar II
|--3----3---3--3--|--3----3---3--3---|--3---3--3--3--|--3--3--3--3--|
|--3----3---3--3--|--3----3---3--3---|--3---3--3--3--|--3--3--3--3--|
|--5----5---5--5--|--5----5---5--5---|--5---5--5--5--|--5--5--5--5--|
|--5----5---5--5--|--5----5---5--5---|--5---5--5--5--|--5--5--5--5--|
|--3----3---3--3--|--3----3---3--3---|--3---3--3--3--|--3--3--3--3--|
|--3----3---3--3--|--3----3---3--3---|--3---3--3--3--|--3--3--3--3--|
comments
print report bad tab
6 comments total. Showing first comments.
+1 reply
Impakt wrote on January 22 2008, 10:17 pm

Fricken amazing tab.

0 reply
metalheadblues wrote on January 10 2009, 09:28 pm

it sure is
opeth for life

0 reply
Barrol.Rell wrote on July 25 2009, 03:20 pm

I was actually going to tab this, but you beat me to it... Too bad you spelled the name wrong. Great tab though.

I want to post or [tab]
guest
You may want to rate the tab now too:
select rating
Please do not post tabs as comments. Select "correction" instead!