Oops, an error
Loading. Please wait.

Deliverance Live Tab

3,998 views 6 this week
1 commentread comment
1 2 3 4 5
excellent!
x 4
Autoscroll
+/-
esc
set tempo
stop
Contributor
Hey! There's an official Ultimate Guitar app which is ideal
for learning songs when you're away from computer. Get the app
WARNING: You are trying to view
                                    content from Ultimate-Guitar.com
                                    in an unauthorized application,
                                    which is prohibited.

                                    Please use an official Ultimate
                                    Guitar Tabs application for iPhone,
                                    iPad or Android to access legitimate
                                    chords, guitar, bass, and drum tabs
                                    from Ultimate-Guitar.com database.

                                    Type "ultimate guitar tabs" in Apple
                                    App Store's or Android Market's
                                    search to find the application.
                             DELIVERANCE 
                        As recorded by Opeth
                  (On the 2003 DVD 'Lamentations')





.  - palm mute           /  - slide up to     ah - Artificial harmonics
\  - slide down to       ~  - vibrato         __ - Tremolo pick
h  - hammer on           b  - Bend
p  - pull off            Suffixes for bend
t  - tap                 f  - full bend    h - half bend
ph - pinched harmonic    q  - quarter bend t - tap bend
*  - see comment         ^  - Hold bend    r release bend
x  - Staccato            ~  - vibrato bend
,  - slight palm mute    () - ghost note, sustained note
"  - tremolo note        <> - Trill



Intro A Gtr I             4x            B                      C      7x
|-------------------------------|-----0--0--0--0--0--|--0--0--0--0--0--0--0|
|5-5-5--5-5-5-5-5--5-5--5-5--5-5|5--5/11-11-11-11-11-|-11-11-11-11-11-11-11|
|-------------------------------|--------------------|---------------------|
|-------------------------------|--------------------|---------------------|
|-------------------------------|--------------------|---------------------|
|-------------------------------|--------------------|---------------------|
|
|   Gtr II
|-------------------------------|--------------------|---------------------|
|-------------------------------|--------------------|---------------------|
|15--15---15----15---15---15----|15---15---15--------|-15----15----15------|
|14--14---14----14---14---14----|14---14---14--------|-14----14----14------|
|13--13---13----13---13---13----|13---13---13--------|-13----13----13------|
|--0----0---0-0----0----0----0-0|---0----0----0-0----|----0-----0-----0-0--|
   .    .   . .    .    .    . .    .    .    . .         .     .     . .

Intro C guitar one
|--0---0---0---0---0---0---0-|   |--0---0---0---0---0---0---0---0-|
|-11--11--11--11--11--11--11-|   |-11--11--11--11--11--11--11--11-|
|----------------------------|   |--------------------------------|
|----------------------------|4x |--------------------------------|2x
|----------------------------|   |--------------------------------|
|----------------------------|   |--------------------------------|
|                                |
|       guitar two               |
|----------------------------|   |--------------------------------|
|----------------------------|   |--------------------------------|
|----------------------------|   |--------------------------------|
|----------------------------|   |--------------------------------|
|-2-------2-------2----------|   |--------------------------------|
|-0-------0-------0----------|   |--------------------------------|
  *       *       *
* = accent


Riff 1 both guitars
|--------------------------------------------------------|
|--------------------------------------------------------|
|-5-5-----5-----5-----5------5-5---5-----5-----5-----3-4-|
|-4-4-----4-----4-----4------4-4---4-----4-----4---------|
|-3-3-----3-----3-----3------3-3---3-----3-----3-----1-2-|
|-2-2-0-0-2p0-0-2p0-0-2p0-0--2-2-0-2p0-0-2p0-0-2p0-0-----|
      . .     .     .     .      .     .     .     .

Riff 2
|----------------------------------------------|
|----------------------------------------------|
|--------------------------0-------------------|
|----------------------6-----------------------|
|-2-2-2/7-7-7-7-7----7---7---------------------|
|-0-0--------------0---------/7-6-6--3-2-2-1-0-|
  x x


Repeat
Riff 1
Riff 2
Riff 1
Riff 2
Riff 1
Riff 2



Outro 1 both guitars
|------------------------------|
|------------------------------|
|------------------------------|
|------------------------------|
|-----2-3---2-3/6-5---5-6/8--7-|
|-0-1-----4---------7--------0-|



Interlude 1 guitar one
|--------------------------------------------|
|--------------------------------------------|
|--------------------------------------------|
|--------------------------------------------|
|--------------------------------------------|
|--------------------------------------------|
|                                               2x
|           guitar two
|--------------------------------------------|
|------0---------0---------0---------0-------|
|------0---------0---------0---------0-------|
|----7---7-----7---7-----7---7-----7---7-----|
|--------------------------------------------|
|-0---------0---------0---------0---------0--|


Interlude 2 guitar one
|--------------------------------------------|
|--------------------------------------------|
|--------------------------------/9--7-------|
|---------------------------------------7--5-|
|--------------------------------------------|
|(0)-----------------------------------------|
|
|           guitar two
|--------------------------------------------|
|------0---------0---------0---------0-------|
|------0---------0---------0---------0-------|
|----7---7-----7---7-----7---7-----7---7-----|
|--------------------------------------------|
|-0---------0---------0---------0---------0--|


Interlude 3 guitar one
|--------------------------------------------|
|--------------------------------------------|
|--------------------------------------------|
|-4~-----------------------------------------|
|--------------------------------------------|
|--------------------------------------------|
|
|           guitar two
|--------------------------------------------|
|------0---------0---------0---------0-------|
|------0---------0---------0---------0-------|
|----7---7-----7---7-----7---7-----7---7-----|
|--------------------------------------------|
|-0---------0---------0---------0---------0--|


Interlude 4 guitar one
|-------0------------------------------------|
|---7----------------------------------------|
|-9---9--------------------------------------|
|--------------------------------------------|
|--------------------------------------------|
|--------------------------------------------|
|
|           guitar two
|--------------------------------------------|
|------0---------0---------0---------0-------|
|------0---------0---------0---------0-------|
|----7---7-----7---7-----7---7-----7---7-----|
|--------------------------------------------|
|-0---------0---------0---------0---------0--|


Interlude 5 guitar one
|--------------------------------------------|
|--------------------------------------------|
|------------------------------------------9-|
|--------------------------------------------|
|--------------------------------------------|
|--------------------------------------------|
|
|           guitar two
|--------------------------------------------|
|------0---------0---------0---------0-------|
|------0---------0---------0---------0-------|
|----7---7-----7---7-----7---7-----7---7-----|
|--------------------------------------------|
|-0---------0---------0---------0---------0--|


Interlude 6 guitar one
|--------------------------------------------|
|-7---7/8-------------10-8---7~--------------|
|---9----------------------------------------|
|--------------------------------------------|
|--------------------------------------------|
|--------------------------------------------|
|
|            guitar two
|--------------------------------------------|
|------0---------0---------0---------0-------|
|------0---------0---------0---------0-------|
|----7---7-----7---7-----7---7-----7---7-----|
|--------------------------------------------|
|-0---------0---------0---------0---------0--|


Interlude 7 guitar one
|--------------------------------------------|
|--------------------------------------------|
|------------------------------------------9-|
|--------------------------------------------|
|--------------------------------------------|
|--------------------------------------------|
|
|           guitar two
|--------------------------------------------|
|------0---------0---------0---------0-------|
|------0---------0---------0---------0-------|
|----7---7-----7---7-----7---7-----7---7-----|
|--------------------------------------------|
|-0---------0---------0---------0---------0--|


Interlude 8 guitar one
|-----0--------------------------------------|
|-7------------------------------------------|
|---9----------------------------------------|
|--------------------------------------------|
|--------------------------------------------|
|--------------------------------------------|
|
|           guitar two
|--------------------------------------------|
|------0---------0---------0---------0-------|
|------0---------0---------0---------0-------|
|----7---7-----7---7-----7---7-----7---7-----|
|--------------------------------------------|
|-0---------0---------0---------0---------0--|


Interlude 9 guitar one
|-----------------------------------------0--|
|-------------------------------------7------|
|-----------------------------------9---9----|
|--------------------------------------------|
|--------------------------------------------|
|--------------------------------------------|
|
|           guitar two
|--------------------------------------------|
|------0---------0---------0---------0-------|
|------0---------0---------0---------0-------|
|----7---7-----7---7-----7---7-----7---7-----|
|--------------------------------------------|
|-0---------0---------0---------0---------0--|


Interlude 10 guitar one
|--------------------------------------------|
|--------------------------------------------|
|--------------------------------------------|
|--------------------------------------------|
|--------------------------------------------|
|--------------------------------------------|
|                                               2x
|           guitar two
|--------------------------------------------|
|------0---------0---------0---------0-------|
|------0---------0---------0---------0-------|
|----7---7-----7---7-----7---7-----7---7-----|
|--------------------------------------------|
|-0---------0---------0---------0---------0--|

Riff 3 both guitars
|-------------|-----|------------|
|-------------|-----|------------|
|-------------|-----|-0--0--0--0-|
|-4--4--4-----|-----|-0--0--0--0-|
|-------------|-7x..|------------|
|-2--2--2--0--|-----|-3--3--3--3-|


Interlude 11 guitar one
|-7~------------10---------------------------|
|--------------------7---------------5-------|
|--------------------------------------------|
|--------------------------------------------|
|--------------------------------------------|
|--------------------------------------------|
|
|           guitar two
|--------------------------------------------|
|------0---------0---------0---------0-------|
|------0---------0---------0---------0-------|
|----7---7-----7---7-----7---7-----7---7-----|
|--------------------------------------------|
|-0---------0---------0---------0---------0--|


Interlude 12 guitar one
|-5--------------7---------------------------|
|---------------------------8\7~-------------|
|--------------------------------------------|
|--------------------------------------------|
|--------------------------------------------|
|--------------------------------------------|
|
|           guitar two
|--------------------------------------------|
|------0---------0---------0---------0-------|
|------0---------0---------0---------0-------|
|----7---7-----7---7-----7---7-----7---7-----|
|--------------------------------------------|
|-0---------0---------0---------0---------0--|


Interlude 13 guitar one
|-7~------------10---------------------------|
|--------------------7---------------5-------|
|--------------------------------------------|
|--------------------------------------------|
|--------------------------------------------|
|--------------------------------------------|
|
|           guitar two
|--------------------------------------------|
|------0---------0---------0---------0-------|
|------0---------0---------0---------0-------|
|----7---7-----7---7-----7---7-----7---7-----|
|--------------------------------------------|
|-0---------0---------0---------0---------0--|


Interlude 14 guitar one
|-5------------------------------------------|
|----------------8------------7\5------------|
|--------------------------------------------|
|--------------------------------------------|
|--------------------------------------------|
|--------------------------------------------|
|
|           guitar two
|--------------------------------------------|
|------0---------0---------0---------0-------|
|------0---------0---------0---------0-------|
|----7---7-----7---7-----7---7-----7---7-----|
|--------------------------------------------|
|-0---------0---------0---------0---------0--|


Interlude 15 guitar one
|-------0------------------------------------|
|---7----------------------------------------|
|-9---9--------------------------------------|
|--------------------------------------------|
|--------------------------------------------|
|--------------------------------------------|
|
|           guitar two
|--------------------------------------------|
|------0---------0---------0---------0-------|
|------0---------0---------0---------0-------|
|----7---7-----7---7-----7---7-----7---7-----|
|--------------------------------------------|
|-0---------0---------0---------0---------0--|

Interlude 16 guitar one
|--------------------------------------------|
|--------------------------------------------|
|------------------------------------------9-|
|--------------------------------------------|
|--------------------------------------------|
|--------------------------------------------|
|
|           guitar two
|--------------------------------------------|
|------0---------0---------0---------0-------|
|------0---------0---------0---------0-------|
|----7---7-----7---7-----7---7-----7---7-----|
|--------------------------------------------|
|-0---------0---------0---------0---------0--|


Interlude 17
|-----0--------------------------------------|
|-7------------------------------------------|
|---9----------------------------------------|
|--------------------------------------------|
|--------------------------------------------|
|--------------------------------------------|
|
|           guitar two
|--------------------------------------------|
|------0---------0---------0---------0-------|
|------0---------0---------0---------0-------|
|----7---7-----7---7-----7---7-----7---7-----|
|--------------------------------------------|
|-0---------0---------0---------0---------0--|


Interlude 18
|--------------------------------------------|
|--------------------------------------------|
|--------------------------------------------|
|--------------------------------------------|
|--------------------------------------------|
|--------------------------------------------|
|
|           guitar two
|--------------------------------------------|
|------0---------0---------0---------0-------|
|------0---------0---------0---------0-------|
|----7---7-----7---7-----7---7-----7---7-----|
|--------------------------------------------|
|-0---------0---------0---------0---------0--|


Repeat
Riff 3

Riff 4 both guitars
|-------------|------|---------|
|-------------|------|---------|
|-------------|------|---------|
|-------------|------|---------|
|-2--2--2-----|-7x..-|--2---2--|
|-0--0--0--0--|------|--0---0--|
           .

Repeat
Riff 1
Riff 2
Riff 1
Riff 2
Riff 1
Riff 2
Riff 1
Riff 2



Riff 5 guitar one
|-------------------------------|
|-------------------------------|
|-------------------------------|
|-----4-5---4-5/8-7---7-8/10-9~-|
|-2-3-----6---------9-----------|
|-------------------------------|
|
|      guitar two
|-------------------------------|
|-------------------------------|
|-------------------------------|
|-------------------------------|
|-----2-3---2-3/6-5---5-6/8--7--|
|-0-1-----4---------7--------0--|


Guitar solo guitar one
|----------------------------------------------------------------|
|----------------------------------------------------------------|
|----------------------------------------------------------------|
|-4----4----4-------4---4---4-------5---5---5-------5---5---5----|
|-----------------------------------4---4---4-------4---4---4----|
|-2----2----2---0---2---2---2---0---3---3---3---0---3---3---3--0-|
|
|           guitar two
|-2-3-6--3h6p3--2h3p2-----2--------------------------------------|
|----------------------5-----5-3-2h3p2-----3-3-2-----------------|
|---------------------------------------4---------4h5--4--2--4---|
|----------------------------------------------------------------|
|----------------------------------------------------------------|
|----------------------------------------------------------------|


 Guitar one
|----------------------------------------------------------------|
|----------------------------------------------------------------|
|----------------------------------------------------------------|
|-7----7---7-------7---7---7-------8---8---8-------3---3---3-----|
|----------------------------------------------------------------|
|-5----5---5---0---5---5---5---0---6---6---6---0---1---1---1---0-|
|
|            Guitar two
|----------------------------------13p9-----------------4--------|
|-------------8----8-10-11-10-10--------11------------6---6------|
|-------6-7h9----9---------------9---------10-------5-------5p4--|
|-7--7----------------------------------------8/3h6--------------|
|----------------------------------------------------------------|
|----------------------------------------------------------------|


Guitar one
|----------------------------------------------------------------|
|----------------------------------------------------------------|
|----------------------------------------------------------------|
|-4----4----4-------4---4---4-------5---5---5-------5---5---5----|
|-----------------------------------4---4---4-------4---4---4----|
|-2----2----2---0---2---2---2---0---3---3---3---0---3---3---3--0-|
|
|guitar two
|----------------------------------------------------------------|
|----------------------------------------------------------------|
|-3~------------3--4--3-----3-------4~----------4-/7--6--4---3---|
|------------------------4---------------------------------------|
|----------------------------------------------------------------|
|----------------------------------------------------------------|


Guitar one
|----------------------------------------------------------------|
|----------------------------------------------------------------|
|----------------------------------------------------------------|
|-7----7---7-------7---7---7-------8---8---8-------3---3---3-----|
|----------------------------------------------------------------|
|-5----5---5---0---5---5---5---0---6---6---6---0---1---1---1---0-|
|
|guitar two
|-----------------------------------------------9-13-9-8---8------|
|------------------------------------11------11----------9---9-10-|
|-6--6h9p6---6---7p6-4-6h7p6------10----9h10----------------------|
|----------------------------8h11---------------------------------|
|-----------------------------------------------------------------|
|-----------------------------------------------------------------|


Guitar one
|----------------------------------------------------------------|
|----------------------------------------------------------------|
|----------------------------------------------------------------|
|-4----4----4-------4---4---4-------5---5---5-------5---5---5----|
|-----------------------------------4---4---4-------4---4---4----|
|-2----2----2---0---2---2---2---0---3---3---3---0---3---3---3--0-|
|
|guitar two
|----------------------------------------------------------------|
|-7~-------------------------------------------------------------|
|----------------------------------------------------------------|
|-----------------------------------5---5---5-------5---5---5----|
|-----------------------------------4---4---4-------4---4---4----|
|-----------------------------------3---3---3---0---3---3---3--0-|


Riff 6 both guitars
|----------------------------------------------------------------|
|----------------------------------------------------------------|
|----------------------------------------------------------------|
|-7----7---7-------7---7---7-------8---8---8-------3---3---3-----|
|----------------------------------------------------------------|
|-5----5---5---0---5---5---5---0---6---6---6---0---1---1---1---0-|


Riff 7
|----------------------------------------------------------------|
|----------------------------------------------------------------|
|----------------------------------------------------------------|
|-4----4----4-------4---4---4-------5---5---5-------5---5---5----|
|-----------------------------------4---4---4-------4---4---4----|
|-2----2----2---0---2---2---2---0---3---3---3---0---3---3---3--0-|


Repeat
Riff 6

Riff 8 both guitars
|--------------------------------------------|
|--------------------3---3-------3---3-------|
|--------------------0---0-------0---0-------|
|--------------------0---0-------0---0-------|
|-2------------------------------------------|
|-0--------0--0--0---3---3---0---3---3--0--0-|
           .  .  .           .          .  .

Riff 9 both guitars
|-----------------------------|
|-----------------------------|
|-4-4-4-------4------4--4--4--|
|-4-4-4-------4------4--4--4--|2x
|-2-2-2-------0------0--0--0--|
|--------0-0------------------|
         . .

Riff 10 both guitars
|-----------------------------------------------------------------|
|-----------------------------------------------------------------|
|-7-7-7-------------------------------3-3-3-------3---------------|
|-7-7-7-------7-7-7-------5-5-5-------3-3-3-------3---------------|
|-5-5-5-------4-4-4-------2-2-2-------1-1-1-------1------1p0------|
|--------0-0--5-5-5--0-0---------0-0---------0-0-----0-0-----3p0--|
         . .         . .         . .         . .     . .

Repeat
Riff 9 2x
Riff 10
Riff 9 2x
Riff 10
Riff 9
Riff 10


Riff 11 guitar one
|-------------------------------------------------------------------|
|-------------------------------------------------------------------|
|-4---4---4---------4------4--4--4-------4-4-4-------4--4--4--4-4-4-|
|-4---4---4---------4------4--4--4-------4-4-4-------4--4--4--4-4-4-|
|-2---2---2---------0------0--0--0-------2-2-2-------0--0--0--0-0-0-|
|-------------0-0-------------------------------0-0-----------------|
|             . .                               . .
|       guitar two
|-------------------------------------------------------------------|
|-------------------------------------------------------------------|
|-9-9-9-9-9-9/11-11-11-11-11-7-7-7-7-7-7/9-9-9-9-9-9\6-6-6-6-6-6----|
|-------------------------------------------------------------------|
|-------------------------------------------------------------------|
|-------------------------------------------------------------------|


Riff 12 guitar one
|----------------------------|
|----------------------------|
|-7--7--7--------------------|
|-7--7--7-------7--7--7------|
|-5--5--5-------4--4--4------|
|----------0-0--5--5--5--0-0-|
|          . .           . .
|       guitar two
|----------------------------|
|----------------------------|
|-10-10-10-10-10\-9-9-9-9-9--|
|----------------------------|
|----------------------------|
|----------------------------|

 guitar one
|---------------------------------------------------|
|---------------------------------------------------|
|---------------------------------------------------|
|--5--5--5-------3--3--3--------3-------------------|
|--2--2--2-------1--1--1--------1---------1p0-------|
|-----------0-0-----------0-0-------0-0---------3p0-|
|
| guitar two
|---------------------------------------------------|
|---------------------------------------------------|
|14-14-14-14-14/12-12-12-12-12-12-10-10-10-10-10-10-|
|---------------------------------------------------|
|---------------------------------------------------|
|---------------------------------------------------|

Repeat
Riff 11
Riff 12


Riff 13 both guitars
|------------------------|-----|----------------------------|
|------------------------|-----|----------------------------|
|------------------------|-----|----------------------------|
|-4--4--4--4-4-4-4-4-4-4-|-----|----------------------------|4x
|-4--4--4--4-4-4-4-4-4-4-|-3x..|-5--5-5-5-5-5--3--3-3-3-3-3-|
|-2--2--3--3-3-3-3-3-3-3-|-----|-6--6-6-6-6-6--4--4-4-4-4-4-|


Repeat
Riff 9 2x
Riff 10
Riff 9 2x
Riff 10
Riff 11
Riff 12
Riff 11
Riff 12
Riff 13 4x


Riff 14 both guitars
|-------------------------|-----|--------------------|
|-------------------------|-----|--------------------|
|-------------------------|-----|--------------------|
|-------------------------|-----|--------------------|8x
|-------------------------|-2x..|---------------5/7--|
|-0-0-0-0-0-0-0-0-0-0-0-0-|-----|-0-0-0-3h5-5p0------|
  . . . . . . . . . . . .         . . .


Guitar solo

Guitar one
|-------------------------------------------------10----------------|
|-10bf-----------------------12-10-12-13-12-10-12----12-10-12-------|
|--------------------------------------------------------------9h10-|
|-------------------------------------------------------------------|
|-------------------------------------------------------------------|
|-------------------------------------------------------------------|
|
|guitar two
|-------------------------------------------------------------------|
|-------------------------------------------------------------------|
|-------------------------------------------------------------------|
|-------------------------------------------------------------------|
|---------------------------------------------------------------5/7-|
|-0-0-0-0-0-0-0-0-0-0-0-0-0-0-0-0-0-0-0-0-0-0-0-0-0-0-0-3h5-5p0-----|
  . . . . . . . . . . . . . . . . . . . . . . . . . . .

Guitar one
|-------------------------------------------------------------------|
|-------------------------------------------------------------------|
|-9~------------8h9p8-7-8-7---7---7---------------------------------|
|---------------------------9---9---8h9-8p5-8-----------------------|
|---------------------------------------------9-10-7-9----7~~-------|
|------------------------------------------------------10-----------|
|
|guitar two
|-------------------------------------------------------------------|
|-------------------------------------------------------------------|
|-------------------------------------------------------------------|
|-------------------------------------------------------------------|
|---------------------------------------------------------------5/7-|
|-0-0-0-0-0-0-0-0-0-0-0-0-0-0-0-0-0-0-0-0-0-0-0-0-0-0-0-3h5-5p0-----|
  . . . . . . . . . . . . . . . . . . . . . . . . . . .


Guitar one
|-------------------------------------------------------------------|
|-----------------ph---ph-------------------------------------------|
|---------9----0--7---(7~)------------------------------------------|
|-----------9---------------7/9----------(9)------------------------|
|-7~----------------------------------------------------------------|
|-------------------------------------------------------------------|
|
| guitar two
|-------------------------------------------------------------------|
|-------------------------------------------------------------------|
|-------------------------------------------------------------------|
|-------------------------------------------------------------------|
|---------------------------------------------------------------5/7-|
|-0-0-0-0-0-0-0-0-0-0-0-0-0-0-0-0-0-0-0-0-0-0-0-0-0-0-0-3h5-5p0-----|
  . . . . . . . . . . . . . . . . . . . . . . . . . . .


Guitar one
|-/17bf--------------17-15-14-15-14--15p14--------------------------|
|------------------------------------------15-----------------------|
|----------------------------------------------14--14~--------------|
|---------------------------------------------------------12--------|
|-------------------------------------------------------------------|
|-------------------------------------------------------------------|
|
| guitar two
|-------------------------------------------------------------------|
|-------------------------------------------------------------------|
|-------------------------------------------------------------------|
|-------------------------------------------------------------------|
|---------------------------------------------------------------5/7-|
|-0-0-0-0-0-0-0-0-0-0-0-0-0-0-0-0-0-0-0-0-0-0-0-0-0-0-0-3h5-5p0-----|
  . . . . . . . . . . . . . . . . . . . . . . . . . . .


Guitar one
|--------------------------------------------------------------------|
|-15fb-----12h15p12----12--------------------------------------------|
|-------------------14----14-12-14~-12h14p12-11h12p11----------------|
|-----------------------------------------------------12h14-12-------|
|-------------------------------------------------------------/12-10-|
|--------------------------------------------------------------------|
|
|guitar two
|--------------------------------------------------------------------|
|--------------------------------------------------------------------|
|--------------------------------------------------------------------|
|--------------------------------------------------------------------|
|-2------------------------------------------------------------------|
|-0------------------------------------------------------------------|


Riff 15  guitar one
|------------------------------------------------------------------|
|------------------------------------------------------------------|
|------------------------------------------------------------------|
|------------------------------------------------------------------|
|-7--..whammy-flutter..--------------------------------------------|
|------------------------------------------------------------------|
|
|        guitar two (clean)
|------------------------------------------------------------------|
|--------0------------------------------------------0------------0-|
|------0---0----------0-------0--------0---0------0---0--------0---|
|-------------------0---0-------0--------0------0-------0----0-----|
|---7---------7------------9-------10---------4------------3-------|
|-0--------------0-------------------------------------------------|


Riff 16 guitar one
|------------------------------------------------------------------------------|
|------------------------------------------------------------------------------|
|------------------------------------------------------------------------------|
|------------------------------------------------------------------------------|
|-(7)--..whammy-flutter..------------------------------------------------------|
|------------------------------------------------------------------------------|
|
|
|------------------------------------------------------------------------------|
|--------0---------------------------------------15-15-15-15-15-15-15-15-15-15-|
|------0---0----------0-------0--------0---0------0--0--0--0--0--0--0--0--0--0-|
|-------------------0---0-------0--------0-------12-12-12-12-12-12-12-12-12-12-|
|---7---------7------------9-------10------------13-13-13-13-13-13-13-13-13-13-|
|-0--------------0----------------------------0--------------------------------|


Riff 17 guitar one
|-------0----------------------------------------------------------|
|-------7--..whammy-bar..------------------------------------------|
|-------9----------------------------------------------------------|
|------------------------------------------------------------------|
|------------------------------------------------------------------|
|------------------------------------------------------------------|
|
|        guitar two (clean)
|------------------------------------------------------------------|
|--------0------------------------------------------0------------0-|
|------0---0----------0-------0--------0---0------0---0--------0---|
|-------------------0---0-------0--------0------0-------0----0-----|
|---7---------7------------9-------10---------4------------3-------|
|-0--------------0-------------------------------------------------|


Riff 18
|------------------------------------------------------------------------------|
|------------------------------------------------------------------------------|
|------------------------------------------------------------------------------|
|------------------------------------------------------------------------------|
|------------------------------------------------------------------------------|
|------------------------------------------------------------------------------|
|
|
|------------------------------------------------------------------------------|
|--------0---------------------------------------15-15-15-15-15-15-15-15-15-15-|
|------0---0----------0-------0--------0---0------0--0--0--0--0--0--0--0--0--0-|
|-------------------0---0-------0--------0-------12-12-12-12-12-12-12-12-12-12-|
|---7---------7------------9-------10------------13-13-13-13-13-13-13-13-13-13-|
|-0--------------0----------------------------0--------------------------------|


Repeat
Riff 17
Riff 18
Riff 17
Riff 18
Riff 17
Riff 18
Riff 17
Riff 18

Riff 19 guitar one
|-------------------------------------------|
|----0-------0-------0-------0-------0----0-|
|-16---16-15---15-13---13-13---13-13---13---|
|-------------------------------------------|2x
|-------------------------------------------|
|-------------------------------------------|


Riff 20 guitar one
|-------------------------------------------|
|----0-------0-------0-------0-------0----0-|
|-12---12-12---12-9----9--9-----9-9----9----|
|-------------------------------------------|
|-------------------------------------------|
|-------------------------------------------|


Riff 21 guitar one
|-------------------------------------------|
|----0-------0------0--------0-------0----0-|
|-12---12-13---12-9----9--9-----9-9----9----|
|-------------------------------------------|
|-------------------------------------------|
|-------------------------------------------|


Repeat
Riff 19 2x
Riff 20
Riff 21


Riff 22 guitar one
|-------------------------------------------|
|----0-------0-------0-------0-------0----0-|
|-16---16-15---15-13---13-13---13-13---13---|
|-------------------------------------------|
|-------------------------------------------|
|-------------------------------------------|
|
|       guitar two
|-------------------------------------------|
|-------------------------------------------|
|-------------------------------------------|
|-------------------------------------------|
|--2--------2----------2--------2-----------|
|--0--0--0--0----------0--0--0--0--0--------|
   .  .  .  .          .  .  .  .  .

Guitar one
|-------------------------------------------|
|----0-------0-------0-------0-------0----0-|
|-16---16-15---15-13---13-13---13-13---13---|
|-------------------------------------------|
|-------------------------------------------|
|-------------------------------------------|
|
|
|-------------------------------------------|
|-------------------------------------------|
|-------------------------------------------|
|-------------------------------------------|
|--2--------2-----2-----2--------2----------|
|--0--0--0--0-----0-----0--0--0--0--0-------|
   .  .  .  .     .     .  .  .  .  .

Guitar one
|-------------------------------------------|
|----0-------0-------0-------0-------0----0-|
|-12---12-12---12-9----9--9-----9-9----9----|
|-------------------------------------------|
|-------------------------------------------|
|-------------------------------------------|
|
|
|-------------------------------------------|
|-------------------------------------------|
|-------------------------------------------|
|-------------------------------------------|
|-----------------2---2-------2--------2----|
|-0-0-0-0-0-0-0-0-0---0---0-0-0---0-0--0----|
  . . . . . . . . .   .   . . .   . .  .


Guitar one
|-------------------------------------------|
|----0-------0------0--------0-------0----0-|
|-12---12-13---12-9----9--9-----9-9----9----|
|-------------------------------------------|
|-------------------------------------------|
|-------------------------------------------|
|
|
|-------------------------------------------|
|-------------------------------------------|
|-------------------------------------------|
|-------------------------------------------|
|------2--------2--------2---------2--------|
|-0-0--0---0-0--0---0-0--0--0--0---0--------|
  . .  .   . .  .   . .  .  .  .   .

Repeat
Riff 22 3x


Riff 23 guitar one
|----------------------------------------------|
|----------------------------------------------|
|-16-16-16-15-15-15-12-12-12-13-13-13-9-9-9-9--|
|----------------------------------------------|
|-14-14-14-13-13-13-10-10-10-11-11-11-7-7-7-7--|
|----------------------------------------------|
|
|       guitar two
|----------------------------------------------|
|----------------------------------------------|
|----------------------------------------------|
|----------------------------------------------|
|-2-----2-----2-----2-----2-----2-----2---2----|
|-0-----0-----0-----0-----0-----0-----0---0----|


Riff 24 guitar one
|----------------------------------------------|
|----------------------------------------------|
|-16-16-16-15-15-15-12-12-12-13-13-13-9-9-9-9--|
|----------------------------------------------|
|-14-14-14-13-13-13-10-10-10-11-11-11-7-7-7-7--|
|----------------------------------------------|
|                                                2x
|       guitar two
|----------------------------------------------|
|----------------------------------------------|
|----------------------------------------------|
|-9-----9-----9-----9-----9-----9-----9---9----|
|/7-----7-----7-----7-----7-----7-----7---7----|
|-0-----0-----0-----0-----0-----0-----0---0----|


Repeat
Riff 23 5x
Riff 22 4x
Riff 23
Riff 24 2x
Riff 22 5x


Riff 25 both guitars
|-------------------------------------------|
|-------------------------------------------|
|-------------------------------------------|
|-------------------------------------------|
|--2--------2----------2--------2-----------|
|--0--0--0--0----------0--0--0--0--0--------|
   .  .  .  .          .  .  .  .  .


|-------------------------------------------|
|-------------------------------------------|
|-------------------------------------------|
|-------------------------------------------|
|--2--------2-----2-----2--------2----------|
|--0--0--0--0-----0-----0--0--0--0--0-------|
   .  .  .  .     .     .  .  .  .  .


|-------------------------------------------|
|-------------------------------------------|
|-------------------------------------------|
|-------------------------------------------|
|-----------------2---2-------2--------2----|
|-0-0-0-0-0-0-0-0-0---0---0-0-0---0-0--0----|
  . . . . . . . . .   .   . . .   . .  .


|-------------------------------------------|
|-------------------------------------------|
|-------------------------------------------|
|-------------------------------------------|
|------2--------2--------2---------2--------|
|-0-0--0---0-0--0---0-0--0--0--0---0--------|
  . .  .   . .  .   . .  .  .  .   .

Riff 26 both guitars
|-------------------------------------------|
|-------------------------------------------|
|-------------------------------------------|
|-------------------------------------------|
|--2--------2----------2--------2-----------|
|--0--0--0--0----------0--0--0--0--0--------|
   .  .  .  .          .  .  .  .  .


|-------------------------------------------|
|-------------------------------------------|
|-------------------------------------------|
|-------------------------------------------|
|--2--------2-----2-----2--------2----------|
|--0--0--0--0-----0-----0--0--0--0--0-------|
   .  .  .  .     .     .  .  .  .  .


|-------------------------------------------|
|-------------------------------------------|
|-------------------------------------------|
|-------------------------------------------|
|-----------------2---2-------2--------2----|
|-0-0-0-0-0-0-0-0-0---0---0-0-0---0-0--0----|
  . . . . . . . . .   .   . . .   . .  .



|-------------------------------------------|
|-------------------------------------------|
|-------------------------------------------|
|-------------------------------------------|
|------2--------2---------------------------|
|-0-0--0---0-0--0---------------------------|
  . .  .   . .  *                               * = accent.

comments
print report bad tab
1 comment total.
0 reply
extra_t wrote on September 3 2007, 10:03 pm

that's coo

I want to post or [tab]
guest
You may want to rate the tab now too:
select rating
Please do not post tabs as comments. Select "correction" instead!