Oops, an error
Loading. Please wait.

Demon Of The Fall Tab

ver1
ver1

Whole song

Interactive

More versions @911Tabs.com
33,016 views 90 this week
10 commentsread comments
1 2 3 4 5
excellent!
x 12
Autoscroll
+/-
esc
set tempo
stop
Contributor
WARNING: You are trying to view
                                    content from Ultimate-Guitar.com
                                    in an unauthorized application,
                                    which is prohibited.

                                    Please use an official Ultimate
                                    Guitar Tabs application for iPhone,
                                    iPad or Android to access legitimate
                                    chords, guitar, bass, and drum tabs
                                    from Ultimate-Guitar.com database.

                                    Type "ultimate guitar tabs" in Apple
                                    App Store's or Android Market's
                                    search to find the application.
Opeth - Demon Of The Fall
"My Arms, Your Hearse"

This is the official tab straight outta the book, so is %100.
This is a long one but totaly worth learning. 

[Riff A]
|-------------------------|-------------------------|-------------------------|
|*------------------------|-------------------------|-------------------------|
|-7---7-7-7-7-7---7-7-7-7-|-7---7-7-7-7-7---7-7-7-7-|-------------------------|
|-x---x-x-x-x-x---x-x-x-x-|-x---x-x-x-x-x---x-x-x-x-|-------------------------|
|*5---5-5-5-5-5---5-5-5-5-|-5---5-5-5-5-5---5-5-5-5-|-----6---3s5-5-----------|
|-0---0-0-0-0-7---7-7-7-7-|-6---6-6-6-6-6---6-6-6-6-|s8p6-------------0-0-0-0-|
                                                                     
|-------------------------|-------------------------|-------------|
|------------------------*|-------------------------|-------------|
|-------------------------|---------(rest)----------|-------------|
|-------------------------|-------------------------|-6-1---1-----|
|-----6---6-8-9-8-6/9----*|-------------------------|-6-1---1-----|
|s8p6---------------------|-------------------------|-6-1---1-----|

[Verse]                                                                  
|-------------------------|-------------------------|-------------------------|
|*------------------------|-------------------------|-------------------------|
|-4---4-4-4-4s6-6-6-6-6-6-|-6s7-7-7-7-7-7---7-7-7-7-|-7---7-7-7-7-9---9-9-9-9-|
|-x---x-x-x-x-x-x-x-x-x-x-|-x-x-x-x-x-x-x---x-x-x-x-|-x---x-x-x-x-x---x-x-x-x-|
|*2---2-2-2-2s4-4-4-4-4-4-|-4s5-5-5-5-5-5---5-5-5-5-|-5---5-5-5-5-7---7-7-7-7-|
|-0---0-0-0-0-0-0-0-0-0-0-|-0-0-0-0-0-0-0---0-0-0-0-|-0---0-0-0-0-0---0-0-0-0-|

|-------------------------|-------------------------|-------------------------|
|*------------------------|-------------------------|-------------------------|
|14--14141414s9---9-9-9-9-|-9s101010101010--10101010|10--1010101010s1414141414|
|-x---x-x-x--x----x-x-x-x-|-x--x-x-x-x-x-x---x-x-x-x|-x---x-x-x-x-x--x-x-x-x-x|
|12--12121212s7---7-7-7-7-|-7s-8-8-8-8-8-8---8-8-8-8|-8---8-8-8-8-8s1212121212|
|-------------------------|-------------------------|-------------------------|

|-------------------------|-------------------------|
|-------------------------|-------------------------|
|-9s101010101010--10101010|10--1010101012--12121212-|
|-x--x-x-x-x-x-x---x-x-x-x|-x---x-x-x-x-x---x-x-x-x-|
|-7s-8-8-8-8-8-8---8-8-8-8|-8---8-8-8-810--10101010-|
|-0--0-0-0-0-0-0---0-0-0-0|-0---0-0-0-0-0---0-0-0-0-|

|-------------------------|-------------------------|
|-------------------------|-------------------------|
|14--1414141414--14141414-|14--141414-gs7---7-7-7-7-|
|-x---x-x-x-x-x---x-x-x-x-|-x---x-x-x---x---x-x-x-x-|
|12--1212121212--12121212-|12--121212-gs5---5-5-5-5-|
|-------------------------|-------------------------|

|--------------------------|-------------------------|
|--------------------------|-------------------------|
|12s141414141414--14141414-|13--1313131312--12121212-|
|-x--x-x-x-x-x-x---x-x-x-x-|-x---x-x-x-x-x---x-x-x-x-|
|10s121212121212--12121212-|11--1111111110--10101010-|
|-0--0-0-0-0-0-0---0-0-0-0-|-0---0-0-0-0-0---0-0-0-0-|

|---------------------------|-------------------------|
|---------------------------|-------------------------|
|10--10--9-9-9---9-9-9-9s13-|13--1313131312--121212---|
|-x---x--x-x-x---x-x-x-x--x-|-x---x-x-x-x-x---x-x-x---|
|-8---8--7-7-7---7-7-7-7s11-|11--1111111110--101010---|
|---------------------------|-------------------------|

|--------------------------|
|-------------------------*|
|12s101010101010--101010s4-|
|-x--x-x-x-x-x-x---x-x-x-x-|
|10s-8-8-8-8-8-8---8-8-8s2*|
|-0--0-0-0-0-0-0---0-0-0-0-|

|--------------------------|
|-------------------------*|
|10---7---7-7-7---7-7s14---|
|-x---x---x-x-x---x-x-x----|
|-8---5---5-5-5---5-5s12--*|
|--------------------------|

[Chorus]
|--------------------------|-------------------------|
|*-------------------------|-------------------------|
|--------------------------|-------------------------|
|-1---1-1-1-1-1p0-0-0------|-------------------------|
|*1---1-1-1-1-1p0-0-0------|-------------------------|
|-1---1-1-1-1-1p0-0-0------|-1----<1>gs--6-----------|

|--------------------------|-------------------------|
|*-------------------------|-------------------------|
|-8---8-8-8-8-8s7-7-7------|----(look above)---------|
|-8---8-8-8-8-8s7-7-7------|-------------------------|
|*6---6-6-6-6-6s5-5-5------|-------------------------|
|--------------------------|-------------------------|

|--------------------------|-------------------------|
|--------------------------|------------------------*|
|--------------------------|(7)---(7)---(5)----------|
|-1---1-1-1-1-1p0-0-0------|-7-----7-----5---5-5-5-5-|
|-1---1-1-1-1-1p0-0-0------|-5-----5-----3---3-3-3-3*|
|-1---1-1-1-1-1p0-0-0------|-0-----5-----3---3-3-3-3-|
                            
|--------------------------|-------------------------|
|--------------------------|------------------------*|
|-8---8-8-8-8-8s7-7-7------|----(look above)---------|
|-8---8-8-8-8-8s7-7-7------|-------------------------|
|-6---6-6-6-6-6s5-5-5------|------------------------*|
|--------------------------|-------------------------|

|--------------------------|-------------------<-----|
|--------------------------|------------------->-----|
|(7)---(7)---(5)-----------|<5>----------------<-2---|
|-7-----7-----5------------|<5>---------------->-0---|
|-5-----5-----3------------|<3>----------------<-0---|
|-0-----5-----3------------|<3>---------------->-0---|

|-5---5-5---------|-----------------|-4---4-4---------|-----------------|
|*3---3-3---------|-----------------|-3---3-3---------|-----------------|
|-2---2-2---------|---------5s7-----|-2---2-2---------|---------5s7-----|
|-0---0-0---------|---------x-x-----|-0---0-0---------|---------x-x-----|
|*------------***-|---------3s5-----|-------------***-|---------3s5-----|
|-------------3p0-|-0-0-0-0-----0-0-|-------------3p0-|-0-0-0-0-----0-0-|
                                                              
|-3---3-1---------|-----------------|-----------------|-----------------|
|-3---3-3---------|-----------------|-5s6-6-6-----8s5-|-5-5----1111----*|
|-2---2-2---------|---------5s7-----|-x-x-x-x-----x-x-|-x-x-----x-x-----|
|-0---0-0---------|---------x-x-----|-2s3-3-3-----5s2-|-2-2-----8-8-----|
|-------------***-|---------3s5-----|-x-x-x-x-----x-x-|-x-x-----x-x----*|
|-------------3p0-|-0-0-0-0-----0-0-|-0-0-0-0-0-0-0-0-|-0-0-0-0-0-0-0-0-|

|-----------------|
|-5-5----11-------|
|-x-x-----x-------|
|-2-2-----8-------|
|-x-x-----x-------|
|-0-0-0-0-0-------|

|-----------------|-------------|-------------|-------------|-------------|
|-----------------|*------------|-------------|-------------|-------------|
|-----------------|-------------|-------------|-------------|-------------|
|-----------------|-------------|-------------|-------------|-------------|
|-----------------|*------------|-------------|-------------|-------------|
|-------------0---|-------------|-------------|-------------|-------------|

|-----------------|-------------|-------------|-------------|
|-----------------|-------------|-------------|------------*|
|-----------------|-------------|-------------|-------------|
|-----------------|-------------|-------------|-------------|
|-----------------|-------------|-------------|------------*|
|-----------------|-------------|-------------|-------------|

|-5---5-5---------|-----------------|-4---4-4---------|-----------------|
|*3---3-3---------|-----------------|-3---3-3---------|-----------------|
|-2---2-2---------|---------5s7-----|-2---2-2---------|---------5s7-----|
|-0---0-0---------|---------x-x-----|-0---0-0---------|---------x-x-----|
|*----------------|---------3s5-----|-----------------|---------3s5-----|
|-------------3p0-|-0-0-0-0-----0-0-|-------------3p0-|-0-0-0-0-----0-0-|

|-3---3-1---------|-----------------|-----------------|-----------------|
|-3---3-3---------|-----------------|-----------------|----------------*|
|-2---2-2---------|---------5s7-----|-5s7-7-7-----5---|-5s8-8-8-8-8-----|
|-0---0-0---------|---------x-x-----|-x-x-x-x-----x---|-x-x-x-x-x-x-----|
|-----------------|---------3s5-----|-3s5-5-5-----3---|-3s6-6-6-6-6----*|
|-------------3p0-|-0-0-0-0-----0-0-|-0-0-0-0-0-0-0---|-0-0-0-0-0-0-0-0-|
                        
|-----------------|-----------------|-----------------|-----------------|
|-----------------|-----------------|-----------------|-----------------|
|--(look above)---|--(look above)---|-5s101010---12s10|-9s8-8-8-8-8-----|
|-----------------|-----------------|-x-x-x-x-----x---|-x-x-x-x-x-x-----|
|-----------------|-----------------|-3-8-8-8----10s8-|-7s6-6-6-6-6-----|
|-----------------|-----------------|-0-0-0-0-0-0-0-0-|-0-0-0-0-0-0-0-0-|

|-----------------|-----------------| 
|-----------------|-----------------|
|-5s101010---(10s)|-5s8-8-8-8-8-8-8-|
|-x-x-x-x-----x---|-x-x-x-x-x-x-x-x-|
|-3s8-8-8-----8---|-3s6-6-6-6-6-6-6-|
|-0-0-0-0-0-0-0---|-0-0-0-0-0-0-0-0-|

|-----------------|-----------------|
|-----------------|-----------------|
|-5s101010---12s9-|-9s8s151515151515|
|-x-x-x-x-----x-x-|-x-x-x-x-x-x-x-x-|
|-3s8-8-8----10-7-|-7s6s131313131313|
|-0-0-0-0-0-0-0-0-|-0-0-0-0-0-0-0-0-|

|-------------------------|-------|
|*-----------------------*|-------|
|-------------------------|-6s7---|
|---4-------4---4-------4-|-x-x---|
|*0---0---0---0---0---0--*|-4s5---|
|-------4-----------4-----|-----6-|

|-------------------------|-------|
|-------------------------|-------|
|---------(rest)----------|-------|
|-------------------------|-------|
|-------------------------|-------|
|-------------------------|-7-8-6-|

|-------------------------|-------------------------|
|*------------------------|-------------------------|
|-------------7---7-7-7-7-|-7s6-6-6-6-6-------5-----|
|-------------x---x-x-x-x-|-x-x-x-x-x-x-0---0-0---0-|
|*0---0-0-0-0-5---5-5-5-5-|-5s4-4-4-4-4-0---0-0---0-|
|-0---0-0-0-0-------------|-------------0---0-0---0-|

|-------------------------|-------------------------|
|*------------------------|-------------------------|
|-------------7---7-7-7-7-|-7s6-6-6-6-6-5---5-5-5-5-|
|--*----------x---x-x-x-x-|-x-x-x-x-x-x-0---0-0-0-0-|
|*(0)-0(0)0(0)5---5-5-5-5-|-5s4-4-4-4-4-0---0-0-0-0-|
|7(0)-0(0)0(0)------------|-------------0---0-0-0-0-|

|-------------------------|-------------------------|
|-------------------------|------------------------*|
|-------------------------|-------------------------|
|-------------------------|s7---6-------------------|
|-------------------7---8-|---------5--s8---7---5--*|
|-7---6---0---7-----------|--------(0)*-------------|                         

|-------------------------|-------------------------|
|-------------------------|------------------------*|
|-5---5---5---5-----------|-------------------------|
|-0---0---0---0-----------|10---9---7---6---5-------|
|-0---0---0---0---5-7---8-|---------------------8--*|
|-0---0---0---0-----------|-------------------------|

|-------------------------|-------------------------|
|*------------------------|-------------------------|
|-------------------------|-------------------------|
|-------------6---6-6-6-6-|-------------------------|
|*4---4-4-4-4-------------|-3---3-3-3-3-3---3-3-3-3-|
|-------------------------|-------------------------|

|-------------------------|-------------------------|
|*------------------------|-------------------------|
|-3---3-3-3-3-3s8-8-8-8-8-|-8s9-9-9-9-9-9---9-9-9-9s|
|-x---x-x-x-x-x-x-x-x-x-x-|-x-x-x-x-x-x-x---x-x-x-x-|
|*1---1-1-1-1-1s6-6-6-6-6-|-6s7-7-7-7-7-7---7-7-7-7s|
|-------------------------|-------------------------|

|-------------------------|-------------------------|-------------------------|
|-------------------------|------------------------*|-------------------------|
|-------------------------|-s-----------------------|-------------------------|
|-------------6---6-6-6-6-|565--5-5-5-5-5---5-5-5-5-|-------------5---5-5-5-5-|
|-4---4-4-4-4-------------|------------------------*|-3---3-3-3-3-------------|
|-------------------------|-------------------------|-------------------------|

|-------------------------|-------------------------|
|-------------------------|------------------------*|
|-3---3-3-3-3-3s8-8-8-8-8-|-8s9-9-9-9-9-9---9-9-9-9-|
|-x---x-x-x-x-x-x-x-x-x-x-|-x-x-x-x-x-x-x---x-x-x-x-|
|-1---1-1-1-1-1s6-6-6-6-6-|-6s7-7-7-7-7-7---7-7-7-7*|
|-------------------------|-------------------------|

|-------------------------|-------------------------|
|(9)*(9)-(9)-(9)-(9)-(9)--|-------------------------|
|-7---7---7---7---7---7---|---------(rest)----------|
|-6---6---6---6---6---6---|-------------------------|
|-------------------------|-------------------------|
|-------------------------|-------------------------|
  
|-0-----------0-----------|-------------------------|-------------|
|*--4-------4---4-------4*|-------------------------|-------------|
|-----0---0-------0---0---|-------------------------|-------------|
|-------4-----------4-----|-------------------------|-------------|
|*-----------------------*|-5-4---------------5-----|-------------|
|-------------------------|-------0---0-2-3-------5-|-6-----6-----|

|-------------------------|-------------------------|
|-------------------------|-------------------------|
|-------------------------|-------------------------|
|-7---7-7-7-7-7---7-7-7-7-|-7---7-7-7--10--10101010-|
|-5---5-5-5-5-5---5-5-5-5-|-8---8-8-8-x-8---8-8-8-8-|
|-5---5-5-5-5-5---5-5-5-5-|-0---0-0-0-x-0---0-0-0-0-|

|-------------------------|-------------------------|
|-------------------------|-------------------------|
|-7---7-7-7-7-7---7-7-7-7-|14--14141414s7---7-7-7-7-|
|-8---8-8-8-8-8---8-8-8-8-|-x---x-x-x-x-x---x-x-x-x-|
|-5---5-5-5-5-5---5-5-5-5-|12--12121212s5---5-5-5-5-|
|-5---5-5-5-5-5---5-5-5-5-|-------------------------|

|-------------------------|-------------------------|
|*------------------------|-------------------------|
|-------------------------|------------%------------|
|-9---9-9-9-9-9---9-9-9-9-|-------------------------|
|*7---7-7-7-7-7---7-7-7-7-|-------------------------|
|-7---7-7-7-7-7---7-7-7-7-|-------------------------|

|-------------------------|-------------------------|
|*------------------------|-------------------------|
|-7s9-9-9-9-9-9---9-9-9-9-|-9---9-9-9-9-9---9-9-9-9-|
|-x-x-x-x-x-x-x---x-x-x-x-|-x---x-x-x-x-x---x-x-x-x-|
|*5s7-7-7-7-7-7---7-7-7-7-|-7---7-7-7-7-7---7-7-7-7-|
|-------------------------|-------------------------|

|-------------------------|-------------------------|
|-------------------------|-------------------------|
|-7---7-7-7-7-7---7-7-7-7-|14--1414141414--14141414s|
|-8---8-8-8-8-8---8-8-8-8-|-x---x-x-x-x-x---x-x-x-x-|
|-5---5-5-5-5-5---5-5-5-5-|12--1212121212--12121212s|
|-5---5-5-5-5-5---5-5-5-5-|-------------------------|

|-------------------------|-------------------------|
|-------------------------|------------------------*|
|-9---9-9-9-9-9---9-9-9-9-|------------%------------|
|-x---x-x-x-x-x---x-x-x-x-|-------------------------|
|-7---7-7-7-7-7---7-7-7-7-|------------------------*|
|-------------------------|-------------------------|

[Outro]
|-------------------------|-------------------------|
|*------------------------|------------------------*|
|-------------------------|-------------------------|
|-----7-----7----10----10-|-----5-----5-----5-----5-|
|*--5-----5-----8-----8---|---3-----3-----5-----5--*|
|-5-----5-----8-----8-----|-3-----3-----0-----0-----|

Comments, Corrections, Hate Mail and Death Threats to -
clangerfreak@hotmail.com

~*jinxx*~
comments
print report bad tab
10 comments total. Showing first comments.
0 reply
Mikkel wrote on December 23 2003, 12:00 am

is it in drop D?

0 reply
Mikkel wrote on December 31 2003, 12:00 am

yes it is in drop D i just worked it out, but you put the 2 guitar parts together, it took me ***ing ages to work out why it didnt sound right. the top line is the 1st guitar (mikael) and the one
underneath is peters part. so it goes like this


e|--------------
b|-------------
g|--------------- mikaels part
d|----------------
a|------------------
e|----------------

e|----------------
b|-----------------
g|-------------- peters part
d|-----------------
a|-------------------
e|-----------------

+1 reply
Mikkel wrote on January 30 2004, 12:00 am

you cunt you missed some of the ending off! how could you?!?!?! the coolest riff at the end, and you didnt put it in. bastard. oh well it isnt difficulkt to figure out but your still a cunt

I want to post or [tab]
guest
You may want to rate the tab now too:
select rating
Please do not post tabs as comments. Select "correction" instead!