Oops, an error
Loading. Please wait.

Den Standiga Resan Tab

ver1
ver1

Whole song

Interactive

More versions @911Tabs.com
4,948 views 8 this week
no commentswrite comment
1 2 3 4 5
worth learning
x 2
Autoscroll
+/-
esc
set tempo
stop
Contributor
Difficulty
intermediate
Hey! There's an official Ultimate Guitar app which is ideal
for learning songs when you're away from computer. Get the app
WARNING: You are trying to view
                                    content from Ultimate-Guitar.com
                                    in an unauthorized application,
                                    which is prohibited.

                                    Please use an official Ultimate
                                    Guitar Tabs application for iPhone,
                                    iPad or Android to access legitimate
                                    chords, guitar, bass, and drum tabs
                                    from Ultimate-Guitar.com database.

                                    Type "ultimate guitar tabs" in Apple
                                    App Store's or Android Market's
                                    search to find the application.
-----------------------------------------------------------------
"Den Standiga Resan" - Opeth
-----------------------------------------------------------------
Tabbed by: IROn 5L1nKY


Parts: #1=Acoustic Melody / #2=12 String Acoustic / #3=Overdriven Solo
Tuning: C# F# B E G C#
BPM: 85 - slow, steady
TS: 6/8 - 6 beats, eighth note gets the beat (however, random 9/8 mixed in)
Let Ring Consistently...


___Intro___
    Acoustic Melody
C#|-------0--------0---------------0------------------------------|
G_|-----1----0--1----0h1-----3-0-3-----0--3-----------------------|
E_|---0--------------------0--------------------------------------|
B_|---------------------------------------------------------------|
F#|-0--------------------0-----------0----------------------------|
C#|---------------------------------------------------------------|
    e e e q  q  q  e e e e e e e e e e q *Q


C#|-----------0----------------------0----------------------------|
G_|-----1-0-1-----0--1---0-----3-0-3-----0--3---------------------|
E_|---0----------------0-----0------------------------------------|
B_|---------------------------------------------------------------|
F#|-0-----------0----------0-----------0--------------------------|
C#|---------------------------------------------------------------|
  | e e e e e e e q  e e e e e e e e e e q  *Q                    |
  | 12 String Acoustic                                            |
C#|---------------------------------------------------------------|
G_|---------------------------------------3-3-3-3-3-3-3-3---------|
E_|---------------------------------------0-0-0-0-0-0-0-0---------|
B_|---------------------------------------2-2-2-2-2-2-2-2---------|
F#|---------------------------------------0-0-0-0-0-0-0-0---------|
C#|---------------------------------------------------------------|
                                          s s s s s s s s


C#|-----------0----------------------0----------------------------|
G_|-----1-0-1-----0--1---0-----3-0-3-----0--3---------------------|
E_|---0----------------0-----0------------------------------------|
B_|---------------------------------------------------------------|
F#|-0-----------0----------0-----------0--------------------------|
C#|---------------------------------------------------------------|
  | e e e e e e e q  e e e e e e e e e e q  *Q                    |
  |         |--Hold for all values connected to +'s               |
C#|---------------------------------------------------------------|
G_|-3---3-3-3-----------33-3--------------3-3-3-3-3-3-3-3---------|
E_|-0h2-2-2-2-----------22-0--------------0-0-0-0-0-0-0-0---------|
B_|-2---2-2-2-----------22-2--------------2-2-2-2-2-2-2-2---------|
F#|-0---0-0-0-----------00-0--------------0-0-0-0-0-0-0-0---------|
C#|---------------------------------------------------------------|
    s s s s w+++s       se w              s s s s s s s s


C#|-----------0------------------0--------------------------------|
G_|-----1-0-1-----0--1---0-----3---0-3-1--------------------------|
E_|---0----------------0-----0------------------------------------|
B_|---------------------------------------------------------------|
F#|-0-----------0----------0--------------------------------------|
C#|---------------------------------------------------------------|
  | e e e e e e e q  e e e e e e e e e*H                          |
  |                        |--Hold till end of bar                |
C#|---------------------------------------------------------------|
G_|-3---3-3-3-----------33-3--------------------------------------|
E_|-0h2-2-2-2-----------22-0--------------------------------------|
B_|-2---2-2-2-----------22-2--------------------------------------|
F#|-0---0-0-0-----------00-0--------------------------------------|
C#|---------------------------------------------------------------|
    s s s s w+++s       se*W


___Verse___
    Acoustic Melody
C#|-------0--------------------------0----------------------------|
G_|-----3---3---------3----------0------0-------------------------|
E_|---2-------2-----0---0------2---2-------2----------------------|
B_|-0-------------0-------0---------------------------------------|
F#|-------------------------0-------------------------------------|
C#|-------------3-------------------------------------------------|
    e e e e e e e e e e e e q  e e e q  q *Q


C#|-------1---0---1-----------------0-----------------------------|
G_|-----3---3---3----3--------1-0h1------1------------------------|
E_|---2---------------------0---------2----2----------------------|
B_|-0-------------------0--------------------2--------------------|
F#|-----------------------0---------------------------------------|
C#|---------------------------------------------------------------|
    e e e e e e e q  q  e e e e e e e*Q  e e e


C#|-------0---------------------------0---------------------------|
G_|-----3---3---------3-----------0------0------------------------|
E_|---2-------2-----0---0-------2---2-------2---------------------|
B_|-0-------------0-------0---2----------------2------------------|
F#|-------------------------0-------------------------------------|
C#|-------------3-------------------------------------------------|
    e e e e e e e e e e e e e e e e e q  q  q  e

               |--switches to 9/8 for the rest of this bar
C#|------0-----------0--------------------------------------------|
G_|--------3-----------0---3--------------------------------------|
E_|---2------2-----1-----1---1------------------------------------|
B_|-0------------2-------------2----------------------------------|
F#|---------------------------------------------------------------|
C#|------------0--------------------------------------------------|
    e q  e e e e e e e e e e e e


C#|-------0------------1-0h1---------0----------------------------|
G_|----------0---------------3---------0--------------------------|
E_|-----2------2-----2-------------1------------------------------|
B_|---2------------0-------------2--------------------------------|
F#|-0-------------------------------------------------------------|
C#|----------------------------0---------0------------------------|
    e e e q  e*H   e e e e e e e e e e e e


C#|-------0-----------------------0-------------------------------|
G_|---------3-0h1-----1---------3---3---------1-------------------|
E_|-----2---------2-----2-----2-------2-----3---3-----------------|
B_|---2-------------2-----2-0-------------3-------3---------------|
F#|-0-----------------------------------1-------------------------|
C#|---------------------------------------------------------------|
    e e e e e e e e e e e e e e e e e e e e e e e e


C#|-------------------------------------------0-------------------|
G_|-1--1---1---------1------------3-------------0-----------------|
E_|-3--0---0---------0----------4---4-------1-----1---------------|
B_|-3--------------------2------------2---2-----------------------|
F#|-1----1---1-2/3-3---0---3-2------------------------------------|
C#|-------------------------------------0-------------------------|
    q  e e e e s s e e e e e q  e e e e e e e e e e


C#|-------0-----------------------0-----------0-------------------|
G_|-----0---1-0h1-----1---------3---3-----------0h3---------------|
E_|---------------2-----2-----2-------2-----1---------------------|
B_|---2-------------2-----2-0-------------2-----------------------|
F#|-0-------------------------------------------------------------|
C#|-------------------------------------0-------------------------|
    e e e e e e e e e e e e e e e e e e e e e e e e


___Solo___
    Acoustic Melody
C#|-------0--------0----------------0------------------------------|
G_|-----1----0h-1-----0h1-----3-0-3-----0--3-----------------------|
E_|---0---------------------0--------------------------------------|
B_|----------------------------------------------------------------|
F#|-0---------------------0-----------0----------------------------|
C#|----------------------------------------------------------------|
  | e e e q  q  q  q  e e e e e e e e e q  e                       |
  | 12 String Acoustic                                            |
C#|---------------------------------------------------------------|
G_|------------------------------------3-3-3-3-3-3-3-3------------|
E_|------------------------------------0-0-0-0-0-0-0-0------------|
B_|------------------------------------2-2-2-2-2-2-2-2------------|
F#|------------------------------------0-0-0-0-0-0-0-0------------|
C#|---------------------------------------------------------------|                 

                                       s s s s s s s s            


C#|-----------0----------------------0----------------------------|
G_|-----1-0-1-----0--1---0-----3-0-3-----0--3---------------------|
E_|---0----------------0-----0---------2--------------------------|
B_|---------------------------------------------------------------|
F#|-0-----------0----------0--------------------------------------|
C#|---------------------------------------------------------------|
  | e e e e e e e q  e e e e e e e e e e q *Q                     |
  |                                                               |
C#|---------------------------------------------------------------|
G_|-3---3-3-3-----------33-3--------------3-3-3-3-3-3-3-3---------|
E_|-0h2-2-2-2-----------22-0--------------0-0-0-0-0-0-0-0---------|
B_|-2---2-2-2-----------22-2--------------2-2-2-2-2-2-2-2---------|
F#|-0---0-0-0-----------00-0--------------0-0-0-0-0-0-0-0---------|
C#|---------------------------------------------------------------|
    s s s s w+++s       se w              s s s s s s s s


C#|-----------0----------------------0----------------------------|
G_|-----1-0-1-----0--1---0-----3-0-3-----0--3---------------------|
E_|---0----------------0-----0------------------------------------|
B_|---------------------------------------------------------------|
F#|-0-----------0----------0-----------0--------------------------|
C#|---------------------------------------------------------------|
  | e e e e e e e q  e e e e e e e e e e q *Q                     |
  |                                                               |
C#|---------------------------------------------------------------|
G_|-3---3-3-3-----------33----------------3-3-3-3-3-3-3-3---------|
E_|-0h2-2-2-2-----------22----------------0-0-0-0-0-0-0-0---------|
B_|-2---2-2-2-----------22----------------2-2-2-2-2-2-2-2---------|
F#|-0---0-0-0-----------00----------------0-0-0-0-0-0-0-0---------|
C#|---------------------------------------------------------------|
    s s s s w+++s       se w              s s s s s s s s


C#|-----------0------------------0--------------------------------|
G_|-----1-0-1-----0--1---0-----3---0-3-1--------------------------|
E_|---0----------------0-----0------------------------------------|
B_|---------------------------------------------------------------|
F#|-0-----------0----------0--------------------------------------|
C#|---------------------------------------------------------------|
  | e e e e e e e q  e e e e e e e e e*Q                          |
  |                                                               |
C#|---------------------------------------------------------------|
G_|-3---3-3-3-----------33-3--------------------------------------|
E_|-0h2-2-2-2-----------22-0--------------------------------------|
B_|-2---2-2-2-----------22-2--------------------------------------|
F#|-0---0-0-0-----------00-0--------------------------------------|
C#|---------------------------------------------------------------|
    s s s s w+++s       se*W


___Verse___
    Acoustic Melody
C#|-------0--------------------------0----------------------------|
G_|-----3---3---------3----------0------0-------------------------|
E_|---2-------2-----0---0------2---2-------2----------------------|
B_|-0-------------0-------0---------------------------------------|
F#|-------------------------0-------------------------------------|
C#|-------------3-------------------------------------------------|
    e e e e e e e e e e e e q  e e e q  q *Q


C#|-------1---0---1-----------------0-----------------------------|
G_|-----3---3---3----3--------1-0h1------1------------------------|
E_|---2---------------------0---------2----2----------------------|
B_|-0-------------------0--------------------2--------------------|
F#|-----------------------0---------------------------------------|
C#|---------------------------------------------------------------|
    e e e e e e e q  q  e e e e e e e*Q  e e e


C#|-------0-----------------0--3--1-------------------------------|
G_|-----3---3---------3-----1--3--1-------------------------------|
E_|---2-------2-----0---0---2--0--2-------------------------------|
B_|-0-------------0-------0-2--0--3-------------------------------|
F#|-------------------------0--2--3-------------------------------|
C#|-------------3--------------3--1-------------------------------|
  | e e e e e e e e e e e e*Q *Q *Q                               |
  | 12 String Acoustic                                            |
C#|-------------------------0--3--1-------------------------------|
G_|-------------------------1--3--1-------------------------------|
E_|-------------------------2--0--2-------------------------------|
B_|-------------------------2--0--3-------------------------------|
F#|-------------------------0--2--3-------------------------------|
C#|----------------------------3--1-------------------------------|
                           *Q *Q *Q

               |--switches to 9/8 for the rest of this bar
C#|------0-----------0--------------------------------------------|
G_|--------3-----------0---3--------------------------------------|
E_|---2------2-----1-----1---1------------------------------------|
B_|-0------------2-------------2----------------------------------|
F#|---------------------------------------------------------------|
C#|------------0--------------------------------------------------|
    e q  e e e e e e e e e e e e


C#|-------0------------1-0--------0-------------------------------|
G_|----------0----------------------0-----------------------------|
E_|-----2------2-----2----------1---------------------------------|
B_|---2------------0----------2-----------------------------------|
F#|-0-------------------------------------------------------------|
C#|-------------------------0---------0---------------------------|
    e e e q  e*H   e e e*Q  e e e e e e


C#|-------0--------------------0----------------------------------|
G_|---------3-0h1------------3---3---------1----------------------|
E_|-----2---------2---2----2-------2-----3---3--------------------|
B_|---2-------------2----0-------------3-------3------------------|
F#|-0--------------------------------1----------------------------|
C#|---------------------------------------------------------------|
    e e e e e e e e e*Q  e e e e e e e e e e e e


C#|---------------------------------------------------------------|
G_|-1--1---1---------1------------3-------------------------------|
E_|-3--0---0---------0----------4---4-----------------------------|
B_|-3--------------------2------------2---------------------------|
F#|-1----1---1-2/3-3---0---3-2------------------------------------|
C#|---------------------------------------------------------------|
  | q  e e e e s s e e e e e q  e e e e                           |
  |                                                               |
C#|---------------------------------------------------------------|
G_|-1--1--1-------------------------------------------------------|
E_|-3--3--3-------------------------------------------------------|
B_|-3--3--3-------------------------------------------------------|
F#|-1--1--1----2/3------------------------------------------------|
C#|---------------------------------------------------------------|
    q  q  q    s h


C#|-------0-----------0-------------------------------------------|
G_|---------0-------0---1-0h1-------------------------------------|
E_|-----1-----1---------------2-----------------------------------|
B_|---2-----------2-------------2-2-------------------------------|
F#|-------------0-------------------------------------------------|
C#|-0-------------------------------------------------------------|
    e e e e e e e e e e e e e e e*Q


C#|-------0-----------0----------------1--------------------------|
G_|-----3---3-----------0h3---------1--1--------------------------|
E_|---2-------2-----1-------------2----2--------------------------|
B_|-0-------------2-------------3------3--------------------------|
F#|---------------------------3--------3--------------------------|
C#|-------------0-----------1----------1--------------------------|
    e e e e e e e e e e e e e e e e q *H



C#|-------0-----------0-------------------------------------------|
G_|-----3---3-----------0h3---------------------------------------|
E_|---2-------2-----1---------------------------------------------|
B_|-0-------------2-----------------------------------------------|
F#|---------------------------------------------------------------|
C#|-------------0-------------------------------------------------|
    e e e e e e e e e e e e 

___Outro___
    Acoustic Melody
C#|-------0--------0----------------0------------------------------|
G_|-----1----0h-1-----0h1-----3-0-3-----0--3-----------------------|
E_|---0---------------------0--------------------------------------|
B_|----------------------------------------------------------------|
F#|-0---------------------0-----------0----------------------------|
C#|----------------------------------------------------------------|
  | e e e q  q  q  q  e e e e e e e e e q  e                       |
  | 12 String Acoustic                                            |
C#|---------------------------------------------------------------|
G_|--------------------------------------3-3-3-3-3-3-3-3----------|
E_|--------------------------------------0-0-0-0-0-0-0-0----------|
B_|--------------------------------------2-2-2-2-2-2-2-2----------|
F#|--------------------------------------0-0-0-0-0-0-0-0----------|
C#|---------------------------------------------------------------|
                                         s s s s s s s s


C#|-----------0----------------------0----------------------------|
G_|-----1-0-1-----0--1---0-----3-0-3-----0--3---------------------|
E_|---0----------------0-----0---------2--------------------------|
B_|---------------------------------------------------------------|
F#|-0-----------0----------0--------------------------------------|
C#|---------------------------------------------------------------|
  | e e e e e e e q  e e e e e e e e e e q *Q                     |
  |                                                               |
C#|---------------------------------------------------------------|
G_|-3---3-3-3-----------33-3--------------3-3-3-3-3-3-3-3---------|
E_|-0h2-2-2-2-----------22-0--------------0-0-0-0-0-0-0-0---------|
B_|-2---2-2-2-----------22-2--------------2-2-2-2-2-2-2-2---------|
F#|-0---0-0-0-----------00-0--------------0-0-0-0-0-0-0-0---------|
C#|---------------------------------------------------------------|
    s s s s w+++s       se w              s s s s s s s s


C#|-----------0----------------------0----------------------------|
G_|-----1-0-1-----0--1---0-----3-0-3-----0--3---------------------|
E_|---0----------------0-----0---------2--------------------------|
B_|---------------------------------------------------------------|
F#|-0-----------0----------0--------------------------------------|
C#|---------------------------------------------------------------|
  | e e e e e e e q  e e e e e e e e e e q *Q                     |
  |                                                               |
C#|---------------------------------------------------------------|
G_|-3---3-3-3-----------33-3--------------3-3-3-3-3-3-3-3---------|
E_|-0h2-2-2-2-----------22-0--------------0-0-0-0-0-0-0-0---------|
B_|-2---2-2-2-----------22-2--------------2-2-2-2-2-2-2-2---------|
F#|-0---0-0-0-----------00-0--------------0-0-0-0-0-0-0-0---------|
C#|---------------------------------------------------------------|
    s s s s w+++s       se w              s s s s s s s s

                                     |--Let this note fade
C#|-----------0----------------------0----------------------------|
G_|-----1-0-1-----0--1---0-----3-0-3------------------------------|
E_|---0----------------0-----0------------------------------------|
B_|---------------------------------------------------------------|
F#|-0-----------0----------0--------------------------------------|
C#|---------------------------------------------------------------|
  | e e e e e e e q  e e e e e e e e*W                            |
  |                        |--Let This note fade                  |
C#|---------------------------------------------------------------|
G_|-3---3-3-3-----------33-3--------------------------------------|
E_|-0h2-2-2-2-----------22-0--------------------------------------|
B_|-2---2-2-2-----------22-2--------------------------------------|
F#|-0---0-0-0-----------00-0--------------------------------------|
C#|---------------------------------------------------------------|
    s s s s w+++s       se*W++++*W++++



C#|---------------------------------------------------------------|
G_|---------------------------------------------------------------|
E_|---------------------------------------------------------------|
B_|---------------------------------------------------------------|
F#|---------------------------------------------------------------|
C#|---------------------------------------------------------------|


s = sixteenth note (1 space in between next note)
e = eighth note    (1 space)
q = quarter note   (2 spaces)
h = half note      (3 spaces)
w = whole note     (4 spaces)
with * added and caps = dotted note

| / slide up
| \ slide down
| h hammer-on
| p pull-off
==================================================================
comments
We did not receive enough feedback on this tab! Please rate:
print report bad tab
1 2 3 4 5
I want to post or [tab]
guest
You may want to rate the tab now too:
select rating
Please do not post tabs as comments. Select "correction" instead!