Oops, an error
Loading. Please wait.

Ghost Of Perdition Tab

ver3
ver3

Solo

Whole song

More versions @911Tabs.com
934 views 3 this week
no commentswrite comment
1 2 3 4 5
accurate
x 1
Autoscroll
+/-
esc
set tempo
stop
Difficulty
Tuning
intermediate
D A D F# A D
Hey! There's an official Ultimate Guitar app which is ideal
for learning songs when you're away from computer. Get the app
WARNING: You are trying to view
                                    content from Ultimate-Guitar.com
                                    in an unauthorized application,
                                    which is prohibited.

                                    Please use an official Ultimate
                                    Guitar Tabs application for iPhone,
                                    iPad or Android to access legitimate
                                    chords, guitar, bass, and drum tabs
                                    from Ultimate-Guitar.com database.

                                    Type "ultimate guitar tabs" in Apple
                                    App Store's or Android Market's
                                    search to find the application.
Probably not 100% correct but doesn't sound too bad.

Tuning:
e
A
F
D
A
D

Intro
Let ring...
    rake            rake             rake              rake
|---------------|----------------|----------------|-----------------|
|---------------|----------------|----12---12-----|-----------------|
|----9---9------|----8---8-------|----12----------|----11---8-------|
|----7----------|----7-----------|----7-----------|----7------------|
|----8----------|----8-----------|----------------|----8------------|
|---------------|----------------|----------------|-----------------|

Verse
Ghost of...            Mother..
          P.M......          P.M.......
|--------------------|-------------------|----------------------|-----------------|
|--------------------|-------------------|----------------------|-----------------|
|--9--9--------------|-8--8--------------|----------------------|-----------------|
|--7--7---0--0--0-0--|-7--7--0--0--0-0---|---/6--6---5--5--3--0-|--------0--------|
|--8--8---0--0--0-0--|-8--8--0--0--0-0---|---/6--6---5--5--3--0-|-----------------|
|---------0--0--0-0--|-------0--0--0-0---|---/6--6---5--5--3--0-|--0h3h6---0------|

                                       P.M.   P.M.     P.M.  P.M.
|-----------|---------------------|--------------|-----------------|
|-----------|---------------------|--------------|-----------------|
|-----------|---------------------|--0-----0-----|--0-----0--------|
|------0----|---3h4p3p0--0--0--0--|--0-----0-----|--0-----0--------|
|--4h5--5---|-----------4--0--3---|--2--2--2--2--|--1--1--1--1-----|
|-----------|---------------------|--------------|-----------------|


     P.M.  P.M. 1.,3.,            P.M. P.M.                P.M.     P.M.
|---------------|--------------------------------------------------------|
|---------------|------------------------------------5--5-----5--5-------|
|--0-----0------|------------------------------------4--4-----4--4-------|
|--x-----x------|---5---5-5----------------------0---0--0--0--0--0---0---|
|--0--0--0--0---|---5---5-5-3h4p3----3------0----0---------0---------0---|
|---------------|---5---5-5--------5---5-4----1--0---------0---------0---|


2.,4.,                                      P.M.     P.M.
|---------------|-----------------|---------------------|
|---------------|-----------------|---5--5-----5--5-----|
|---------------|-----------------|---4--4-----4--4-----|
|--5---5-5-5-5--|-5h7--3--1--0----|---0--0--0--0--0--0--|
|--5---5-5-5-5--|-5h7--3--1--0----|---------0--------0--|
|--5---5-5-5-5--|-5h7--3--1--0----|---------0--------0--|


P.M.......................
|-------------------------|
|-------------------------|
|-------------------------|
|-------------------------|
|-------------------------|
|-0-0-0--0---0---0-0-0-0--|


1.,Get the (5) accent right.                                         Strum as req.
|---------------------|----------------------------------------------|-----------|
|---------------------|----------------------------------------------|-----------|
|---------------------|----------------------------------------------|-----------|
|---------------------|-------3-4-3---3-----3h4p3--3-----7--7--------|--6--5--4--|
|-----5-------5---5---|---5-6-------6---5-6-------6--5-6-------------|--3--2--1--|
|--0----0---0--0----0-|-0--------------------------------------0--0--|--3--2--1--|


|-------------------|
|-------------------|
|-------------------|
|-0-0-0-0-0-0-0-0---|
|-0-0-0-0-0-0-0-0---|
|-0-0-0-0-0-0-0-0---|

P.M.....................
|-------------------------|
|-------------------------|
|-------------------------|
|-------------------------|
|-------------------------|
|-0-0-0--0---0---0-0-0-0--|

2.,
|--------------|
|--------------|
|--------------|
|-0--0--0--0---|
|-0--0--0--0---|
|-0--0--0--0---|

|----------------------------------------------|-----------|
|----------------------------------------------|-----------|
|----------------------------------------------|-----------|
|-------3-4-3---3-----3h4p3--3-----7--7--------|--6--5--4--|
|---5-6-------6---5-6-------6--5-6-------------|--3--2--1--|
|-0--------------------------------------0--0--|--3--2--1--|


Back to verse
         P.M........        P.M.........
|--------------------|-------------------|----------------------|-----------------|
|--------------------|-------------------|----------------------|-----------------|
|--9--9--------------|-8--8--------------|----------------------|-----------------|
|--7--7---0--0--0-0--|-7--7--0--0--0-0---|---/6--6---5--5--3--0-|--------0--------|
|--8--8---0--0--0-0--|-8--8--0--0--0-0---|---/6--6---5--5--3--0-|-----------------|
|---------0--0--0-0--|-------0--0--0-0---|---/6--6---5--5--3--0-|--0h3h6---0------|

                                        P.M.  P.M.     P.M.   P.M.
|-----------|---------------------|--------------|-----------------|
|-----------|---------------------|--------------|-----------------|
|-----------|---------------------|--0-----0-----|--0-----0--------|
|------0----|---3h4p3p0--0--0--0--|--0-----0-----|--0-----0--------|
|--4h5--5---|-----------4--0--3---|--2--2--2--2--|--1--1--1--1-----|
|-----------|---------------------|--------------|-----------------|


     P.M. P.M.   1.,3.,           P.M. P.M.                P.M.     P.M.
|---------------|--------------------------------------------------------|
|---------------|------------------------------------5--5-----5--5-------|
|--0-----0------|------------------------------------4--4-----4--4-------|
|--x-----x------|---5---5-5----------------------0---0--0--0--0--0---0---|
|--0--0--0--0---|---5---5-5-3h4p3---3------0-----0---------0---------0---|
|---------------|---5---5-5--------5---5-4----1--0---------0---------0---|


2.,4.,                                                        
|---------------|-----------------|
|---------------|-----------------|
|---------------|-----------------|
|--5---5-5-5-5--|-5h7--3--1--0----|
|--5---5-5-5-5--|-5h7--3--1--0----|
|--5---5-5-5-5--|-5h7--3--1--0----|


Acoustic Break 
Let ring..
|--12-------------|---4-----------------|------------0----------|--8--9--10-----|
|--12-------------|---4-----------------|----------0---5--------|--8--9--10-----|
|--12-------------|---4-----------------|--------0--------------|--8--9--10-----|
|-----------------|---------------------|------2----------------|---------------|
|-----------------|---------------------|----2------------------|---------------|
|-----------------|---------------------|--0--------------------|---------------|


1.,2.,3.,4.,
Let ring...
|--------------|----------------|---------------|----------------|
|--------------|----------------|--------0------|---------0------|
|--------0-----|----------0-----|------9---9----|-------9--9-----|
|------0-----0-|-------0----0---|----0-------0--|-----0------0---|
|----5---------|--5/7---------7-|--8------------|--10------------|
|-0------------|----------------|---------------|----------------|

Let ring...                    Strum as req.
|--------------|------------------|-------------------------|--------------------|
|-------0------|-------0--------0-|-------0-----------0-----|-------0---------0--|
|-----9--------|-----0---0------0-|-----0---0-------0---0---|-----0--0------0----|
|---0--------0-|---0-------0----0-|---0-------0---0-------0-|---0------0--0------|
|-7--------8---|-5--------------5-|-4-----------0-----------|--------------------|
|--------------|------------------|-------------------------|-5----------5-------|

1.,2.,3.,                      |4.,5.,6.,7.,(I think, lost count now..)
                 Strum as req.                  (Then -->x4) End slide
|--------------|---------------|----------------|--0----0---|-----0--|
|--------------|---5----3---2--|----------------|--5----3---|----/5--|
|--------------|---4----0---0--|----------------|--4----2---|----/4--|
|--------------|---0----0---0--|----------------|--0----0---|-----0--|
|--------------|---0----3---2--|----------------|-----------|--------|
|-3h5--2--0-0--|---------------|--3h5--2--0-0---|-----------|--------|


Dist guitar
P.M.......................
|--------------------------|
|--------------------------|
|--------------------------|
|--------------------------|
|---0---0--0-0--0--0--0----|
|---0---0--0-0--0--0--0----|

Some extra palm mutes but all is Dm, listen and no probs got get the rhythm.

P.M..................  1.,3., Let ring.  2.,4.,
|---------------------|-----------------|------------------------|
|---------------------|-----------------|------------------------|
|---------------------|----------9------|------------------------|
|---------------------|--------0--------|----7-----5-----5-----3-|
|--0--0--0--0--0-0-0--|---5---5-----5---|----7-----5-----5-----3-|
|--0--0--0--0--0-0-0--|-0---0---------0-|-0--7--0--5--0--5--0--3-|


You figure out the timing/strumming.
|--------------|----------|-----------------|
|--------------|----------|-----------------|
|--------------|-------7--|-----------------|
|--10-------7--|--7----5--|--12---10---10---|
|--7--------7--|--7----6--|--10---7----6----|
|--7--------5--|--4-------|--10---7----6----|


                     x4                       x2
|-----------------------|------------------------|
|-----------------------|------------------------|
|-----------------------|--10-10-10-10-10-10--10-|
|--/7--7--7-7--7-7---7--|--7--7--7--7--7--7---7--|
|-----------------------|------------------------|
|--/7--7--7-7--7-7---7--|--7--7--7--7--7--7---7--|


                P.M.               Let ring
|------------------------------------|------------------|
|------------------------------------|------------------|
|------------------------------------|------------------|
|----------------------------------0-|-------6---7------|
|---------------0---0----------------|-----5------6-----|
|---2p0-2p0--0--0---0---0-2p0-2p0----|--/6---------7\---|


P.M.........................     .......        Let ring
|-----------------------------|------------------0-----------|
|-----------------------------|--------------------0---------|
|-----------------------------|----------------------3-------|
|-----------------------------|---------------3--------------|
|-----------------------------|--0-3-2-0--1/2----------------|
|--0-0-0-0-0-0-0-0-0---0-0-0--|--0-3-2-0------3---------3/13-|


Last time before break..
P.M.........................     .......       Let ring P.M......
|-----------------------------|------------------0--------------------------|
|-----------------------------|--------------------0------------------------|
|-----------------------------|----------------------3----------------------|
|-----------------------------|---------------3---------------------------0-|
|-----------------------------|--0-3-2-0--1/2-------------------0-0-7p0-----|
|--0-0-0-0-0-0-0-0-0---0-0-0--|--0-3-2-0------3----------0-2-3-5-5----------|

P.M..   (You figure out the strumming..)
|------------|--------------|------------|--------------------|
|------------|---------0-0--|------------|--------------------|
|------------|---------0-0--|------------|--------------------|
|-------(7)--|-(7)-(8)-------|-(6)--3-3--|-5--3--5-------0----|
|-------(7)--|-(5)-(5)-------|-(4)--5-5--|-7--0--2---2h3------|
|-0-0---(0)--|-(5)-(5)-------|-(4)-------|-----------------3--|


Acoustic bit, and you figure out the strumming.
|-0-----|-----5----5-----|--0----------|---------------|-------------|
|-0--0--|-----5----5--0--|--0-----0-0--|--0---0--------|-------------|
|-0--0--|-----5----5--0--|--3-----0-0--|--0---0--------|-------------|
|-2-----|-----7----8-----|--4----------|--2---0--------|------0------|
|-0-----|-----5----5-----|--4----------|---------(4)-2-|--2h3--------|
|-0-----|-----5----5-----|--x----------|---------------|--------3----|


Back to dist guitar:
       P.M..  (You figure out the strumming..)
|-----------------|---------------|-----------|--------------------|
|-----------------|---------0-0---|-----------|--------------------|
|-----------------|---------0-0---|-----------|--------------------|
|-(7)--------(7)--|-(7)-(8)-------|-(6)--3-3--|-5--3--5-------0----|
|-(7)--0-0---(7)--|-(5)-(5)-------|-(4)--5-5--|-7--0--2---2h3------|
|-(0)--0-0---(0)--|-(5)-(5)-------|-(4)-------|-----------------3--|


 1.,3., (you figure out the strumming) 
                              P.M:                                      
|--------------|------------------------|----------------|---------------------------|
|-(8)---x------|------------------------|---(3)-----(3)--|---------------------------|
|-(9)---x--(7)-|--(9)-------------------|---(4)-----(2)--|---------------------------|
|-(7)---x--(7)-|--(x)--7--7/2--2-2--2---|---(2)-----(2)--|---------------------------|
|----------(5)-|--(5)--x--x/x--x-x--x---|---(0)-----(3)--|-0h3p0-------5-7b8-5-3h5---|
|--------------|-------7--7/2--2-2--2---|----------------|------0-5h7-------------0--|

2.,4., (you figure out the strumming) 
                              P.M:                                      
|--------------|------------------------|----------------|---------------------------|
|-(8)---x------|------------------------|---(3)-----(3)--|---------------------------|
|-(9)---x--(7)-|--(9)-------------------|---(4)-----(2)--|---------------------------|
|-(7)---x--(7)-|--(x)--7--7/8--8-8--8---|---(2)-----(2)--|---------------------------|
|----------(5)-|--(5)--x--x/x--x-x--x---|---(0)-----(3)--|-0h3p0-------5-7b8-5-3h5---|
|--------------|-------7--7/8--8-8--8---|----------------|-------0-5h7-------------0-|


Break                                                                  Triplet feel
|--------------------------------|---------------------|---------------|------------|
|-11-11-11-11--x--9-9---9-9-9----|-12-11-12-10-11---10-|---------7-----|-------7----|
|-9--9--9--9---x--9-9---9-9-9----|-----------------9---|-7-9-6-7--7-6--|---6-7--7-6-|
|--------------------------------|---------------------|---------------|-5----------|
|--------------------------------|---------------------|---------------|------------|
|--------------------------------|---------------------|---------------|------------|


P.M..............................  acoustic bit starts again
|----------------------------------|-----------------|
|----------------------------------|-----------------|
|----------------------------------|-----------------|
|----------------------------------|-----------------|
|----------------------------------|-----------------|
|-0--0--0-0-0--0--0-0-0------------|-(0)-------------|


Acoustic guitar
Let ring...
|---------------|----------------|---------------|----------------|
|---------------|----------------|--------0------|---------0------|
|-----------0---|---------0------|------9---9----|-------9--9-----|
|-------0-----0-|------0-----0---|----0-------0--|-----0------0---|
|-----5---------|--5/7---------7-|--8------------|--10------------|
|-0-------------|----------------|---------------|----------------|

Let ring...                    Strum as req.
|--------------|------------------|-------------------------|--------------------|
|-------0------|-------0--------0-|-------0-----------0-----|-------0---------0--|
|-----9--------|-----0---0------0-|-----0---0-------0---0---|-----0--0------0----|
|---0--------0-|---0-------0----0-|---0-------0---0-------0-|---0------0--0------|
|-7--------8---|-5--------------5-|-4-----------0-----------|--------------------|
|--------------|------------------|-------------------------|-5----------5-------|

                  Strum as req.      
|--------------|---------------|
|--------------|---5----3---2--|
|--------------|---4----0---0--|
|--------------|---0----0---0--|
|--------------|---0----3---2--|
|-3h5--2--0-0--|---------------|

Let ring
|---------------|----------------|---------------|----------------|
|---------------|----------------|--------0------|---------0------|
|-----------0---|---------0------|------9---9----|-------9--9-----|
|-------0-----0-|------0-----0---|----0-------0--|-----0------0---|
|-----5---------|--5/7---------7-|--8------------|--10------------|
|-0-------------|----------------|---------------|----------------|

Let ring...                    Strum as req.
|--------------|------------------|
|-------0------|-------0--------0-|
|-----9--------|-----0---0------0-|
|---0--------0-|---0-------0----0-|
|-7--------8---|-5--------------5-|
|--------------|------------------|


Dist guitar              Strum as req.                  P.M.       Strum as req.
|--------------------|----------------------|--------|--------------------------|
|--------------------|----------------------|--------|--------------------------|
|--8--8--8--8--8--8--|----------------------|--------|--------------------------|
|--x--x--x--x--x--x--|---7--7--7--7--7--7---|--5-----|--------------3--3--3-----|
|--4--4--4--4--4--4--|---x--x--x--x--x--x---|--x-----|--3-5-2-0-----5--3--2-----|
|--------------------|---7--7--7--7--7--7---|--5-----|--3-5-2-0-----------------|


Outro
1.,2.,                              Carry on with Octaves
|----------------------------------|-----------------------------|
|----------------------------------|-----------------------------|
|-9--9-9-9-9-9---/11-11-11-11-11---|-----------------------------|
|----------------------------------|-----------------------------|
|-5--5-5-5-5-5---/7--7---7--7--7---|-8--8-8-8-8--10--10-10-10-10-|
|-0--0-0-0-0-0---/0--0---0--0--0---|-0--0-0-0-0--0---0--0--0--0--|


 Carry on with Octaves
|-------------------------|-----------------------|
|-------------------------|-----------------------|
|-------------------------|-----------------------|
|-------------------------|-----------------------|
|-7--7-7-8-/7--5--5-5-5---|-5--5-5-5--5--5-5-5----|
|-0--0-0-0--0--0--0-0-0---|-0--0-0-0--0--0-0-0----|


                                                     P.M.
|-------------------------------|--------------------------------|
|-------------------------------|--------------------------------|
|-8--8--8--8---8----------------|--------------------------------|
|------------------7--7-7-7-7---|-5--5-5--5-5--5-5---------------|
|-4--4--4--4---4----------------|--------------------3--5--2--0--|
|------------------7--7-7-7-7---|-5--5-5--5-5--5-5---3--5--2--0--|

1.,
|--------------|
|--------------|
|--------------|
|-3--3--3------|
|-5--3--2------|
|--------------|

2.,
|--------------|
|--------------|
|--------------|
|-3--5--2------|
|-5--7--3------|
|--------------|

P.M..........       Strum as req.
|--------------|-----------------|
|--------------|-----------------|
|--------------|-----------------|
|--------------|--3--5--2--------|
|--3--5--2--0--|--5--7--3--------|
|--3--5--2--0--|-----------------|

Ending
|-------------------|-----------------|----------------------------|
|-------------------|-----------------|----------------------------|
|-------------------|--------------7--|----------------------------|
|-------------------|----5-----5-7----|----------------------------|
|-----------0-3-5/8-|-7----7-8--------|----5-5--5--3-5-5--5--3--5--|
|-0-2--3--5---------|-----------------|--0-------------------------|

comments
We did not receive enough feedback on this tab! Please rate:
print report bad tab
1 2 3 4 5
I want to post or [tab]
guest
You may want to rate the tab now too:
select rating
Please do not post tabs as comments. Select "correction" instead!