Oops, an error
Loading. Please wait.

Godheads Lament Tab

ver1
ver1

Whole song

Interactive

More versions @911Tabs.com
10,614 views 31 this week
no commentswrite comment
1 2 3 4 5
excellent!
x 2
Autoscroll
+/-
esc
set tempo
stop
Difficulty
advanced
Hey! There's an official Ultimate Guitar app which is ideal
for learning songs when you're away from computer. Get the app
WARNING: You are trying to view
                                    content from Ultimate-Guitar.com
                                    in an unauthorized application,
                                    which is prohibited.

                                    Please use an official Ultimate
                                    Guitar Tabs application for iPhone,
                                    iPad or Android to access legitimate
                                    chords, guitar, bass, and drum tabs
                                    from Ultimate-Guitar.com database.

                                    Type "ultimate guitar tabs" in Apple
                                    App Store's or Android Market's
                                    search to find the application.
From a Site...just wanted the tab on UG


GODHEAD'S LAMENT
As recorded by Opeth
From the 1999 Album STILL LIFE
Words and Music by Mikael Åkerfeldt
Arranged by Opeth


          A5
      x 0 2 2 x x

Gtr I (E A D G B E) - 'M. Åkerfeldt - Dist. Gtr.'
Gtr II (E A D G B E) - 'P. Lindgren - Dist. Gtr. #1'
Gtr III (E A D G B E) - 'P. Lindgren - Dist. Gtr. #2'
Gtr IV (E A D G B E) - 'M. Åkerfeldt - Acous. Gtr.'
Gtr V (E A D G B E) - 'M. Åkerfeldt - Clean Gtr.'

   Intro
    Q=98
    Gm  Am  Bbm         (Db)      (G)         (F)       (E)   (D)   (Db)
   6/8
    Gtr I
    E S E S E S S S S   E S S S S E S S S S     S  S  S S S S S S S S S S
||--3-x-5-x-6-6-6-6-x-|---------------------|-----------------------------|
||o-3-x-5-x-6-6-6-6-x-|---------------------|-----------------------------|
||--x-x-x-x-x-x-x-x-x-|-6-6-6-x-x-----------|-/10-10-10-9-x-x-7-7-7-6-x-x-|
||--5-x-7-x-8-8-8-8-x-|-----------5-5-5-x-x-|-----------------------------|
||o-5-x-7-x-8-8-8-8-x-|-4-4-4-x-x-----------|--/8--8--8-7-x-x-5-5-5-4-x-x-|
||--3-x-5-x-6-6-6-6-x-|-----------3-3-3-x-x-|-----------------------------|
|
|   Gtr II
|   E S E S E S S S S   E S S S S E S S S S     S  S  S S S S S S S S S S
||--3-x-5-x-6-6-6-6-x-|---------------------|-----------------------------|
||o-3-x-5-x-6-6-6-6-x-|---------------------|-----------------------------|
||--x-x-x-x-x-x-x-x-x-|-6-6-6-x-x-----------|-/10-10-10-9-x-x-7-7-7-6-x-x-|
||--5-x-7-x-8-8-8-8-x-|-----------5-5-5-x-x-|-----------------------------|
||o-5-x-7-x-8-8-8-8-x-|-4-4-4-x-x-----------|--/8--8--8-7-x-x-5-5-5-4-x-x-|
||--3-x-5-x-6-6-6-6-x-|-----------3-3-3-x-x-|-----------------------------|


  1.                   2.
  C°  C°/AC°/Gb         C°  B°
  E S E S E S S S S     E S S S S S S S E.
|--------------------||--------------------|
|-------------------o||--------------------|
|-5-5-5-5-5-5-5-5-5--||-5-5-4-4-4-4-4-4-4/-|
|-4-4-4-4-4-4-4-4-4--||-4-4-3-3-3-3-3-3-3/-|
|-3-3-3-3-3-3-3-3-3-o||-3-3-2-2-2-2-2-2-2/-|
|--------------------||--------------------|
|
| E S E S E S S S S     E S S S S S S S E.
|--------------------||--------------------|
|-------------------o||--------------------|
|--------------------||-5-5-4-4-4-4-4-4-4/-|
|-4-4-4-4-4-4-4-4-4--||-4-4-3-3-3-3-3-3-3/-|
|-3-3-0-0-3-3-3-3-3-o||-3-3-2-2-2-2-2-2-2/-|
|---------2-2-2-2-2--||--------------------|


    Gm       Am       Bbm
    Gtr III
     S  S  S  S  S  S  S  S  S  S  S  S
||--15-------16-------15-------16-------|
||o-------------------------------------|
||-----13-12----13-12----13-12----13-12-|
||--------------------------------------|
||o-------------------------------------|
||--------------------------------------|
|
|   Gtr I
|    S  S  S  E     S  E     S  S  S  S
||---3--x--x--5-----x--6-----6--6--6--x-|
||o--3--x--x--5-----x--6-----6--6--6--x-|
||---x--x--x--x-----x--x-----x--x--x--x-|
||---5--x--x--7-----x--8-----8--8--8--x-|
||o--5--x--x--7-----x--8-----8--8--8--x-|
||---3--x--x--5-----x--6-----6--6--6--x-|
|
|   Gtr II
|    S  S  S  E     S  E     S  S  S  S
||---3--x--x--5-----x--6-----6--6--6--x-|
||o--3--x--x--5-----x--6-----6--6--6--x-|
||---x--x--x--x-----x--x-----x--x--x--x-|
||---5--x--x--7-----x--8-----8--8--8--x-|
||o--5--x--x--7-----x--8-----8--8--8--x-|
||---3--x--x--5-----x--6-----6--6--6--x-|


  (Db)          (G)                  (F)       (E)      (D)      (Db)
   E.    E.       S  S  S  S  S  S     S  S  S  S  S  S  S  S  S  S  S  S
|----------------------------------|--15-------16-------15-------16--------|
|-14------------/13-12----12-13-14-|---------------------------------------|
|-------13-------------15----------|-----13-12----13-12----13-12----13-12--|
|----------------------------------|---------------------------------------|
|----------------------------------|---------------------------------------|
|----------------------------------|---------------------------------------|
|
|  E  S  S  S S   E     S  S  S  S     S  S  S  S  S  S  S  S  S  S  S  S
|----------------------------------|---------------------------------------|
|----------------------------------|---------------------------------------|
|--6--6--6--x-x--------------------|-/10-10-10--9--x--x--7--7--7--6--x--x--|
|-----------------5-----5--5--x--x-|---------------------------------------|
|--4--4--4--x-x--------------------|--/8--8--8--7--x--x--5--5--5--4--x--x--|
|-----------------3-----3--3--x--x-|---------------------------------------|
|
|  E  S  S  S S   E     S  S  S  S     S  S  S  S  S  S  S  S  S  S  S  S
|----------------------------------|---------------------------------------|
|----------------------------------|---------------------------------------|
|--6--6--6--x-x--------------------|-/10-10-10--9--x--x--7--7--7--6--x--x--|
|-----------------5-----5--5--x--x-|---------------------------------------|
|--4--4--4--x-x--------------------|--/8--8--8--7--x--x--5--5--5--4--x--x--|
|-----------------3-----3--3--x--x-|---------------------------------------|


  1.                          2.
  C°    C°/A  C°/Gb            C°    B°
   E.    E.    E  E    E        E.    E.      E    E     E
|---------------------------||-----------------------------|
|-13----12-----------------o||-13----12--------------------|
|-------------11------------||---------------11------------|
|----------------12---11----||--------------------12----11-|
|--------------------------o||-----------------------------|
|---------------------------||-----------------------------|
|
|  E  S  E  S  E  S S  S S      E  S  S  S S  S S  S E.
|---------------------------||-----------------------------|
|--------------------------o||-----------------------------|
|--5--5--5--5--5--5-5--5-5--||--5--5--4--4-4--4-4--4-4-----|
|--4--4--4--4--4--4-4--4-4--||--4--4--3--3-3--3-3--3-3-----|
|--3--3--3--3--3--3-3--3-3-o||--3--3--2--2-2--2-2--2-2-----|
|---------------------------||-----------------------------|
|
|  E  S  E  S  E  S S  S S      E  S  S  S S  S S  S E.
|---------------------------||-----------------------------|
|--------------------------o||-----------------------------|
|---------------------------||--5--5--4--4-4--4-4--4-4-----|
|--4--4--4--4--4--4-4--4-4--||--4--4--3--3-3--3-3--3-3-----|
|--3--3--0--0--3--3-3--3-3-o||--3--3--2--2-2--2-2--2-2-----|
|--------------2--2-2--2-2--||-----------------------------|


 Verse #1
  Gm    Am  Bbm            (Db)      (G)         (F)       (E)   (D)   (Db)
              >
   Q.        +Q.           W                       W
|------------------------|---------------------|-----------------------------|
|------------------------|---------------------|-----------------------------|
|-11--------(11)---------|---------------------|-----------------------------|
|------------------------|---------------------|-----------------------------|
|------------------------|---------------------|-----------------------------|
|------------------------|---------------------|-----------------------------|
|
|  E  S E S   E  S S S S   E S S S S E S S S S     S  S  S S S S S S S S S S
|--3--x-5-x---6--6-6-6-x-|---------------------|-----------------------------|
|--3--x-5-x---6--6-6-6-x-|---------------------|-----------------------------|
|--x--x-x-x---x--x-x-x-x-|-6-6-6-x-x-----------|-/10-10-10-9-x-x-7-7-7-6-x-x-|
|--5--x-7-x---8--8-8-8-x-|-----------5-5-5-x-x-|-----------------------------|
|--5--x-7-x---8--8-8-8-x-|-4-4-4-x-x-----------|--/8--8--8-7-x-x-5-5-5-4-x-x-|
|--3--x-5-x---6--6-6-6-x-|-----------3-3-3-x-x-|-----------------------------|
|
|  E  S E S   E  S S S S   E S S S S E S S S S     S  S  S S S S S S S S S S
|--3--x-5-x---6--6-6-6-x-|---------------------|-----------------------------|
|--3--x-5-x---6--6-6-6-x-|---------------------|-----------------------------|
|--x--x-x-x---x--x-x-x-x-|-6-6-6-x-x-----------|-/10-10-10-9-x-x-7-7-7-6-x-x-|
|--5--x-7-x---8--8-8-8-x-|-----------5-5-5-x-x-|-----------------------------|
|--5--x-7-x---8--8-8-8-x-|-4-4-4-x-x-----------|--/8--8--8-7-x-x-5-5-5-4-x-x-|
|--3--x-5-x---6--6-6-6-x-|-----------3-3-3-x-x-|-----------------------------|


  C°  C°/AC°/Gb       Gm  Am  Bbm         (Db)      (G)
  W                   W                   W
|-------------------|-------------------|---------------------|
|-------------------|-------------------|---------------------|
|-------------------|-------------------|---------------------|
|-------------------|-------------------|---------------------|
|-------------------|-------------------|---------------------|
|-------------------|-------------------|---------------------|
|
| E S E S E S S S S   E S E S E S S S S   E S S S S E S S S S
|-------------------|-3-x-5-x-6-6-6-6-x-|---------------------|
|-------------------|-3-x-5-x-6-6-6-6-x-|---------------------|
|-5-5-5-5-5-5-5-5-5-|-x-x-x-x-x-x-x-x-x-|-6-6-6-x-x-----------|
|-4-4-4-4-4-4-4-4-4-|-5-x-7-x-8-8-8-8-x-|-----------5-5-5-x-x-|
|-3-3-3-3-3-3-3-3-3-|-5-x-7-x-8-8-8-8-x-|-4-4-4-x-x-----------|
|-------------------|-3-x-5-x-6-6-6-6-x-|-----------3-3-3-x-x-|
|
| E S E S E S S S S   E S E S E S S S S   E S S S S E S S S S
|-------------------|-3-x-5-x-6-6-6-6-x-|---------------------|
|-------------------|-3-x-5-x-6-6-6-6-x-|---------------------|
|-------------------|-x-x-x-x-x-x-x-x-x-|-6-6-6-x-x-----------|
|-4-4-4-4-4-4-4-4-4-|-5-x-7-x-8-8-8-8-x-|-----------5-5-5-x-x-|
|-3-3-0-0-3-3-3-3-3-|-5-x-7-x-8-8-8-8-x-|-4-4-4-x-x-----------|
|---------2-2-2-2-2-|-3-x-5-x-6-6-6-6-x-|-----------3-3-3-x-x-|


  (F)       (E)   (D)   (Db)    C°  B°
    W                           W
|-----------------------------|--------------------|
|-----------------------------|--------------------|
|-----------------------------|--------------------|
|-----------------------------|--------------------|
|-----------------------------|--------------------|
|-----------------------------|--------------------|
|
|   S  S  S S S S S S S S S S   E S S S S S S S E.
|-----------------------------|--------------------|
|-----------------------------|--------------------|
|-/10-10-10-9-x-x-7-7-7-6-x-x-|-5-5-4-4-4-4-4-4-4/-|
|-----------------------------|-4-4-3-3-3-3-3-3-3/-|
|--/8--8--8-7-x-x-5-5-5-4-x-x-|-3-3-2-2-2-2-2-2-2/-|
|-----------------------------|--------------------|
|
|   S  S  S S S S S S S S S S   E S S S S S S S E.
|-----------------------------|--------------------|
|-----------------------------|--------------------|
|-/10-10-10-9-x-x-7-7-7-6-x-x-|-5-5-4-4-4-4-4-4-4/-|
|-----------------------------|-4-4-3-3-3-3-3-3-3/-|
|--/8--8--8-7-x-x-5-5-5-4-x-x-|-3-3-2-2-2-2-2-2-2/-|
|-----------------------------|--------------------|


    Gm       Am       Bbm
     S  S  S  S  S  S  S  S  S  S  S  S
||--15-------16-------15-------16-------|
||o-------------------------------------|
||-----13-12----13-12----13-12----13-12-|
||--------------------------------------|
||o-------------------------------------|
||--------------------------------------|
|
|    S  S  S  E     S  E     S  S  S  S
||---3--x--x--5-----x--6-----6--6--6--x-|
||o--3--x--x--5-----x--6-----6--6--6--x-|
||---x--x--x--x-----x--x-----x--x--x--x-|
||---5--x--x--7-----x--8-----8--8--8--x-|
||o--5--x--x--7-----x--8-----8--8--8--x-|
||---3--x--x--5-----x--6-----6--6--6--x-|
|
|    S  S  S  E     S  E     S  S  S  S
||---3--x--x--5-----x--6-----6--6--6--x-|
||o--3--x--x--5-----x--6-----6--6--6--x-|
||---x--x--x--x-----x--x-----x--x--x--x-|
||---5--x--x--7-----x--8-----8--8--8--x-|
||o--5--x--x--7-----x--8-----8--8--8--x-|
||---3--x--x--5-----x--6-----6--6--6--x-|


  (Db)          (G)                  (F)       (E)      (D)      (Db)
   E.    E.       S  S  S  S  S  S     S  S  S  S  S  S  S  S  S  S  S  S
|----------------------------------|--15-------16-------15-------16--------|
|-14------------/13-12----12-13-14-|---------------------------------------|
|-------13-------------15----------|-----13-12----13-12----13-12----13-12--|
|----------------------------------|---------------------------------------|
|----------------------------------|---------------------------------------|
|----------------------------------|---------------------------------------|
|
|  E  S  S  S S   E     S  S  S  S     S  S  S  S  S  S  S  S  S  S  S  S
|----------------------------------|---------------------------------------|
|----------------------------------|---------------------------------------|
|--6--6--6--x-x--------------------|-/10-10-10--9--x--x--7--7--7--6--x--x--|
|-----------------5-----5--5--x--x-|---------------------------------------|
|--4--4--4--x-x--------------------|--/8--8--8--7--x--x--5--5--5--4--x--x--|
|-----------------3-----3--3--x--x-|---------------------------------------|
|
|  E  S  S  S S   E     S  S  S  S     S  S  S  S  S  S  S  S  S  S  S  S
|----------------------------------|---------------------------------------|
|----------------------------------|---------------------------------------|
|--6--6--6--x-x--------------------|-/10-10-10--9--x--x--7--7--7--6--x--x--|
|-----------------5-----5--5--x--x-|---------------------------------------|
|--4--4--4--x-x--------------------|--/8--8--8--7--x--x--5--5--5--4--x--x--|
|-----------------3-----3--3--x--x-|---------------------------------------|


  1.                          2.
  C°    C°/A  C°/Gb            (Bb)     (A)
                                               ~~~
   E.    E.    E  E    E        E  S  S  S  S  Q.
|---------------------------||----------------------------|
|-13----12-----------------o||-15-15-15-13h15-13----------|
|-------------11------------||-15-15-15-14h15-14----------|
|----------------12---11----||----------------------------|
|--------------------------o||----------------------------|
|---------------------------||----------------------------|
|
|  E  S  E  S  E  S S  S S      E  S  S  S  S  E  S S S S
|---------------------------||----------------------------|
|--------------------------o||----------------------------|
|--5--5--5--5--5--5-5--5-5--||----------------------------|
|--4--4--4--4--4--4-4--4-4--||--8--8--8--7s=8s=7--7-7-7-7-|
|--3--3--3--3--3--3-3--3-3-o||----------------------------|
|---------------------------||--6--6--6--5s=6s=5--5-5-5-5-|
|
|  E  S  E  S  E  S S  S S      E  S  S  S  S  E  S S S S
|---------------------------||----------------------------|
|--------------------------o||----------------------------|
|---------------------------||----------------------------|
|--4--4--4--4--4--4-4--4-4--||--8--8--8--7s=8s=7--7-7-7-7-|
|--3--3--0--0--3--3-3--3-3-o||----------------------------|
|--------------2--2-2--2-2--||--6--6--6--5s=6s=5--5-5-5-5-|


   Bridge #1
    G/B         Am/C             C°        C5
    E S S S S S  S  S  S  S  S   E S S S S S S S S S S
||-----------------------------|-----------------------|
||o----------------------------|-----------------------|
||--4-4-4-4-4-4s=5--5--5--5--5-|-5-5-5-5-5-5-5-5-5-5-x-|
||-----------------------------|-----------------------|
||o-2-2-2-2-2-2s=3--3--3--3--3-|-3-3-3-3-3-3-3-3-3-3-x-|
||-----------------------------|-----------------------|
|
|   E S S S S S  S  S  S  S  S   E S S S S E   S S S S
||-----------------------------|-----------------------|
||o-8-8-8-8-8-8s10-10-10-10-10-|-7-7-7-7-7-8---8-8-8-8-|
||-----------------------------|-----------------------|
||--5-5-5-5-5-5s=7--7--7--7--7-|-4-4-4-4-4-5---5-5-5-5-|
||o----------------------------|-----------------------|
||-----------------------------|-----------------------|


  (G)  (F#)        (E)   Am
                                                 3/8
  E  S E S E    S  E S   E S S  S S S S S S E  6x E  S   S   S   S
|----------------------|--------------------0--||--------------------|
|----------------------|------------------0---o||--------------------|
|----------------------|----------------0------||--------------------|
|-5--x-4-x-4----x--2-x-|------------2s4--------||--------------------|
|----------------------|-3-3-3--3-3-----------o||--------------------|
|-3--x-2-x-2----x--0-x-|-5-5-5--5-5------------||---(0)-(0)-(0)-(0)--|
|
| Q.       S S +Q        E S E.     S S S S E  6x E  E       E
|----------------------|-----------------------||--------------------|
|----------1-0-(0)-----|------------5s7h8p7-5-o||--------------------|
|----------------------|-----0-----------------||--------------------|
|-2--------------------|-----------------------||------------2-------|
|----------------------|-3-3------------------o||---/2---------------|
|----------------------|-----------------------||--------------------|


   Pre-Verse/Verse #2
    N.C.(E)
   6/8
    Gtr III
    W                         W
||--------------------------|---------------------------|
||o-------------------------|---------------------------|
||--------------------------|---------------------------|
||--------------------------|---------------------------|
||o-------------------------|---------------------------|
||--------------------------|---------------------------|
|
|   Gtr I
|   PM-----------------------------------------------|
|   S S S S S S S S S S S S   S S S S S S S  S S S S S
||--------------------------|---------------------------|
||o-------------------------|---------------------------|
||--------------------------|---------------------------|
||--------------------------|---------------------------|
||o-------------------------|---------------------------|
||--0-0-0-0-0-0-0-0-0-0-0-0-|-0-0-0-0-0-0-0--0-0-0-0-0--|
|
|   Gtr II
|   E   S S S S S S S S S S   S S E   S S Q.
||--------------------------|---------------------------|
||o-------------------------|---------------------------|
||--4---4-4-4-4-4S3-3-3-3-3-|-3h4-0---0-----------------|
||--------------------------|-----------4-2-------------|
||o-------------------------|---------------------------|
||--------------------------|---------------------------|


  W                   W
|-------------------|------------------------|
|-------------------|------------------------|
|-------------------|------------------------|
|-------------------|------------------------|
|-------------------|------------------------|
|-------------------|------------------------|
|
| ~
| E E S S E S S S S   S S S S S S S S  E S S
|-------------------|------------------------|
|-------------------|------------------------|
|-------------------|------------------------|
|-------------------|------------------------|
|-1-------------0-2-|-1---1-----0-2-3-/5-3h5-|
|---0-0-2-3-2-3-----|---3---2-3--------------|
|
| Q   S S E S S S S   S S S S S S S S  E S S
|-------------------|------------------------|
|-------------------|------------------------|
|---------------2-4-|-3---3-----2-4-5-/7-5h7-|
|-2---2-4-5-4-5-----|---5---4-5--------------|
|-------------------|------------------------|
|-------------------|------------------------|


  N.C.(E)
  E   S S S S S S S S S S   S S S S S S  E    S S S S
|-------------------------|---------------------------|
|-5---5-5-5-5-5-5-5-5-5-5-|-5S4-4-4-4-4---------------|
|-------------------------|-------------/4----4-4-4-4-|
|-------------------------|---------------------------|
|-------------------------|---------------------------|
|-------------------------|---------------------------|
|
| PM------------------------------------------------|
| S S S S S S S S S S S S   S S S S S S  S  S S S S S
|-------------------------|---------------------------|
|-------------------------|---------------------------|
|-------------------------|---------------------------|
|-------------------------|---------------------------|
|-------------------------|---------------------------|
|-0-0-0-0-0-0-0-0-0-0-0-0-|-0-0-0-0-0-0--0--0-0-0-0-0-|
|
| E   S S S S S S S S S S   S S E   S S  Q.
|-------------------------|---------------------------|
|-------------------------|---------------------------|
|-4---4-4-4-4-4S3-3-3-3-3-|-3h4-0---0-----------------|
|-------------------------|-----------4--2------------|
|-------------------------|---------------------------|
|-------------------------|---------------------------|


  Q   S S E S S S S   S S S S S S S S  E S S  3x
|-------------------|-------------------------||
|-------------------|------------------------o||
|---------------2-4-|-3---3-----2-4-5-/7-5h7--||
|-2---2-4-5-4-5-----|---5---4-5---------------||
|-------------------|------------------------o||
|-------------------|-------------------------||
|
| ~
| E E S S E S S S S   S S S S S S S S  E S S  3x
|-------------------|-------------------------||
|-------------------|------------------------o||
|-------------------|-------------------------||
|-------------------|-------------------------||
|-1-------------0-2-|-1---1-----0-2-3-/5-3h5-o||
|---0-0-2-3-2-3-----|---3---2-3---------------||
|
| Q   S S E S S S S   S S S S S S S S  E S S  3x
|-------------------|-------------------------||
|-------------------|------------------------o||
|---------------2-4-|-3---3-----2-4-5-/7-5h7--||
|-2---2-4-5-4-5-----|---5---4-5---------------||
|-------------------|------------------------o||
|-------------------|-------------------------||


   Bridge #2
    Em6/C#      D#m6/C      D#m6/C       Bm
    W                        W
||------------------------|--------------------------|
||o-----------------------|--------------------------|
||------------------------|--------------------------|
||------------------------|--------------------------|
||o-----------------------|--------------------------|
||------------------------|--------------------------|
|
|   E S S S S S S S S S S    E   S S S S E   S S S S
||------------------------|--------------------------|
||o-----------------------|--------------------------|
||--6-6-6-6-6-6s5-5-5-5-5-|-/5---5-5-5-5-4---4-4-4-4-|
||--5-5-5-5-5-5s4-4-4-4-4-|-/4---4-4-4-4-------------|
||o-4-4-4-4-4-4s3-3-3-3-3-|-/3---3-3-3-3-2---2-2-2-2-|
||------------------------|--------------------------|
|
|   E S S S S S S S S S S    S S S S S S S S S S S S
||------------------------|--------------------------|
||o-5-5-5-5-5-5s4-4-4-4-4-|--4-4-4-4-4-4-3-3-3-3-3-3-|
||--6-6-6-6-6-6s5-5-5-5-5-|--5-5-5-5-5-5-4-4-4-4-4-4-|
||--5-5-5-5-5-5s4-4-4-4-4-|--4-4-4-4-4-4-4-4-4-4-4-4-|
||o-----------------------|--------------------------|
||------------------------|--------------------------|


                      1.,2.,3.
     (D#) (D)          (A(B)
   Q    E  Q     E     Q    E    E        +E   +S      +S   4x
|--------------------|--------------------------------------||
|-12-----------------|-----10---10b12====(10)r(10)b12r(10)-o||
|-------9-12-----9---|-8------------------------------------||
|--------------------|--------------------------------------||
|--------------------|-------------------------------------o||
|--------------------|--------------------------------------||
|
|                           PM|
|  E  E E  E S S S S   E E  S S  S     S   E    E           4x
|--------------------|--------------------------------------||
|--------------------|-------------------------------------o||
|----/8-8--7-7-7-x---|-3-4----------------------------------||
|--------------------|--------------------------------------||
|----/6-6--5-5-5-x---|-1-2---------------------------------o||
|--------------------|------0-0--2h====3---0----0-----------||
|
|                           PM|
|  E  E E  E S S S S   E E  S S  S     S   E    E           4x
|--------------------|--------------------------------------||
|--------------------|-------------------------------------o||
|----/8-8--7-7-7-x-x-|-3-4----------------------------------||
|--------------------|--------------------------------------||
|----/6-6--5-5-5-x-x-|-1-2---------------------------------o||
|--------------------|------0-0--2h====3---0----0-----------||


 4.
  (A(B)
  Q    E    Q          +E
|--------------------------|
|-----10---10b12======(10)-|
|-8------------------------|
|--------------------------|
|--------------------------|
|--------------------------|
|
|      PM|
| E E  S S  S     S E   E
|--------------------------|
|--------------------------|
|-3-4----------------------|
|--------------------------|
|-1-2----------------------|
|------0-0--2h====3-0---0--|
|
|      PM|
| E E  S S  S     S E   E
|--------------------------|
|--------------------------|
|-3-4----------------------|
|--------------------------|
|-1-2----------------------|
|------0-0--2h====3-0---0--|


 Guitar Solo
  Bm                                 Asus4
   +Q.          +Q.                   W
|----------------------------------|---------------------------------------|
|-(10)---------(10)r---------------|---------------------------------------|
|----------------------------------|---------------------------------------|
|----------------------------------|---------------------------------------|
|----------------------------------|---------------------------------------|
|----------------------------------|---------------------------------------|
|
|   Q      E     S   S  S  S  S  S    S      +S   +S   S S  S S S S S  S S
|--------------------7-/9-10-12-10-|-12b13==(12)r(12)-10-9h10p9-7h9p7----7-|
|----------------------------------|----------------------------------10---|
|----------------------------------|---------------------------------------|
|----------------------------------|---------------------------------------|
|----------------------------------|---------------------------------------|
|----------------------------------|---------------------------------------|
|
|   E  S S S S   E      S  S  S  S    E            S   S S  S E   S S  S S
|---2--2-2-2-2---2------2--2--2--2-|--0------------0---0-0--0-0---0-0--0-0-|
|---3--3-3-3-3---3------3--3--3--3-|--3------------3---3-3--3-3---3-3--3-3-|
|---4--4-4-4-4---4------4--4--4--4-|--2------------2---2-2--2-2---2-2--2-2-|
|---4--4-4-4-4---4------4--4--4--4-|--2------------2---2-2--2-2---2-2--2-2-|
|---2--2-2-2-2---2------2--2--2--2-|--0------------0---0-0--0-0---0-0--0-0-|
|----------------------------------|---------------------------------------|


  G                              D           Em
  Gtr I
   S T T S S S S S S S T T S S   S S S S S S S S S S S S
|------------------------------|-------------------------|
|-10-7-------------------------|-------------------7-5---|
|------9-7s6h7p6---------------|-------------4-6-7-----6-|
|----------------7h9p7---------|-----------4-------------|
|----------------------9-7S5p4-|-5-4---4-5---------------|
|------------------------------|-----7-------------------|
|
| Gtr II
|  E     S S S S E   S S   S S   S S S S S S S S S S S S
|--3-----3-3-3-3-3---3-3---3-3-|-------------------------|
|--3-----3-3-3-3-3---3-3---3-3-|-7-7-7-7-x-x-8-8-8-8-x-x-|
|--4-----4-4-4-4-4---4-4---4-4-|-7-7-7-7-x-x-9-9-9-9-x-x-|
|--5-----5-5-5-5-5---5-5---5-5-|-7-7-7-7-x-x-9-9-9-9-x-x-|
|--5-----5-5-5-5-5---5-5---5-5-|-5-5-5-5-x-x-7-7-7-7-x-x-|
|--3-----3-3-3-3-3---3-3---3-3-|-------------------------|


  Bm                     Asus4
  ~~~~~~~~~~~~~
                          |-3-|
  Q.         Q     E      S S S S S S E.   E   E
|----------------------|---------------------------|
|----------------------|---------------------------|
|-7----------6-----4---|-/6h7p6---6--------7---9---|
|----------------------|--------9---7h9------------|
|----------------------|---------------------------|
|----------------------|---------------------------|
|
| E  S S S S E S S S S    E     S S S S  E S S S S
|-2--2-2-2-2-2-2-2-2-2-|--0-----0-0-0-0--0-0-0-0-0-|
|-3--3-3-3-3-3-3-3-3-3-|--3-----3-3-3-3--3-3-3-3-3-|
|-4--4-4-4-4-4-4-4-4-4-|--2-----2-2-2-2--2-2-2-2-2-|
|-4--4-4-4-4-4-4-4-4-4-|--2-----2-2-2-2--2-2-2-2-2-|
|-2--2-2-2-2-2-2-2-2-2-|--0-----0-0-0-0--0-0-0-0-0-|
|----------------------|---------------------------|


  G                                               G    Gb5
                                         ~~~~~~~~~~~~
  Q          E     E     +E    +S  +S    Q.       Q.
|-----------10-------------------------|-------------------|
|--------------------------------------|-------------------|
|-9b11======(9)r---9b11==(9)---(9)r(9)-|-9--------7--------|
|--------------------------------------|-------------------|
|--------------------------------------|-------------------|
|--------------------------------------|-------------------|
|
| E     S S  S   S E      S  S  S   S    E  S E S E  S E S
|-3-----3-3--3---3-3------3--3--3---3--|-------------------|
|-3-----3-3--3---3-3------3--3--3---3--|-------------------|
|-4-----4-4--4---4-4------4--4--4---4--|-------------------|
|-5-----5-5--5---5-5------5--5--5---5--|-------------------|
|-5-----5-5--5---5-5------5--5--5---5--|----------2--x-4-x-|
|-3-----3-3--3---3-3------3--3--3---3--|-5--x-2-x-3--x-3-x-|


  Bm                         Asus4
  Gtr III
                              ~~
  Q      E     E  E    E      H            E    E
|------------/14------14---|-12----------------12---|
|----------------15--------|--------------15--------|
|--------------------------|------------------------|
|--------------------------|------------------------|
|--------------------------|------------------------|
|--------------------------|------------------------|
|
| Gtr I
| ~~                          ~~
| Q.           E  E    E      H            E    E
|--------------------------|------------------------|
|------------/15-12---15---|-14-----------12---14---|
|-6------------------------|------------------------|
|--------------------------|------------------------|
|--------------------------|------------------------|
|--------------------------|------------------------|
|
| Gtr II
| E  S S S S   E  S S  S S    E S S S S E  S S  S S
|-2--2-2-2-2---2--2-2--2-2-|--0-0-0-0-0-0--0-0--0-0-|
|-3--3-3-3-3---3--3-3--3-3-|--3-3-3-3-3-3--3-3--3-3-|
|-4--4-4-4-4---4--4-4--4-4-|--2-2-2-2-2-2--2-2--2-2-|
|-4--4-4-4-4---4--4-4--4-4-|--2-2-2-2-2-2--2-2--2-2-|
|-2--2-2-2-2---2--2-2--2-2-|--0-0-0-0-0-0--0-0--0-0-|
|--------------------------|------------------------|


  G                        D              Em
           ~~                              ~~~
   E  E    H                 Q.            Q.
|-12h14------------------|-/14------------12------------|
|---------15-------------|------------------------------|
|------------------------|------------------------------|
|------------------------|------------------------------|
|------------------------|------------------------------|
|------------------------|------------------------------|
|
|          ~~                              ~~~
|  E  E    H                 Q.            Q.
|------------------------|------------------------------|
|-14h15---12-------------|-/15------------14------------|
|------------------------|------------------------------|
|------------------------|------------------------------|
|------------------------|------------------------------|
|------------------------|------------------------------|
|
|  E  S S  S S E S S S S     S  S S S S S  S  S S S S S
|--3--3-3--3-3-3-3-3-3-3-|------------------------------|
|--3--3-3--3-3-3-3-3-3-3-|---7--7-7-7-x-x--8--8-8-8-x-x-|
|--4--4-4--4-4-4-4-4-4-4-|---7--7-7-7-x-x--9--9-9-9-x-x-|
|--5--5-5--5-5-5-5-5-5-5-|---7--7-7-7-x-x--9--9-9-9-x-x-|
|--5--5-5--5-5-5-5-5-5-5-|---5--5-5-5-x-x--7--7-7-7-x-x-|
|--3--3-3--3-3-3-3-3-3-3-|------------------------------|


  Bm                          Asus4
   ~~~                         ~~
   Q.           E  E    E      H            E    E
|-------------/14------14---|-12----------------12---|
|-15--------------15--------|--------------15--------|
|---------------------------|------------------------|
|---------------------------|------------------------|
|---------------------------|------------------------|
|---------------------------|------------------------|
|
|  ~~~                         ~~
|  Q.           E  E    E      H            E    E
|---------------------------|------------------------|
|-12----------/15-12---15---|-14-----------12---14---|
|---------------------------|------------------------|
|---------------------------|------------------------|
|---------------------------|------------------------|
|---------------------------|------------------------|
|
|  E  S S S S   E  S S  S S    E S S S S E  S S  S S
|--2--2-2-2-2---2--2-2--2-2-|--0-0-0-0-0-0--0-0--0-0-|
|--3--3-3-3-3---3--3-3--3-3-|--3-3-3-3-3-3--3-3--3-3-|
|--4--4-4-4-4---4--4-4--4-4-|--2-2-2-2-2-2--2-2--2-2-|
|--4--4-4-4-4---4--4-4--4-4-|--2-2-2-2-2-2--2-2--2-2-|
|--2--2-2-2-2---2--2-2--2-2-|--0-0-0-0-0-0--0-0--0-0-|
|---------------------------|------------------------|


  G                                   G    Gb5
                                               \0.5____|
           ~~
   E  E    H                 Q.        Q      +S      +S
|-12h14------------------|--------------------------------|
|---------15-------------|-/15--------12-----(12)----(12)-|
|------------------------|--------------------------------|
|------------------------|--------------------------------|
|------------------------|--------------------------------|
|------------------------|--------------------------------|
|
|                                              \0.5____|
|          ~~
|  E  E    H                 Q.        Q      +S      +S
|------------------------|--------------------------------|
|-14h15---12-------------|-/10----------------------------|
|------------------------|------------11-----(11)----(11)-|
|------------------------|--------------------------------|
|------------------------|--------------------------------|
|------------------------|--------------------------------|
|
|  E  S S  S S E S S S S     E  S E S  E S E           S
|--3--3-3--3-3-3-3-3-3-3-|--------------------------------|
|--3--3-3--3-3-3-3-3-3-3-|--------------------------------|
|--4--4-4--4-4-4-4-4-4-4-|--------------------------------|
|--5--5-5--5-5-5-5-5-5-5-|--------------------------------|
|--5--5-5--5-5-5-5-5-5-5-|-------------2-x-4-----------x--|
|--3--3-3--3-3-3-3-3-3-3-|---5--x-2-x--3-x-3-----------x--|


 Bridge #3
  Bm                       Asus4
   +H.                      +H.
|------------------------|------------------------|
|-(12)-------------------|-(12)-------------------|
|------------------------|------------------------|
|------------------------|------------------------|
|------------------------|------------------------|
|------------------------|------------------------|
|
|  +H.                      +H.
|------------------------|------------------------|
|------------------------|------------------------|
|-(11)-------------------|-(11)-------------------|
|------------------------|------------------------|
|------------------------|------------------------|
|------------------------|------------------------|
|
|   E  S S S S E S S S S     E  S S S S E S S S S
|---2--2-2-2-2-2-2-2-2-2-|---0--0-0-0-0-0-0-0-0-0-|
|---3--3-3-3-3-3-3-3-3-3-|---3--3-3-3-3-3-3-3-3-3-|
|---4--4-4-4-4-4-4-4-4-4-|---2--2-2-2-2-2-2-2-2-2-|
|---4--4-4-4-4-4-4-4-4-4-|---2--2-2-2-2-2-2-2-2-2-|
|---2--2-2-2-2-2-2-2-2-2-|---0--0-0-0-0-0-0-0-0-0-|
|------------------------|------------------------|


  G                        D              Em
                             >
   +H.                      +H.
|------------------------|----------------------------|
|-(12)-------------------|-(12)-----------------------|
|------------------------|----------------------------|
|------------------------|----------------------------|
|------------------------|----------------------------|
|------------------------|----------------------------|
|
|                            >
|  +H.                      +H.
|------------------------|----------------------------|
|------------------------|----------------------------|
|-(11)-------------------|-(11)-----------------------|
|------------------------|----------------------------|
|------------------------|----------------------------|
|------------------------|----------------------------|
|
|   E  S S S S E S S S S     S  S S S S S S S S S S S
|---3--3-3-3-3-3-3-3-3-3-|----------------------------|
|---3--3-3-3-3-3-3-3-3-3-|---7--7-7-7-x-x-8-8-8-8-x-x-|
|---4--4-4-4-4-4-4-4-4-4-|---7--7-7-7-x-x-9-9-9-9-x-x-|
|---5--5-5-5-5-5-5-5-5-5-|---7--7-7-7-x-x-9-9-9-9-x-x-|
|---5--5-5-5-5-5-5-5-5-5-|---5--5-5-5-x-x-7-7-7-7-x-x-|
|---3--3-3-3-3-3-3-3-3-3-|----------------------------|


  Bm                    Asus4
  W                     W
|---------------------|---------------------|
|---------------------|---------------------|
|---------------------|---------------------|
|---------------------|---------------------|
|---------------------|---------------------|
|---------------------|---------------------|
|
| W                     W
|---------------------|---------------------|
|---------------------|---------------------|
|---------------------|---------------------|
|---------------------|---------------------|
|---------------------|---------------------|
|---------------------|---------------------|
|
| E S S S S E S S S S   E S S S S E S S S S
|-2-2-2-2-2-2-2-2-2-2-|-0-0-0-0-0-0-0-0-0-0-|
|-3-3-3-3-3-3-3-3-3-3-|-3-3-3-3-3-3-3-3-3-3-|
|-4-4-4-4-4-4-4-4-4-4-|-2-2-2-2-2-2-2-2-2-2-|
|-4-4-4-4-4-4-4-4-4-4-|-2-2-2-2-2-2-2-2-2-2-|
|-2-2-2-2-2-2-2-2-2-2-|-0-0-0-0-0-0-0-0-0-0-|
|---------------------|---------------------|


  F                     Fm
  W                     W
|---------------------|---------------------|
|---------------------|---------------------|
|---------------------|---------------------|
|---------------------|---------------------|
|---------------------|---------------------|
|---------------------|---------------------|
|
| W                     W
|---------------------|---------------------|
|---------------------|---------------------|
|---------------------|---------------------|
|---------------------|---------------------|
|---------------------|---------------------|
|---------------------|---------------------|
|
| E S S S S E S S S S   E S S S S E S S S S
|-1-1-1-1-1-1-1-1-1-1-|-4-4-4-4-4-4-4-4-4-4-|
|-1-1-1-1-1-1-1-1-1-1-|-1-1-1-1-1-1-1-1-1-1-|
|-2-2-2-2-2-2-2-2-2-2-|-1-1-1-1-1-1-1-1-1-1-|
|-3-3-3-3-3-3-3-3-3-3-|-3-3-3-3-3-3-3-3-3-3-|
|-3-3-3-3-3-3-3-3-3-3-|-3-3-3-3-3-3-3-3-3-3-|
|-1-1-1-1-1-1-1-1-1-1-|-1-1-1-1-1-1-1-1-1-1-|


  Am          Asus2       Esus4
  W                        W
|-----------------------|---------------------------------------------|
|-----------------------|---------------------------------------------|
|-----------------------|---------------------------------------------|
|-----------------------|---------------------------------------------|
|-----------------------|---------------------------------------------|
|-----------------------|---------------------------------------------|
|
| W                        W
|-----------------------|---------------------------------------------|
|-----------------------|---------------------------------------------|
|-----------------------|---------------------------------------------|
|-----------------------|---------------------------------------------|
|-----------------------|---------------------------------------------|
|-----------------------|---------------------------------------------|
|
| E S S S S S S S S S S    E   S   S   S   S   S   S   S   S   S   S
|-----------------------|---------------------------------------------|
|-1-1-1-1-1-1p0-0-0-0-0-|--0---0---0---0---0---0---0---0---0---0---0--|
|-2-2-2-2-2-2-2-2-2-2-2-|--2---2---2---2---2---2---2---2---2---2---2--|
|-2-2-2-2-2-2-2-2-2-2-2-|--2---2---2---2---2---2---2---2---2---2---2--|
|-0-0-0-0-0-0-0-0-0-0-0-|-(0)-(0)-(0)-(0)-(0)-(0)-(0)-(0)-(0)-(0)-(0)-|
|-----------------------|---------------------------------------------|


 Interlude #1 - Pt. I
  A5
  Gtr II
   H.               +H.                 +H.
   |                 |                   |
   /                 /                   /

  Gtr I
   Q.      Q.        Q.       Q.         H.
|-----------------|------------------|----------------------------|
|---------15------|-17------\12------|-\10------------------------|
|-17--------------|------------------|----------------------------|
|-----------------|------------------|----------------------------|
|-----------------|------------------|----------------------------|
|-----------------|------------------|----------------------------|
|
| Gtr III
|  Q.      Q.        Q.       Q.         H.
|-----------------|------------------|----------------------------|
|-----------------|------------------|----------------------------|
|-14------16------|-17------\12------|--\9------------------------|
|-----------------|------------------|----------------------------|
|-----------------|------------------|----------------------------|
|-----------------|------------------|----------------------------|
|
| Gtr IV
|  E  E E  E  E E    E  E E   E  E E     S  S S S S S S S S S S S
|-----------------|------------------|----------5-----------5-----|
|-----------------|------------------|--------5---5-------5---5---|
|-------2-------2-|-------2--------2-|------5-------5---5-------5-|
|-----2-------2---|-----2--------2---|---7------------6-----------|
|--0-------2------|--3--------5------|----------------------------|
|-----------------|------------------|----------------------------|


   +H.                         +H.               +H.
    |                           |                 |
    /                           /                 /

   +H.                          Q.      Q.        Q.      Q.
|----------------------------|---------10------|-12------15----------|
|-(10)-----------------------|-13--------------|---------------------|
|----------------------------|-----------------|---------------------|
|----------------------------|-----------------|---------------------|
|----------------------------|-----------------|---------------------|
|----------------------------|-----------------|---------------------|
|
|  +H.                          Q.      Q.        Q.      Q     +E
|----------------------------|-----------------|---------------------|
|----------------------------|-10------12------|-13------------------|
|--(9)-----------------------|-----------------|---------12----(12)\-|
|----------------------------|-----------------|---------------------|
|----------------------------|-----------------|---------------------|
|----------------------------|-----------------|---------------------|
|
|   S  S S S S S S S S S S S    E  E E  E  E E    E  E E  E  E   E
|----------5-----------5-----|-----------------|---------------------|
|--------5---5-------5---5---|-----------------|---------------------|
|------5-------5---5-------5-|-------2-------2-|-------2---------2---|
|---5------------4-----------|-----2-------2---|-----2-------2-------|
|----------------------------|--0-------2------|--3-------5----------|
|----------------------------|-----------------|---------------------|


  +H.                               +H.
   |                                 |
   /                                 /

   Q         +E     Q.              +H.
|--------------------------------|----------------------------|
|-13--------(13)s==17------------|-(17)-----------------------|
|--------------------------------|----------------------------|
|--------------------------------|----------------------------|
|--------------------------------|----------------------------|
|--------------------------------|----------------------------|
|
|  Q         +E     Q.              +H.
|--------------------------------|----------------------------|
|--------------------------------|----------------------------|
|--9---------(9)s==14------------|-(14)-----------------------|
|--------------------------------|----------------------------|
|--------------------------------|----------------------------|
|--------------------------------|----------------------------|
|
|  S  S S S   S  S  S  S S S S S     S  S S S S S S S S S S S
|---------5----------------5-----|----------5-----------5-----|
|-------5-----5----------5---5---|--------5---5-------5---5---|
|-----5----------5-----5-------5-|------5-------5---5-------5-|
|--7----------------6------------|---5------------4-----------|
|--------------------------------|----------------------------|
|--------------------------------|----------------------------|


  N.C.(A)
   Q.      Q.        Q.       Q.         H.
|-----------------|------------------|----------------------------|
|---------15------|-17------\12------|-\10------------------------|
|-17--------------|------------------|----------------------------|
|-----------------|------------------|----------------------------|
|-----------------|------------------|----------------------------|
|-----------------|------------------|----------------------------|
|
|  Q.      Q.        Q.       Q.         H.
|-----------------|------------------|----------------------------|
|-----------------|------------------|----------------------------|
|-14------16------|-17------\12------|--\9------------------------|
|-----------------|------------------|----------------------------|
|-----------------|------------------|----------------------------|
|-----------------|------------------|----------------------------|
|
|  E  E E  E  E E    E  E E   E  E E     S  S S S S S S S S S S S
|-----------------|------------------|----------5-----------5-----|
|-----------------|------------------|--------5---5-------5---5---|
|-------2-------2-|-------2--------2-|------5-------5---5-------5-|
|-----2-------2---|-----2--------2---|---7------------6-----------|
|--0-------2------|--3--------5------|----------------------------|
|-----------------|------------------|----------------------------|


   +H.                          Q.      Q.        Q.      Q.
|----------------------------|---------10------|-12------15----------|
|-(10)-----------------------|-13--------------|---------------------|
|----------------------------|-----------------|---------------------|
|----------------------------|-----------------|---------------------|
|----------------------------|-----------------|---------------------|
|----------------------------|-----------------|---------------------|
|
|  +H.                          Q.      Q.        Q.      Q     +E
|----------------------------|-----------------|---------------------|
|----------------------------|-10------12------|-13------------------|
|--(9)-----------------------|-----------------|---------12----(12)\-|
|----------------------------|-----------------|---------------------|
|----------------------------|-----------------|---------------------|
|----------------------------|-----------------|---------------------|
|
|   S  S S S S S S S S S S S    E  E E  E  E E    E  E E  E  E   E
|----------5-----------5-----|-----------------|---------------------|
|--------5---5-------5---5---|-----------------|---------------------|
|------5-------5---5-------5-|-------2-------2-|-------2---------2---|
|---5------------4-----------|-----2-------2---|-----2-------2-------|
|----------------------------|--0-------2------|--3-------5----------|
|----------------------------|-----------------|---------------------|


   Q        +E     Q.              +H.
|-------------------------------|----------------------------|
|-13-------(13)s==17------------|-(17)-----------------------|
|-------------------------------|----------------------------|
|-------------------------------|----------------------------|
|-------------------------------|----------------------------|
|-------------------------------|----------------------------|
|
|  Q        +E     Q.              +H.
|-------------------------------|----------------------------|
|-------------------------------|----------------------------|
|--9--------(9)s==14------------|-(14)-----------------------|
|-------------------------------|----------------------------|
|-------------------------------|----------------------------|
|-------------------------------|----------------------------|
|
|  S S S S   S  S  S  S S S S S     S  S S S S S S S S S S S
|--------5----------------5-----|----------5-----------5-----|
|------5-----5----------5---5---|--------5---5-------5---5---|
|----5----------5-----5-------5-|------5-------5---5-------5-|
|--7---------------6------------|---5------------4-----------|
|-------------------------------|----------------------------|
|-------------------------------|----------------------------|


    N.C.(A)
     Q.      Q.        Q.      Q.
||------------------|-----------------|
||o---------12------|-13------15------|
||--14--------------|-----------------|
||------------------|-----------------|
||o-----------------|-----------------|
||------------------|-----------------|
|
|    Q.      Q.        Q.      Q.
||------------------|-----------------|
||o---------12------|-13------15------|
||--14--------------|-----------------|
||------------------|-----------------|
||o-----------------|-----------------|
||------------------|-----------------|
|
|    E  E E  E  E E    E  E E  E  E E
||------------------|-----------------|
||o-----------------|-----------------|
||--------2-------2-|-------2-------2-|
||------2-------2---|-----2-------2---|
||o--0-------2------|--3-------5------|
||------------------|-----------------|


   Q        +E     Q.              +H.
|-------------------------------|------------------------------||
|-17-------(17)s==12------------|-(12)------------------------o||
|-------------------------------|------------------------------||
|-------------------------------|------------------------------||
|-------------------------------|-----------------------------o||
|-------------------------------|------------------------------||
|
|  Q        +E     Q.              +H.
|-------------------------------|------------------------------||
|-17-------(17)s==12------------|-(12)------------------------o||
|-------------------------------|------------------------------||
|-------------------------------|------------------------------||
|-------------------------------|-----------------------------o||
|-------------------------------|------------------------------||
|
|  S S S S   S  S  S  S S S S S     S  S S S S S S S S S S S
|--------5----------------5-----|----------5-----------5-------||
|------5-----5----------5---5---|--------5---5-------5---5----o||
|----5----------5-----5-------5-|------5-------5---5-------5---||
|--7---------------6------------|---5------------4-------------||
|-------------------------------|-----------------------------o||
|-------------------------------|------------------------------||


 Interlude #1 - Pt. II
  N.C.(G)
   Q.            Q.              Q        +E     Q.
|-15------------13------------|-------------------------------|
|-----------------------------|-15-------(15)S==11------------|
|-----------------------------|-------------------------------|
|-----------------------------|-------------------------------|
|-----------------------------|-------------------------------|
|-----------------------------|-------------------------------|
|
|  Q.            Q.              Q        +E     Q.
|-----------------------------|-------------------------------|
|-----------------------------|-------------------------------|
|-12------------10------------|-------------------------------|
|-----------------------------|-12-------(12)S===8------------|
|-----------------------------|-------------------------------|
|-----------------------------|-------------------------------|
|
|  S  S S S S S  S  S S S S S    S S S S   S  S  S  S S S S S
|---------3-------------3-----|--------3----------------3-----|
|-------3---3---------3---3---|------3-----3----------3---3---|
|-----3-------3-----3-------3-|----3----------3-----3-------3-|
|--5-------------4------------|--3---------------2------------|
|-----------------------------|-------------------------------|
|-----------------------------|-------------------------------|


                                                D Dsus4
   Q        +E     Q        +E       H.
|---------------------------------|-----------------------|
|-13-------(13)S==15-------(15)S==|=10--------------------|
|---------------------------------|-----------------------|
|---------------------------------|-----------------------|
|---------------------------------|-----------------------|
|---------------------------------|-----------------------|
|
|  Q        +E     Q        +E       H.
|---------------------------------|-----------------------|
|---------------------------------|-----------------------|
|---------------------------------|-----------------------|
|-10-------(10)S==12-------(12)S==|==7--------------------|
|---------------------------------|-----------------------|
|---------------------------------|-----------------------|
|
|  S S S S   S  S  S S S S   S  S    S  S S E S S S S E S
|--------3---------------3--------|---------2---2h3-3-3-x-|
|------3-----3---------3-----3----|-------3---3-3-3-3-3-x-|
|----3----------3----3----------3-|-----2-----------------|
|--1------------------------------|--0--------------------|
|------------------3--------------|-----------------------|
|---------------------------------|-----------------------|


  N.C.(G)
    Q.            Q.              Q        +E     Q.
|-/15------------13------------|-------------------------------|
|------------------------------|-15-------(15)S==11------------|
|------------------------------|-------------------------------|
|------------------------------|-------------------------------|
|------------------------------|-------------------------------|
|------------------------------|-------------------------------|
|
|   Q.            Q.              Q        +E     Q.
|------------------------------|-------------------------------|
|------------------------------|-------------------------------|
|-/12------------10------------|-------------------------------|
|------------------------------|-12-------(12)S===8------------|
|------------------------------|-------------------------------|
|------------------------------|-------------------------------|
|
|   S  S S S S S  S  S S S S S    S S S S   S  S  S  S S S S S
|----------3-------------3-----|--------3----------------3-----|
|--------3---3---------3---3---|------3-----3----------3---3---|
|------3-------3-----3-------3-|----3----------3-----3-------3-|
|---5-------------4------------|--3---------------2------------|
|------------------------------|-------------------------------|
|------------------------------|-------------------------------|


                                               D Dsus4
   Q.            Q.              a  H.
|-----------------------------|--------------------------|
|-13------------11------------|-13s15--------------------|
|-----------------------------|--------------------------|
|-----------------------------|--------------------------|
|-----------------------------|--------------------------|
|-----------------------------|--------------------------|
|
|  Q.            Q.              a  H.
|-----------------------------|--------------------------|
|-----------------------------|--------------------------|
|-----------------------------|--------------------------|
|-10-------------8------------|-10s12--------------------|
|-----------------------------|--------------------------|
|-----------------------------|--------------------------|
|
|  S  S S S S S  S  S S S S S       S  S S E S S S S E S
|---------3-------------3-----|------------2---2h3-3-3-x-|
|-------3---3---------3---3---|----------3---3-3-3-3-3-x-|
|-----3-------3-----3-------3-|--------2-----------------|
|--1--------------------------|-----0--------------------|
|----------------3------------|--------------------------|
|-----------------------------|--------------------------|


 Pre-Bridge/Bridge #4
  Em                                  Em
  Gtr V
   W                                    E   S  S S S  E       S   E       S
|-----------------------------------|----------------------------------------|
|-----------------------------------|----------------------------------------|
|-----------------------------------|------12-11-9---------------------------|
|-----------------------------------|--------------9s=7-------------------7h=|
|-----------------------------------|-------------------------7h=10----------|
|-----------------------------------|----------------------------------------|
|
| Gtrs I, III
|  H.                                  +H.
|-----------------------------------|----------------------------------------|
|-12--------------------------------|-(12)-----------------------------------|
|-----------------------------------|----------------------------------------|
|--9--------------------------------|--(9)-----------------------------------|
|-----------------------------------|----------------------------------------|
|-----------------------------------|----------------------------------------|
|
|  E  S E S  S   S   S   S   S   S      E   S  S S S  S   S   S   S   S   S
|--0--0-0-0-(0)-(0)-(0)-(0)-(0)-(0)-|---0---0--0-0-0-(0)-(0)-(0)-(0)-(0)-(0)-|
|--0--0-0-0-(0)-(0)-(0)-(0)-(0)-(0)-|---0---0--0-0-0-(0)-(0)-(0)-(0)-(0)-(0)-|
|--0--0-0-0-(0)-(0)-(0)--0--(0)-(0)-|---0---0--0-0-0-(0)-(0)-(0)--0--(0)-(0)-|
|--2--2-2-2-(2)-(2)--2--(2)--2---2--|---2---2--2-2-2-(2)-(2)--2--(2)--2---2--|
|--2--2-2-2--0h==2--(2)-(2)-(2)-(2)-|---2---2--2-2-2--0h==2--(2)-(2)-(2)-(2)-|
|--0--0-0-0-(0)-(0)-(0)-(0)-(0)-(0)-|---0---0--0-0-0-(0)-(0)-(0)-(0)-(0)-(0)-|


  Em
    ~~~~
    H.
|------------------------------------|
|------------------------------------|
|------------------------------------|
|---9--------------------------------|
|------------------------------------|
|------------------------------------|
|
|  +H.
|------------------------------------|
|-(12)-------------------------------|
|------------------------------------|
|--(9)-------------------------------|
|------------------------------------|
|------------------------------------|
|
|   E  S E S  S   S   S   S   S   S
|---0--0-0-0-(0)-(0)-(0)-(0)-(0)-(0)-|
|---0--0-0-0-(0)-(0)-(0)-(0)-(0)-(0)-|
|---0--0-0-0-(0)-(0)-(0)--0--(0)-(0)-|
|---2--2-2-2-(2)-(2)--2--(2)--2---2--|
|---2--2-2-2--0h==2--(2)-(2)-(2)-(2)-|
|---0--0-0-0-(0)-(0)-(0)-(0)-(0)-(0)-|


  Em
    E    S S  S  S  S   S   S      +S   +S   S
|-----------------------------------------------|
|------------------10------10b11==(10)r(10)-----|
|----------9h11h12-----12-------------------12--|
|--------9--------------------------------------|
|-----------------------------------------------|
|-----------------------------------------------|
|
|  +H.
|-----------------------------------------------|
|-(12)------------------------------------------|
|-----------------------------------------------|
|--(9)------------------------------------------|
|-----------------------------------------------|
|-----------------------------------------------|
|
|   S  S S E     S  S   S   S       S    S   S
|---0--0-0-0-----0-(0)-(0)-(0)-----(0)--(0)-(0)-|
|---0--0-0-0-----0-(0)-(0)-(0)-----(0)--(0)-(0)-|
|---0--0-0-0-----0-(0)-(0)-(0)------0---(0)-(0)-|
|---2--2-2-2-----2-(2)-(2)--2------(2)---2---2--|
|---2--2-2-2-----2--0h==2--(2)-----(2)--(2)-(2)-|
|---0--0-0-0-----0-(0)-(0)-(0)-----(0)--(0)-(0)-|


  Em                         D         Dsus4   Cmaj7       D         Dsus4
                      >
              ~~~~~~~~~~~
    |--3---|
    S   S  S  E      +H                        W
|--------------------------------------------|-----------------------------|
|--------------------------------------------|-----------------------------|
|--11h=12p11--9------(9)---------------------|-----------------------------|
|--------------------------------------------|-----------------------------|
|--------------------------------------------|-----------------------------|
|--------------------------------------------|-----------------------------|
|
|   >
|  +H.                                         W
|--------------------------------------------|-----------------------------|
|-(12)---------------------------------------|-----------------------------|
|--------------------------------------------|-----------------------------|
|--(9)---------------------------------------|-----------------------------|
|--------------------------------------------|-----------------------------|
|--------------------------------------------|-----------------------------|
|
|   E         S   S   S   S  S  S   S  E  S    E S  E   S  S  S   S  E  S
|---0---------0---0---0---0--2--2---2--3--3--|------0---0--2--2---2--3--3--|
|---0---------0---0---0---0--3--3---3--3--3--|-0-0--0---0--3--3---3--3--3--|
|---0---------0---0---0---0--2--x---2--2--2--|-0-0--0---0--2--x---2--2--2--|
|---2---------2---2--(2)-(2)-0-(0)-(0)-0-(0)-|-2-2-(2)-(2)-0-(0)-(0)-0-(0)-|
|---2---------2--(2)-(2)-(2)-----------------|-3-3-(3)-(3)-----------------|
|---0--------(0)-(0)-(0)-(0)-----------------|-----------------------------|


  Em                                  Em
  Gtr IV
  E S S S S  S   S   S   S   S   S    S S S E S  S   S   S   S   S   S
|-0-0-0-0-0-(0)-(0)-(0)-(0)-(0)-(0)-|-0-0-0-0-0-(0)-(0)-(0)-(0)-(0)-(0)-|
|-0-0-0-0-0-(0)-(0)-(0)-(0)-(0)-(0)-|-0-0-0-0-0-(0)-(0)-(0)-(0)-(0)-(0)-|
|-0-0-0-0-0-(0)-(0)-(0)--0--(0)-(0)-|-0-0-0-0-0-(0)-(0)-(0)--0--(0)-(0)-|
|-2-2-2-x-2-(2)-(2)--2--(2)--2---2--|-2-2-2-2-2-(2)-(2)--2--(2)--2---2--|
|-2-2-2-x-2--0h==2--(2)-(2)-(2)-(2)-|-2-2-2-2-2--0h==2--(2)-(2)-(2)-(2)-|
|-0-0-0-x-0-(0)-(0)-(0)-(0)-(0)-(0)-|-0-0-0-0-0-(0)-(0)-(0)-(0)-(0)-(0)-|


  Em                D         Dsus4   Cmaj7       D         Dsus4
  E  S   S   S   S  S  S   S  E  S    E S  E   S  S  S   S  E  S
|-0--0---0---0---0--2--2---2--3--3--|------0---0--2--2---2--3--3--|
|-0--0---0---0---0--3--3---3--3--3--|-0-0--0---0--3--3---3--3--3--|
|-0--0---0---0---0--2--x---2--2--2--|-0-0--0---0--2--x---2--2--2--|
|-2--2---2--(2)-(2)-0-(0)-(0)-0-(0)-|-2-2-(2)-(2)-0-(0)-(0)-0-(0)-|
|-2--2--(2)-(2)-(2)-----------------|-3-3-(3)-(3)-----------------|
|-0-(0)-(0)-(0)-(0)-----------------|-----------------------------|


  Em                                  Em
  E S S S S  S   S   S   S   S   S    S S S E S  S   S   S   S   S   S
|-0-0-0-0-0-(0)-(0)-(0)-(0)-(0)-(0)-|-0-0-0-0-0-(0)-(0)-(0)-(0)-(0)-(0)-|
|-0-0-0-0-0-(0)-(0)-(0)-(0)-(0)-(0)-|-0-0-0-0-0-(0)-(0)-(0)-(0)-(0)-(0)-|
|-0-0-0-0-0-(0)-(0)-(0)--0--(0)-(0)-|-0-0-0-0-0-(0)-(0)-(0)--0--(0)-(0)-|
|-2-2-2-x-2-(2)-(2)--2--(2)--2---2--|-2-2-2-2-2-(2)-(2)--2--(2)--2---2--|
|-2-2-2-x-2--0h==2--(2)-(2)-(2)-(2)-|-2-2-2-2-2--0h==2--(2)-(2)-(2)-(2)-|
|-0-0-0-x-0-(0)-(0)-(0)-(0)-(0)-(0)-|-0-0-0-0-0-(0)-(0)-(0)-(0)-(0)-(0)-|


  G                 D         Dsus4   Asus2         Em
  E  S   S   S   S  S  S   S  E  S    E  S   E   S  S  S  S S S S
|-3--3---3---3---3--2--2---2--3--3--|--------0---0--0--0--0-0-0-0-|
|-0--0---0---0---0--3--3---3--3--3--|-0--0---0---0--0--0--0-0-0-0-|
|-0--0---0---0---0--2--x---2--2--2--|-2--2---2---2--0--0--0-0-0-0-|
|-0--0---0---0---0--0-(0)-(0)-0-(0)-|-2--2--(2)-(2)-2--x--2-2-2-2-|
|-2-(2)-(2)-(2)-(2)-----------------|-0-(0)-(0)-(0)-2--x--2-2-2-2-|
|-3-(3)-(3)-(3)-(3)-----------------|---------------0-(0)-0-0-0-0-|


  G                 D         Dsus4   Asus2             Em
  E  S   S   S   S  S  S   S  E  S    E  S   S   S   S  S  S   S   S   S   S
|-3--3---3---3---3--2--2---2--3--3--|------------0--(0)-0-(0)-(0)-(0)--0--(0)-|
|-0--0---0---0---0--3--3---3--3--3--|-0-(0)-(0)-(0)-(0)-0-(0)-(0)--0--(0)--0--|
|-0--0---0---0---0--2--x---2--2--2--|-2-(2)--2--(2)--2--0--0---0--(0)-(0)-(0)-|
|-0--0---0---0---0--0-(0)-(0)-0-(0)-|-2--2--(2)-(2)-(2)-2--2---2--(2)-(2)-(2)-|
|-2-(2)-(2)-(2)-(2)-----------------|-0-(0)-(0)-(0)-(0)-2--2--(2)-(2)-(2)-(2)-|
|-3-(3)-(3)-(3)-(3)-----------------|-------------------0-(0)-(0)-(0)-(0)-(0)-|


  G           D         Dsus4   Asus2         Em
  E S  E   S  S  S   S  E  S    E  S   E   S  S  S  S S S S
|-3-3--3---3--2--2---2--3--3--|--------0---0--0--0--0-0-0-0-|
|-0-0--0---0--3--3---3--3--3--|-0--0---0---0--0--0--0-0-0-0-|
|-0-0--0---0--2--x---2--2--2--|-2--2---2---2--0--0--0-0-0-0-|
|-0-0--0---0--0-(0)-(0)-0-(0)-|-2--2--(2)-(2)-2--x--2-2-2-2-|
|-2-2-(2)-(2)-----------------|-0-(0)-(0)-(0)-2--x--2-2-2-2-|
|-3-3-(3)-(3)-----------------|---------------0-(0)-0-0-0-0-|


  G                 D         Dsus4   Asus2             Em
  E  S   S   S   S  S  S   S  E  S    E  S   S   S   S  E  S   S   S   S
|-3--3---3---3---3--2--2---2--3--3--|------------0--(0)-0-(0)-(0)-(0)-(0)-|
|-0--0---0---0---0--3--3---3--3--3--|-0-(0)-(0)-(0)-(0)-0-(0)-(0)-(0)-(0)-|
|-0--0---0---0---0--2--x---2--2--2--|-2--2---2--(2)--2--0-(0)--0--(0)-(0)-|
|-0--0---0---0---0--0-(0)-(0)-0-(0)-|-2--2--(2)-(2)-(2)-2--2--(2)--2--(2)-|
|-2-(2)-(2)-(2)-(2)-----------------|-0-(0)-(0)-(0)-(0)-2--2--(2)-(2)--2--|
|-3-(3)-(3)-(3)-(3)-----------------|-------------------0-(0)-(0)-(0)-(0)-|


    Em                D         Dsus4   Cmaj7       D         Dsus4
    E  S   S   S   S  S  S   S  E  S    E S  E   S  S  S   S  E  S
||--0--0---0---0---0--2--2---2--3--3--|------0---0--2--2---2--3--3--|
||o-0--0---0---0---0--3--3---3--3--3--|-0-0--0---0--3--3---3--3--3--|
||--0--0---0---0---0--2--x---2--2--2--|-0-0--0---0--2--x---2--2--2--|
||--2--2---2--(2)-(2)-0-(0)-(0)-0-(0)-|-2-2-(2)-(2)-0-(0)-(0)-0-(0)-|
||o-2--2--(2)-(2)-(2)-----------------|-3-3-(3)-(3)-----------------|
||--0-(0)-(0)-(0)-(0)-----------------|-----------------------------|


  Em                                Em
  E S E S  S   S   S   S   S   S    E S S S S  S   S   S   S   S   S
|-0-0-0-0-(0)-(0)-(0)-(0)-(0)-(0)-|-0-0-0-0-0-(0)-(0)-(0)-(0)-(0)-(0)--||
|-0-0-0-0-(0)-(0)-(0)-(0)-(0)-(0)-|-0-0-0-0-0-(0)-(0)-(0)-(0)-(0)-(0)-o||
|-0-0-0-0-(0)-(0)-(0)--0--(0)-(0)-|-0-0-0-0-0-(0)-(0)-(0)--0--(0)-(0)--||
|-2-2-2-2-(2)-(2)--2--(2)--2---2--|-2-2-2-2-2-(2)-(2)--2--(2)--2---2---||
|-2-2-2-2--0h==2--(2)-(2)-(2)-(2)-|-2-2-2-2-2--0h==2--(2)-(2)-(2)-(2)-o||
|-0-0-0-0-(0)-(0)-(0)-(0)-(0)-(0)-|-0-0-0-0-0-(0)-(0)-(0)-(0)-(0)-(0)--||


    G                 D         Dsus4   Asus2         Em
    E  S   S   S   S  S  S   S  E  S    E  S   E   S  S  S  S S S S
||--3--3---3---3---3--2--2---2--3--3--|--------0---0--0--0--0-0-0-0-|
||o-0--0---0---0---0--3--3---3--3--3--|-0--0---0---0--0--0--0-0-0-0-|
||--0--0---0---0---0--2--x---2--2--2--|-2--2---2---2--0--0--0-0-0-0-|
||--0--0---0---0---0--0-(0)-(0)-0-(0)-|-2--2--(2)-(2)-2--x--2-2-2-2-|
||o-2-(2)-(2)-(2)-(2)-----------------|-0-(0)-(0)-(0)-2--x--2-2-2-2-|
||--3-(3)-(3)-(3)-(3)-----------------|---------------0-(0)-0-0-0-0-|


                                     1.
  G                 D         Dsus4   Asus2             Em
  E  S   S   S   S  S  S   S  E  S    E  S   S   S   S  S  S   S   S   S   S
|-3--3---3---3---3--2--2---2--3--3--|------------0--(0)-0-(0)-(0)-(0)--0--(0)--||
|-0--0---0---0---0--3--3---3--3--3--|-0-(0)-(0)-(0)-(0)-0-(0)-(0)--0--(0)--0--o||
|-0--0---0---0---0--2--x---2--2--2--|-2-(2)--2--(2)--2--0-(0)--0--(0)-(0)-(0)--||
|-0--0---0---0---0--0-(0)-(0)-0-(0)-|-2--2--(2)-(2)-(2)-2--2--(2)-(2)-(2)-(2)--||
|-2-(2)-(2)-(2)-(2)-----------------|-0-(0)-(0)-(0)-(0)-2--2--(2)-(2)-(2)-(2)-o||
|-3-(3)-(3)-(3)-(3)-----------------|-------------------0-(0)-(0)-(0)-(0)-(0)--||


 2.
  Asus2             Em
  E  S   S   S   S  E  S   S   S   S
|------------0--(0)-0-(0)-(0)-(0)-(0)-|
|-0-(0)-(0)-(0)-(0)-0-(0)-(0)-(0)-(0)-|
|-2--2---2--(2)--2--0-(0)--0--(0)-(0)-|
|-2--2--(2)-(2)-(2)-2--2--(2)--2--(2)-|
|-0-(0)-(0)-(0)-(0)-2--2--(2)-(2)--2--|
|-------------------0-(0)-(0)-(0)-(0)-|


 Interlude #2
  N.C.           Dm                        Dm
  Gtrs I, III
   W             E  S E   S E S +S   E      S   E    E    S  E  E    E
|------------||--------------------------|-------------------------------|
|------------||o-------------------------|-------------------------------|
|------------||--7--7-7---7-7-7-(7)s14---|-14s=10---10---10-10-10----9---|
|------------||--------------------------|-------------------------------|
|------------||o-5--5-5---5-5-5-(5)s12---|-12s==8----8----8--8--8----7---|
|------------||--------------------------|-------------------------------|
|
| Gtr II
|  W             H.                        +H                  +E    E
|------------||--------------------------|-------------------------------|
|------------||o-6-----------------------|-(6)-----------------(6)---5---|
|------------||--------------------------|-------------------------------|
|------------||--------------------------|-------------------------------|
|------------||o-------------------------|-------------------------------|
|------------||--------------------------|-------------------------------|
|
| Gtr IV
|  e  E H        E  S S S S E S  S   S S    E     S  S S  S  E  S  S S S
|------------||--5--5-5-5-5-5-5--5---5-5-|--5-----5--5-5--5--5--5--5-5-5-|
|------------||o-6--6-6-6-6-6-6--6---6-6-|--6-----6--6-6--6--6--6--6-6-6-|
|------------||--7--7-7-7-7-7-7--7---7-7-|--7-----7--7-7--7--7--7--7-7-7-|
|------------||--7--7-7-7-7-7-7--7---7-7-|--7-----7--7-7--7--7--7--7-7-7-|
|------------||o-5--5-5-5-5-5-5--5---5-5-|--5-----5--5-5--5--5--5--5-5-5-|
|-(0)--------||--------------------------|-------------------------------|


  Am                       Am                        F
  E  S S S S  E  E   E      S  E   E   S E E   E      E.   E   S E E   E
|------------------------|-------------------------|--1----1---1-1-1---1---|
|------------------------|-------------------------|--1----1---1-1-1---1---|
|--------------------7---|--7s=9---9---9-9-9---9---|--2----2---2-2-2---2---|
|-7--7-7-7-7s10-10-------|-------------------------|--3----3---3-3-3---3---|
|--------------------5---|--5s=7---7---7-7-7---7---|--3----3---3-3-3---3---|
|-5--5-5-5-5s=8--8-------|-------------------------|--1----1---1-1-1---1---|
|
| H.                        H.                        H.
|-5----------------------|-------------------------|-----------------------|
|------------------------|--5----------------------|-/6--------------------|
|-5----------------------|-(5)---------------------|-----------------------|
|------------------------|-------------------------|-----------------------|
|------------------------|-------------------------|-----------------------|
|------------------------|-------------------------|-----------------------|
|
| E  S S S S  E  S S S S    E    S S S S E S S S S    E  S S S S E S S S S
|-5--5-5-5-5--5--5-5-5-5-|--5----5-5-5-5-5-5-5-5-5-|--1--1-1-1-1-1-1-1-1-1-|
|-5--5-5-5-5--5--5-5-5-5-|--5----5-5-5-5-5-5-5-5-5-|--1--1-1-1-1-1-1-1-1-1-|
|-5--5-5-5-5--5--5-5-5-5-|--5----5-5-5-5-5-5-5-5-5-|--2--2-2-2-2-2-2-2-2-2-|
|-7--7-7-7-7--7--7-7-7-7-|--7----7-7-7-7-7-7-7-7-7-|--3--3-3-3-3-3-3-3-3-3-|
|-7--7-7-7-7--7--7-7-7-7-|--7----7-7-7-7-7-7-7-7-7-|--3--3-3-3-3-3-3-3-3-3-|
|-5--5-5-5-5--5--5-5-5-5-|--5----5-5-5-5-5-5-5-5-5-|--1--1-1-1-1-1-1-1-1-1-|


  Bm                     N.C.
                             PM----|     PM----|
  E.   E   S E E   E     S S S S S S S S S S S S
|-2----2---2-2-2---2---|-------------------------|
|-3----3---3-3-3---3---|-------------------------|
|-4----4---4-4-4---4---|-------------------------|
|-4----4---4-4-4---4---|-------------------------|
|-2----2---2-2-2---2---|-5h7---------5h7---------|
|----------------------|-----0-0-0-0-----0-0-0-0-|
|
| H.                     H.
|----------------------|-------------------------|
|----------------------|-8-----------------------|
|-7--------------------|-4-----------------------|
|----------------------|-------------------------|
|----------------------|-------------------------|
|----------------------|-------------------------|
|
| E  S S S S E S S S S   S S S S H
|-2--2-2-2-2-2-2-2-2-2-|-------7-----------------|
|-3--3-3-3-3-3-3-3-3-3-|-----7---8---------------|
|-4--4-4-4-4-4-4-4-4-4-|---7---------------------|
|-4--4-4-4-4-4-4-4-4-4-|-9-----------------------|
|-2--2-2-2-2-2-2-2-2-2-|-------------------------|
|----------------------|-------------------------|


 1.,2.,3.                          4.
                                      Bm    Am
                                    PM
   E    S S S S a  E    S S S S  4x e E E E E E
|--------------------------------||-------------|
|-------------------------------o||---3-3---1-1-|
|--------------------------------||---4-4---2-2-|
|--------------------------------||---4-4---2-2-|
|--2----2-2-0h2-2h=4----4-4-4-4-o||---2-2---0-0-|
|--------------------------------||-0-----------|
|
|  Q.              Q.            4x E E E E E E
|--------------------------------||-------------|
|--7---------------5------------o||---7-7---5-5-|
|-(4)-------------(4)------------||-------------|
|--------------------------------||-------------|
|-------------------------------o||-------------|
|--------------------------------||-------------|
|
|  S  S S S E      S  S S S E    4x E E E E E E
|---------7---------------5------||-------------|
|-------7---7-----------5---5---o||---3-3---1-1-|
|-----7---------------7----------||---4-4---2-2-|
|--9---------------9-------------||---4-4---2-2-|
|-------------------------------o||---2-2---0-0-|
|--------------------------------||-------------|


   Bridge #5 - Pt. I
    N.C.(E)
    Gtr I
           ~~~~~
     E  S  E. E E S S   S S S S S S S S  S S S S
||--------------------|--------------------------|
||o-------------------|--------------------------|
||--------------------|--------------------------|
||--------------------|-----------------/5h7h8p7-|
||o-(2)---------------|-7---5h7p5---5------------|
||---0--0--3--4-0-5h6-|---6-------6---6----------|
|
|   Gtr II
|          ~~~~~
|    E  S  E. E E S S   S S S S S S S S  S S S S
||--------------------|--------------------------|
||o-------------------|--------------------------|
||--------------------|--------------------------|
||--------------------|-----------------/5h7h8p7-|
||o-(2)---------------|-7---5h7p5---5------------|
||---0--0-/7--7-0-5h6-|---6-------6---6----------|


                                               1.,2.,3.            4.
  E5/B                                          Gm                  Gm
   E   S   S   S   S   S   S   S   S   S   S    E E S S E E S S  4x E E E E E E
|---------------------------------------------|-3-3-x-x-3-3-x-x--||-3-3---3-3---|
|---------------------------------------------|-3-3-x-x-3-3-x-x-o||-3-3---3-3---|
|--9---9---9---9---9---9s==8---8---8---x---x--|-3-3-x-x-3-3-x-x--||-3-3---3-3---|
|---------------------------------------------|-5-5-x-x-5-5-x-x--||-5-5---5-5---|
|--7---7---7---7---7---7s==6---6---6---x---x--|-5-5-x-x-5-5-x-x-o||-5-5---5-5---|
|---------------------------------------------|-3-3-x-x-3-3-x-x--||-3-3---3-3---|
|
|  E   S   S   S   S   S   S   S   S   S   S    E E S S E E S S  4x E E E E E E
|---------------------------------------------|-3-3-x-x-3-3-x-x--||-3-3---3-3---|
|---------------------------------------------|-3-3-x-x-3-3-x-x-o||-3-3---3-3---|
|---------------------------------------------|-3-3-x-x-3-3-x-x--||-3-3---3-3---|
|--9---9---9---9---9---9---9---9---9---9---x--|-5-5-x-x-5-5-x-x--||-5-5---5-5---|
|--7---7---7---7---7---7---7---7---7---7---x--|-5-5-x-x-5-5-x-x-o||-5-5---5-5---|
|-(7)-(7)-(7)-(7)-(7)-(7)-(7)-(7)-(7)-(7)-(x)-|-3-3-x-x-3-3-x-x--||-3-3---3-3---|


   Bridge #5 - Pt. II
    N.C.(E)
    Gtrs I, II
     W                  W
||--------------------|----------------------------|
||o-------------------|----------------------------|
||--------------------|----------------------------|
||--------------------|----------------------------|
||o-------------------|----------------------------|
||--------------------|----------------------------|
|
|   Gtr IV
|    E  S E S E E S S   S  S  S S S S S S  S S S S
||--------------------|----------------------------|
||o-------------------|----------------------------|
||--------------------|----------------------------|
||--------------------|-------------------/5h7h8p7-|
||o-(2)---------------|-7-----5h7p5---5------------|
||---0--x-7-x-7-0-5h6-|----x--------6---6----------|
|
|   Gtr V
|    E  S E S E E S S   S  S  S S S S S S  S S S S
||--------------------|----------------------------|
||o-------------------|----------------------------|
||--------------------|----------------------------|
||--------------------|-------------------/5h7h8p7-|
||o-(2)---------------|-7-----5h7p5---5------------|
||---0--x-3-x-4-0-5h6-|---(6)-------6---6----------|


                       1.              2.
  (E)       (D#)        Bb              Bb      Gm
  W                     W               Q   S S E E S S
|---------------------|--------------||-------x-3-3-x-x-|
|---------------------|-------------o||-------x-3-3-x-x-|
|---------------------|--------------||-------x-3-3-x-x-|
|---------------------|--------------||-------x-5-5-x-x-|
|---------------------|-------------o||-------x-5-5-x-x-|
|---------------------|--------------||-------x-3-3-x-x-|
|
| E S E S S S S S S S   E E E E E E     E E E   E E E
|---------------------|--------------||-----------------|
|---------------------|-------------o||-----------------|
|-----9-9-9s8-8-8-x-x-|-7-7---7-7----||-7-7-----7-7-----|
|---------------------|-8-8---8-8----||-8-8-----8-8-----|
|-7-7-7-7-7s6-6-6-x-x-|-------------o||-----------------|
|---------------------|--------------||-----------------|
|
| E S E S S S S E   S   E E E E E E     E E E   E E E
|---------------------|--------------||-----------------|
|---------------------|-------------o||-----------------|
|-----9-9-9s8-8-8---x-|-7-7---7-7----||-7-7-----7-7-----|
|---------------------|-8-8---8-8----||-8-8-----8-8-----|
|-7-7-7-7-7s6-6-6---x-|-------------o||-----------------|
|---------------------|--------------||-----------------|


   Bridge #5 - Pt. III
    N.C.(E)
    Gtr I
           ~~~~~
     E  S  E. E E S S   S S S S S S S S  S S S S
||--------------------|--------------------------|
||o-------------------|--------------------------|
||--------------------|--------------------------|
||--------------------|-----------------/5h7h8p7-|
||o-(2)---------------|-7---5h7p5---5------------|
||---0--0--3--4-0-5h6-|---6-------6---6----------|
|
|   Gtr II
|          ~~~~~
|    E  S  E. E E S S   S S S S S S S S  S S S S
||--------------------|--------------------------|
||o-------------------|--------------------------|
||--------------------|--------------------------|
||--------------------|-----------------/5h7h8p7-|
||o-(2)---------------|-7---5h7p5---5------------|
||---0--0-/7--7-0-5h6-|---6-------6---6----------|


  E5/B
   E   S   S   S   S   S   S   S   S   S   S
|---------------------------------------------|
|---------------------------------------------|
|--9---9---9---9---9---9s==8---8---8---x---x--|
|---------------------------------------------|
|--7---7---7---7---7---7s==6---6---6---x---x--|
|---------------------------------------------|
|
|  E   S   S   S   S   S   S   S   S   S   S
|---------------------------------------------|
|---------------------------------------------|
|---------------------------------------------|
|--9---9---9---9---9---9---9---9---9---9---x--|
|--7---7---7---7---7---7---7---7---7---7---x--|
|-(7)-(7)-(7)-(7)-(7)-(7)-(7)-(7)-(7)-(7)-(x)-|


 1.                  2.
  Gm                  Gm
  E E S S E E S S     E E S S E Q
|-3-3-x-x-3-3-x-x--||-3-3-x-x-3-----|
|-3-3-x-x-3-3-x-x-o||-3-3-x-x-3-----|
|-3-3-x-x-3-3-x-x--||-3-3-x-x-3-----|
|-5-5-x-x-5-5-x-x--||-5-5-x-x-5-----|
|-5-5-x-x-5-5-x-x-o||-5-5-x-x-5-----|
|-3-3-x-x-3-3-x-x--||-3-3-x-x-3-----|
|
| E E S S E E S S     E E S S E Q
|-3-3-x-x-3-3-x-x--||-3-3-x-x-3-----|
|-3-3-x-x-3-3-x-x-o||-3-3-x-x-3-----|
|-3-3-x-x-3-3-x-x--||-3-3-x-x-3-----|
|-5-5-x-x-5-5-x-x--||-5-5-x-x-5-----|
|-5-5-x-x-5-5-x-x-o||-5-5-x-x-5-----|
|-3-3-x-x-3-3-x-x--||-3-3-x-x-3-----|


   Verse #2 - Revisited
    N.C.(E)
    Gtr III
    W                         W
||--------------------------|--------------------------|
||o-------------------------|--------------------------|
||--------------------------|--------------------------|
||--------------------------|--------------------------|
||o-------------------------|--------------------------|
||--------------------------|--------------------------|
|
|   Gtr I
|   PM-----------------------------------------------|
|   S S S S S S S S S S S S   S S S S S S S  S S S S S
||--------------------------|--------------------------|
||o-------------------------|--------------------------|
||--------------------------|--------------------------|
||--------------------------|--------------------------|
||o-------------------------|--------------------------|
||--0-0-0-0-0-0-0-0-0-0-0-0-|-0-0-0-0-0-0-0--0-0-0-0-0-|
|
|   Gtr II
|   E   S S S S S S S S S S   S S E   S S Q.
||--------------------------|--------------------------|
||o-------------------------|--------------------------|
||--4---4-4-4-4-4S3-3-3-3-3-|-3h4-0---0----------------|
||--------------------------|-----------4-2------------|
||o-------------------------|--------------------------|
||--------------------------|--------------------------|


  W                   W
|-------------------|------------------------|
|-------------------|------------------------|
|-------------------|------------------------|
|-------------------|------------------------|
|-------------------|------------------------|
|-------------------|------------------------|
|
| ~
| E E S S E S S S S   S S S S S S S S  E S S
|-------------------|------------------------|
|-------------------|------------------------|
|-------------------|------------------------|
|-------------------|------------------------|
|-1-------------0-2-|-1---1-----0-2-3-/5-3h5-|
|---0-0-2-3-2-3-----|---3---2-3--------------|
|
| Q   S S E S S S S   S S S S S S S S  E S S
|-------------------|------------------------|
|-------------------|------------------------|
|---------------2-4-|-3---3-----2-4-5-/7-5h7-|
|-2---2-4-5-4-5-----|---5---4-5--------------|
|-------------------|------------------------|
|-------------------|------------------------|


  N.C.(E)
  E   S S S S S S S S S S   S S S S S S  E    S S S S
|-------------------------|---------------------------|
|-5---5-5-5-5-5-5-5-5-5-5-|-5S4-4-4-4-4---------------|
|-------------------------|-------------/4----4-4-4-4-|
|-------------------------|---------------------------|
|-------------------------|---------------------------|
|-------------------------|---------------------------|
|
| PM------------------------------------------------|
| S S S S S S S S S S S S   S S S S S S  S  S S S S S
|-------------------------|---------------------------|
|-------------------------|---------------------------|
|-------------------------|---------------------------|
|-------------------------|---------------------------|
|-------------------------|---------------------------|
|-0-0-0-0-0-0-0-0-0-0-0-0-|-0-0-0-0-0-0--0--0-0-0-0-0-|
|
| E   S S S S S S S S S S   S S E   S S  Q.
|-------------------------|---------------------------|
|-------------------------|---------------------------|
|-4---4-4-4-4-4S3-3-3-3-3-|-3h4-0---0-----------------|
|-------------------------|-----------4--2------------|
|-------------------------|---------------------------|
|-------------------------|---------------------------|


  Q   S S E S S S S   S S S S S S S S  E S S
|-------------------|-------------------------||
|-------------------|------------------------o||
|---------------2-4-|-3---3-----2-4-5-/7-5h7--||
|-2---2-4-5-4-5-----|---5---4-5---------------||
|-------------------|------------------------o||
|-------------------|-------------------------||
|
| ~
| E E S S E S S S S   S S S S S S S S  E S S
|-------------------|-------------------------||
|-------------------|------------------------o||
|-------------------|-------------------------||
|-------------------|-------------------------||
|-1-------------0-2-|-1---1-----0-2-3-/5-3h5-o||
|---0-0-2-3-2-3-----|---3---2-3---------------||
|
| Q   S S E S S S S   S S S S S S S S  E S S
|-------------------|-------------------------||
|-------------------|------------------------o||
|---------------2-4-|-3---3-----2-4-5-/7-5h7--||
|-2---2-4-5-4-5-----|---5---4-5---------------||
|-------------------|------------------------o||
|-------------------|-------------------------||


   Bridge #2 - Revisited
    Em6/C#      D#m6/C      D#m6/C       Bm
    W                        W
||------------------------|--------------------------|
||o-----------------------|--------------------------|
||------------------------|--------------------------|
||------------------------|--------------------------|
||o-----------------------|--------------------------|
||------------------------|--------------------------|
|
|   E S S S S S S S S S S    E   S S S S E   S S S S
||------------------------|--------------------------|
||o-----------------------|--------------------------|
||--6-6-6-6-6-6s5-5-5-5-5-|-/5---5-5-5-5-4---4-4-4-4-|
||--5-5-5-5-5-5s4-4-4-4-4-|-/4---4-4-4-4-------------|
||o-4-4-4-4-4-4s3-3-3-3-3-|-/3---3-3-3-3-2---2-2-2-2-|
||------------------------|--------------------------|
|
|   E S S S S S S S S S S    S S S S S S S S S S S S
||------------------------|--------------------------|
||o-5-5-5-5-5-5s4-4-4-4-4-|--4-4-4-4-4-4-3-3-3-3-3-3-|
||--6-6-6-6-6-6s5-5-5-5-5-|--5-5-5-5-5-5-4-4-4-4-4-4-|
||--5-5-5-5-5-5s4-4-4-4-4-|--4-4-4-4-4-4-4-4-4-4-4-4-|
||o-----------------------|--------------------------|
||------------------------|--------------------------|


                      1.,2.,3.
     (D#) (D)          (A(B)
   Q    E  Q     E     Q    E    E        +E   +S      +S   4x
|--------------------|--------------------------------------||
|-12-----------------|-----10---10b12====(10)r(10)b12r(10)-o||
|-------9-12-----9---|-8------------------------------------||
|--------------------|--------------------------------------||
|--------------------|-------------------------------------o||
|--------------------|--------------------------------------||
|
|                           PM|
|  E  E E  E S S S S   E E  S S  S     S   E    E           4x
|--------------------|--------------------------------------||
|--------------------|-------------------------------------o||
|----/8-8--7-7-7-x---|-3-4----------------------------------||
|--------------------|--------------------------------------||
|----/6-6--5-5-5-x---|-1-2---------------------------------o||
|--------------------|------0-0--2h====3---0----0-----------||
|
|                           PM|
|  E  E E  E S S S S   E E  S S  S     S   E    E           4x
|--------------------|--------------------------------------||
|--------------------|-------------------------------------o||
|----/8-8--7-7-7-x-x-|-3-4----------------------------------||
|--------------------|--------------------------------------||
|----/6-6--5-5-5-x-x-|-1-2---------------------------------o||
|--------------------|------0-0--2h====3---0----0-----------||


 4.
  (A(B)
  Q    E    Q          +E
|--------------------------|
|-----10---10b12======(10)-|
|-8------------------------|
|-----------7b9========(7)-|
|--------------------------|
|--------------------------|
|
|      PM|
| E E  S S  S     S E   E
|--------------------------|
|--------------------------|
|-3-4----------------------|
|--------------------------|
|-1-2----------------------|
|------0-0--2h====3-0---0--|
|
|      PM|
| E E  S S  S     S E   E
|--------------------------|
|--------------------------|
|-3-4----------------------|
|--------------------------|
|-1-2----------------------|
|------0-0--2h====3-0---0--|


 Bridge #3 - Revisited
  Bm                       Asus4
  Gtr III
   +H.                      +H.
|------------------------|-------------------------|
|-(10)-------------------|-(10)r-------------------|
|------------------------|-------------------------|
|--(7)-------------------|--(7)r-------------------|
|------------------------|-------------------------|
|------------------------|-------------------------|
|
| Gtrs I, II
|   E  S S S S E S S S S     E   S S S S E S S S S
|---2--2-2-2-2-2-2-2-2-2-|---0---0-0-0-0-0-0-0-0-0-|
|---3--3-3-3-3-3-3-3-3-3-|---3---3-3-3-3-3-3-3-3-3-|
|---4--4-4-4-4-4-4-4-4-4-|---2---2-2-2-2-2-2-2-2-2-|
|---4--4-4-4-4-4-4-4-4-4-|---2---2-2-2-2-2-2-2-2-2-|
|---2--2-2-2-2-2-2-2-2-2-|---0---0-0-0-0-0-0-0-0-0-|
|------------------------|-------------------------|


  G                     D           Em
  Gtrs I, II
  E S S S S E S S S S   S S S S S S S S S S S S
|-3-3-3-3-3-3-3-3-3-3-|-------------------------|
|-3-3-3-3-3-3-3-3-3-3-|-7-7-7-7-x-x-8-8-8-8-x-x-|
|-4-4-4-4-4-4-4-4-4-4-|-7-7-7-7-x-x-9-9-9-9-x-x-|
|-5-5-5-5-5-5-5-5-5-5-|-7-7-7-7-x-x-9-9-9-9-x-x-|
|-5-5-5-5-5-5-5-5-5-5-|-5-5-5-5-x-x-7-7-7-7-x-x-|
|-3-3-3-3-3-3-3-3-3-3-|-------------------------|


  Bm                    Asus4
  E S S S S E S S S S   E S S S S E S S S S
|-2-2-2-2-2-2-2-2-2-2-|-0-0-0-0-0-0-0-0-0-0-|
|-3-3-3-3-3-3-3-3-3-3-|-3-3-3-3-3-3-3-3-3-3-|
|-4-4-4-4-4-4-4-4-4-4-|-2-2-2-2-2-2-2-2-2-2-|
|-4-4-4-4-4-4-4-4-4-4-|-2-2-2-2-2-2-2-2-2-2-|
|-2-2-2-2-2-2-2-2-2-2-|-0-0-0-0-0-0-0-0-0-0-|
|---------------------|---------------------|


  G                             G   Gb5
  E S S S S E S S S S   E S E S E S E S
|-3-3-3-3-3-3-3-3-3-3-|-----------------|
|-3-3-3-3-3-3-3-3-3-3-|-----------------|
|-4-4-4-4-4-4-4-4-4-4-|-----------------|
|-5-5-5-5-5-5-5-5-5-5-|-----------------|
|-5-5-5-5-5-5-5-5-5-5-|---------2-x-4-x-|
|-3-3-3-3-3-3-3-3-3-3-|-5-x-2-x-3-x-3-x-|


  Bm                    Asus4
  E S S S S E S S S S   E S S S S E S S S S
|-2-2-2-2-2-2-2-2-2-2-|-0-0-0-0-0-0-0-0-0-0-|
|-3-3-3-3-3-3-3-3-3-3-|-3-3-3-3-3-3-3-3-3-3-|
|-4-4-4-4-4-4-4-4-4-4-|-2-2-2-2-2-2-2-2-2-2-|
|-4-4-4-4-4-4-4-4-4-4-|-2-2-2-2-2-2-2-2-2-2-|
|-2-2-2-2-2-2-2-2-2-2-|-0-0-0-0-0-0-0-0-0-0-|
|---------------------|---------------------|


  G                     D           Em
  E S S S S E S S S S   S S S S S S S S S S S S
|-3-3-3-3-3-3-3-3-3-3-|-------------------------|
|-3-3-3-3-3-3-3-3-3-3-|-7-7-7-7-x-x-8-8-8-8-x-x-|
|-4-4-4-4-4-4-4-4-4-4-|-7-7-7-7-x-x-9-9-9-9-x-x-|
|-5-5-5-5-5-5-5-5-5-5-|-7-7-7-7-x-x-9-9-9-9-x-x-|
|-5-5-5-5-5-5-5-5-5-5-|-5-5-5-5-x-x-7-7-7-7-x-x-|
|-3-3-3-3-3-3-3-3-3-3-|-------------------------|


  Bm                    Asus4
  E S S S S E S S S S   E S S S S E S S S S
|-2-2-2-2-2-2-2-2-2-2-|-0-0-0-0-0-0-0-0-0-0-|
|-3-3-3-3-3-3-3-3-3-3-|-3-3-3-3-3-3-3-3-3-3-|
|-4-4-4-4-4-4-4-4-4-4-|-2-2-2-2-2-2-2-2-2-2-|
|-4-4-4-4-4-4-4-4-4-4-|-2-2-2-2-2-2-2-2-2-2-|
|-2-2-2-2-2-2-2-2-2-2-|-0-0-0-0-0-0-0-0-0-0-|
|---------------------|---------------------|


  F                     Fm
  E S S S S E S S S S   E S S S S E S S S S
|-1-1-1-1-1-1-1-1-1-1-|-4-4-4-4-4-4-4-4-4-4-|
|-1-1-1-1-1-1-1-1-1-1-|-1-1-1-1-1-1-1-1-1-1-|
|-2-2-2-2-2-2-2-2-2-2-|-1-1-1-1-1-1-1-1-1-1-|
|-3-3-3-3-3-3-3-3-3-3-|-3-3-3-3-3-3-3-3-3-3-|
|-3-3-3-3-3-3-3-3-3-3-|-3-3-3-3-3-3-3-3-3-3-|
|-1-1-1-1-1-1-1-1-1-1-|-1-1-1-1-1-1-1-1-1-1-|


   Outro
    (G#)      (G)    (F)  (B)   (A#)F°  E5
    Gtr I
      S  S  S  E   S  E S E S   E S S E E. E.
||----------------------------|----------------|
||o---------------------------|----------------|
||--/13-13-13-12---x-10-x-----|----------------|
||------------------------9-x-|-8-x-3-3--------|
||o-/11-11-11-10---x--8-x-----|----------------|
||------------------------7-x-|-6-x-1-1-0--0---|
|
|   Gtr II
|     S  S  S  S S S  E S E S   E S S E Q.
||----------------------------|----------------|
||o---------------------------|----------------|
||--/13-13-13-12-x-x-10-x-----|----------------|
||------------------------9-x-|-8-x-9-9-9------|
||o-/11-11-11-10-x-x--8-x-----|----------------|
||------------------------7-x-|-6-x-7-7-7------|


                            1.,2.              3.
  (G#)     (G)    (F)  (B)   (A#)F°  E5         (A#)F°    E5
   S  S  S  E   S  E S E S   E S S E E. E.   3x E S S S S E Q
|--------------------------|-----------------||----------------*|
|--------------------------|----------------o||----------------*|
|-13-13-13-12---x-10-x-----|-----------------||----------------*|
|----------------------9-x-|-8-x-3-3---------||-8-x-3-3-3-2----*|
|-11-11-11-10---x--8-x-----|----------------o||----------------*|
|----------------------7-x-|-6-x-1-1-0--0----||-6-x-1-1-1-0----*|
|
|  S  S  S  S S S  E S E S   E S S E Q.      3x E S S S S E Q
|--------------------------|-----------------||----------------*|
|--------------------------|----------------o||----------------*|
|-13-13-13-12-x-x-10-x-----|-----------------||----------------*|
|----------------------9-x-|-8-x-9-9-9-------||-8-x-9-9-9-9----*|
|-11-11-11-10-x-x--8-x-----|----------------o||----------------*|
|----------------------7-x-|-6-x-7-7-7-------||-6-x-7-7-7-7----*|


Performance Notes
-----------------
Yet another GREAT song, with GREAT guitarplaying.
It displays the strength & variety of Opeth in such a fantastic way,, it really is

incredible music.

Play it to the bone & enjoy!

Duration Legend
---------------
W - whole; H - half; Q - quarter; E - 8th; S - 16th; T - 32nd; X - 64th; a - acciaccatura
+ - note tied to previous; . - note dotted; .. - note double dotted
Uncapitalized letters represent notes that are staccato (1/2 duration)
Irregular groupings are notated above the duration line
Duration letters will always appear directly above the note/fret number it represents the
duration for.  Duration letters with no fret number below them represent rests.  Multi-
bar rests are notated in the form Wxn, where n is the number of bars to rest for.  Low
melody durations appear below the staff

Tablature Legend
----------------
 h   - hammer-on
 p   - pull-off
 b   - bend
 pb  - pre-bend
 r   - bend release (if no number after the r, then release immediately)
 /\  - slide into or out of (from/to "nowhere")
 s   - legato slide
 S   - shift slide
  - natural harmonic
[n]  - artificial harmonic
n(n) - tapped harmonic
 ~   - vibrato
 tr  - trill
 T   - tap
 TP  - trem. picking
 PM  - palm muting
\n/  - tremolo bar dip; n = amount to dip
 \n  - tremolo bar down
 n/  - tremolo bar up
/n\  - tremolo bar inverted dip
 =   - hold bend; also acts as connecting device for hammers/pulls
 <>  - volume swell (louder/softer)
 x   - on rhythm slash represents muted slash
 o   - on rhythm slash represents single note slash

Misc Legend
-----------
 |  - bar
||  - double bar
||o - repeat start
o|| - repeat end
*|  - double bar (ending)
 :  - bar (freetime)
 $  - Segno
 &  - Coda
Tempo markers -  = BPM(8/16=s8/s16), where s8 = swing 8ths, s16 = swing

16ths




  Search tabs:

 Browse artists: 0-9 | A | B | C | D | E | F | G | H | I | J | K | L | M | N | O | P | Q 
R | S | T | U | V | W | X | Y | Z

  / Opeth / Still Life (1999) / Godhead's Lament guitar tab


GODHEAD'S LAMENT
As recorded by Opeth
From the 1999 Album STILL LIFE
Words and Music by Mikael Åkerfeldt
Arranged by Opeth


          A5
      x 0 2 2 x x

Gtr I (E A D G B E) - 'M. Åkerfeldt - Dist. Gtr.'
Gtr II (E A D G B E) - 'P. Lindgren - Dist. Gtr. #1'
Gtr III (E A D G B E) - 'P. Lindgren - Dist. Gtr. #2'
Gtr IV (E A D G B E) - 'M. Åkerfeldt - Acous. Gtr.'
Gtr V (E A D G B E) - 'M. Åkerfeldt - Clean Gtr.'

   Intro
    Q=98
    Gm  Am  Bbm         (Db)      (G)         (F)       (E)   (D)   (Db)
   6/8
    Gtr I
    E S E S E S S S S   E S S S S E S S S S     S  S  S S S S S S S S S S
||--3-x-5-x-6-6-6-6-x-|---------------------|-----------------------------|
||o-3-x-5-x-6-6-6-6-x-|---------------------|-----------------------------|
||--x-x-x-x-x-x-x-x-x-|-6-6-6-x-x-----------|-/10-10-10-9-x-x-7-7-7-6-x-x-|
||--5-x-7-x-8-8-8-8-x-|-----------5-5-5-x-x-|-----------------------------|
||o-5-x-7-x-8-8-8-8-x-|-4-4-4-x-x-----------|--/8--8--8-7-x-x-5-5-5-4-x-x-|
||--3-x-5-x-6-6-6-6-x-|-----------3-3-3-x-x-|-----------------------------|
|
|   Gtr II
|   E S E S E S S S S   E S S S S E S S S S     S  S  S S S S S S S S S S
||--3-x-5-x-6-6-6-6-x-|---------------------|-----------------------------|
||o-3-x-5-x-6-6-6-6-x-|---------------------|-----------------------------|
||--x-x-x-x-x-x-x-x-x-|-6-6-6-x-x-----------|-/10-10-10-9-x-x-7-7-7-6-x-x-|
||--5-x-7-x-8-8-8-8-x-|-----------5-5-5-x-x-|-----------------------------|
||o-5-x-7-x-8-8-8-8-x-|-4-4-4-x-x-----------|--/8--8--8-7-x-x-5-5-5-4-x-x-|
||--3-x-5-x-6-6-6-6-x-|-----------3-3-3-x-x-|-----------------------------|


  1.                   2.
  C°  C°/AC°/Gb         C°  B°
  E S E S E S S S S     E S S S S S S S E.
|--------------------||--------------------|
|-------------------o||--------------------|
|-5-5-5-5-5-5-5-5-5--||-5-5-4-4-4-4-4-4-4/-|
|-4-4-4-4-4-4-4-4-4--||-4-4-3-3-3-3-3-3-3/-|
|-3-3-3-3-3-3-3-3-3-o||-3-3-2-2-2-2-2-2-2/-|
|--------------------||--------------------|
|
| E S E S E S S S S     E S S S S S S S E.
|--------------------||--------------------|
|-------------------o||--------------------|
|--------------------||-5-5-4-4-4-4-4-4-4/-|
|-4-4-4-4-4-4-4-4-4--||-4-4-3-3-3-3-3-3-3/-|
|-3-3-0-0-3-3-3-3-3-o||-3-3-2-2-2-2-2-2-2/-|
|---------2-2-2-2-2--||--------------------|


    Gm       Am       Bbm
    Gtr III
     S  S  S  S  S  S  S  S  S  S  S  S
||--15-------16-------15-------16-------|
||o-------------------------------------|
||-----13-12----13-12----13-12----13-12-|
||--------------------------------------|
||o-------------------------------------|
||--------------------------------------|
|
|   Gtr I
|    S  S  S  E     S  E     S  S  S  S
||---3--x--x--5-----x--6-----6--6--6--x-|
||o--3--x--x--5-----x--6-----6--6--6--x-|
||---x--x--x--x-----x--x-----x--x--x--x-|
||---5--x--x--7-----x--8-----8--8--8--x-|
||o--5--x--x--7-----x--8-----8--8--8--x-|
||---3--x--x--5-----x--6-----6--6--6--x-|
|
|   Gtr II
|    S  S  S  E     S  E     S  S  S  S
||---3--x--x--5-----x--6-----6--6--6--x-|
||o--3--x--x--5-----x--6-----6--6--6--x-|
||---x--x--x--x-----x--x-----x--x--x--x-|
||---5--x--x--7-----x--8-----8--8--8--x-|
||o--5--x--x--7-----x--8-----8--8--8--x-|
||---3--x--x--5-----x--6-----6--6--6--x-|


  (Db)          (G)                  (F)       (E)      (D)      (Db)
   E.    E.       S  S  S  S  S  S     S  S  S  S  S  S  S  S  S  S  S  S
|----------------------------------|--15-------16-------15-------16--------|
|-14------------/13-12----12-13-14-|---------------------------------------|
|-------13-------------15----------|-----13-12----13-12----13-12----13-12--|
|----------------------------------|---------------------------------------|
|----------------------------------|---------------------------------------|
|----------------------------------|---------------------------------------|
|
|  E  S  S  S S   E     S  S  S  S     S  S  S  S  S  S  S  S  S  S  S  S
|----------------------------------|---------------------------------------|
|----------------------------------|---------------------------------------|
|--6--6--6--x-x--------------------|-/10-10-10--9--x--x--7--7--7--6--x--x--|
|-----------------5-----5--5--x--x-|---------------------------------------|
|--4--4--4--x-x--------------------|--/8--8--8--7--x--x--5--5--5--4--x--x--|
|-----------------3-----3--3--x--x-|---------------------------------------|
|
|  E  S  S  S S   E     S  S  S  S     S  S  S  S  S  S  S  S  S  S  S  S
|----------------------------------|---------------------------------------|
|----------------------------------|---------------------------------------|
|--6--6--6--x-x--------------------|-/10-10-10--9--x--x--7--7--7--6--x--x--|
|-----------------5-----5--5--x--x-|---------------------------------------|
|--4--4--4--x-x--------------------|--/8--8--8--7--x--x--5--5--5--4--x--x--|
|-----------------3-----3--3--x--x-|---------------------------------------|


  1.                          2.
  C°    C°/A  C°/Gb            C°    B°
   E.    E.    E  E    E        E.    E.      E    E     E
|---------------------------||-----------------------------|
|-13----12-----------------o||-13----12--------------------|
|-------------11------------||---------------11------------|
|----------------12---11----||--------------------12----11-|
|--------------------------o||-----------------------------|
|---------------------------||-----------------------------|
|
|  E  S  E  S  E  S S  S S      E  S  S  S S  S S  S E.
|---------------------------||-----------------------------|
|--------------------------o||-----------------------------|
|--5--5--5--5--5--5-5--5-5--||--5--5--4--4-4--4-4--4-4-----|
|--4--4--4--4--4--4-4--4-4--||--4--4--3--3-3--3-3--3-3-----|
|--3--3--3--3--3--3-3--3-3-o||--3--3--2--2-2--2-2--2-2-----|
|---------------------------||-----------------------------|
|
|  E  S  E  S  E  S S  S S      E  S  S  S S  S S  S E.
|---------------------------||-----------------------------|
|--------------------------o||-----------------------------|
|---------------------------||--5--5--4--4-4--4-4--4-4-----|
|--4--4--4--4--4--4-4--4-4--||--4--4--3--3-3--3-3--3-3-----|
|--3--3--0--0--3--3-3--3-3-o||--3--3--2--2-2--2-2--2-2-----|
|--------------2--2-2--2-2--||-----------------------------|


 Verse #1
  Gm    Am  Bbm            (Db)      (G)         (F)       (E)   (D)   (Db)
              >
   Q.        +Q.           W                       W
|------------------------|---------------------|-----------------------------|
|------------------------|---------------------|-----------------------------|
|-11--------(11)---------|---------------------|-----------------------------|
|------------------------|---------------------|-----------------------------|
|------------------------|---------------------|-----------------------------|
|------------------------|---------------------|-----------------------------|
|
|  E  S E S   E  S S S S   E S S S S E S S S S     S  S  S S S S S S S S S S
|--3--x-5-x---6--6-6-6-x-|---------------------|-----------------------------|
|--3--x-5-x---6--6-6-6-x-|---------------------|-----------------------------|
|--x--x-x-x---x--x-x-x-x-|-6-6-6-x-x-----------|-/10-10-10-9-x-x-7-7-7-6-x-x-|
|--5--x-7-x---8--8-8-8-x-|-----------5-5-5-x-x-|-----------------------------|
|--5--x-7-x---8--8-8-8-x-|-4-4-4-x-x-----------|--/8--8--8-7-x-x-5-5-5-4-x-x-|
|--3--x-5-x---6--6-6-6-x-|-----------3-3-3-x-x-|-----------------------------|
|
|  E  S E S   E  S S S S   E S S S S E S S S S     S  S  S S S S S S S S S S
|--3--x-5-x---6--6-6-6-x-|---------------------|-----------------------------|
|--3--x-5-x---6--6-6-6-x-|---------------------|-----------------------------|
|--x--x-x-x---x--x-x-x-x-|-6-6-6-x-x-----------|-/10-10-10-9-x-x-7-7-7-6-x-x-|
|--5--x-7-x---8--8-8-8-x-|-----------5-5-5-x-x-|-----------------------------|
|--5--x-7-x---8--8-8-8-x-|-4-4-4-x-x-----------|--/8--8--8-7-x-x-5-5-5-4-x-x-|
|--3--x-5-x---6--6-6-6-x-|-----------3-3-3-x-x-|-----------------------------|


  C°  C°/AC°/Gb       Gm  Am  Bbm         (Db)      (G)
  W                   W                   W
|-------------------|-------------------|---------------------|
|-------------------|-------------------|---------------------|
|-------------------|-------------------|---------------------|
|-------------------|-------------------|---------------------|
|-------------------|-------------------|---------------------|
|-------------------|-------------------|---------------------|
|
| E S E S E S S S S   E S E S E S S S S   E S S S S E S S S S
|-------------------|-3-x-5-x-6-6-6-6-x-|---------------------|
|-------------------|-3-x-5-x-6-6-6-6-x-|---------------------|
|-5-5-5-5-5-5-5-5-5-|-x-x-x-x-x-x-x-x-x-|-6-6-6-x-x-----------|
|-4-4-4-4-4-4-4-4-4-|-5-x-7-x-8-8-8-8-x-|-----------5-5-5-x-x-|
|-3-3-3-3-3-3-3-3-3-|-5-x-7-x-8-8-8-8-x-|-4-4-4-x-x-----------|
|-------------------|-3-x-5-x-6-6-6-6-x-|-----------3-3-3-x-x-|
|
| E S E S E S S S S   E S E S E S S S S   E S S S S E S S S S
|-------------------|-3-x-5-x-6-6-6-6-x-|---------------------|
|-------------------|-3-x-5-x-6-6-6-6-x-|---------------------|
|-------------------|-x-x-x-x-x-x-x-x-x-|-6-6-6-x-x-----------|
|-4-4-4-4-4-4-4-4-4-|-5-x-7-x-8-8-8-8-x-|-----------5-5-5-x-x-|
|-3-3-0-0-3-3-3-3-3-|-5-x-7-x-8-8-8-8-x-|-4-4-4-x-x-----------|
|---------2-2-2-2-2-|-3-x-5-x-6-6-6-6-x-|-----------3-3-3-x-x-|


  (F)       (E)   (D)   (Db)    C°  B°
    W                           W
|-----------------------------|--------------------|
|-----------------------------|--------------------|
|-----------------------------|--------------------|
|-----------------------------|--------------------|
|-----------------------------|--------------------|
|-----------------------------|--------------------|
|
|   S  S  S S S S S S S S S S   E S S S S S S S E.
|-----------------------------|--------------------|
|-----------------------------|--------------------|
|-/10-10-10-9-x-x-7-7-7-6-x-x-|-5-5-4-4-4-4-4-4-4/-|
|-----------------------------|-4-4-3-3-3-3-3-3-3/-|
|--/8--8--8-7-x-x-5-5-5-4-x-x-|-3-3-2-2-2-2-2-2-2/-|
|-----------------------------|--------------------|
|
|   S  S  S S S S S S S S S S   E S S S S S S S E.
|-----------------------------|--------------------|
|-----------------------------|--------------------|
|-/10-10-10-9-x-x-7-7-7-6-x-x-|-5-5-4-4-4-4-4-4-4/-|
|-----------------------------|-4-4-3-3-3-3-3-3-3/-|
|--/8--8--8-7-x-x-5-5-5-4-x-x-|-3-3-2-2-2-2-2-2-2/-|
|-----------------------------|--------------------|


    Gm       Am       Bbm
     S  S  S  S  S  S  S  S  S  S  S  S
||--15-------16-------15-------16-------|
||o-------------------------------------|
||-----13-12----13-12----13-12----13-12-|
||--------------------------------------|
||o-------------------------------------|
||--------------------------------------|
|
|    S  S  S  E     S  E     S  S  S  S
||---3--x--x--5-----x--6-----6--6--6--x-|
||o--3--x--x--5-----x--6-----6--6--6--x-|
||---x--x--x--x-----x--x-----x--x--x--x-|
||---5--x--x--7-----x--8-----8--8--8--x-|
||o--5--x--x--7-----x--8-----8--8--8--x-|
||---3--x--x--5-----x--6-----6--6--6--x-|
|
|    S  S  S  E     S  E     S  S  S  S
||---3--x--x--5-----x--6-----6--6--6--x-|
||o--3--x--x--5-----x--6-----6--6--6--x-|
||---x--x--x--x-----x--x-----x--x--x--x-|
||---5--x--x--7-----x--8-----8--8--8--x-|
||o--5--x--x--7-----x--8-----8--8--8--x-|
||---3--x--x--5-----x--6-----6--6--6--x-|


  (Db)          (G)                  (F)       (E)      (D)      (Db)
   E.    E.       S  S  S  S  S  S     S  S  S  S  S  S  S  S  S  S  S  S
|----------------------------------|--15-------16-------15-------16--------|
|-14------------/13-12----12-13-14-|---------------------------------------|
|-------13-------------15----------|-----13-12----13-12----13-12----13-12--|
|----------------------------------|---------------------------------------|
|----------------------------------|---------------------------------------|
|----------------------------------|---------------------------------------|
|
|  E  S  S  S S   E     S  S  S  S     S  S  S  S  S  S  S  S  S  S  S  S
|----------------------------------|---------------------------------------|
|----------------------------------|---------------------------------------|
|--6--6--6--x-x--------------------|-/10-10-10--9--x--x--7--7--7--6--x--x--|
|-----------------5-----5--5--x--x-|---------------------------------------|
|--4--4--4--x-x--------------------|--/8--8--8--7--x--x--5--5--5--4--x--x--|
|-----------------3-----3--3--x--x-|---------------------------------------|
|
|  E  S  S  S S   E     S  S  S  S     S  S  S  S  S  S  S  S  S  S  S  S
|----------------------------------|---------------------------------------|
|----------------------------------|---------------------------------------|
|--6--6--6--x-x--------------------|-/10-10-10--9--x--x--7--7--7--6--x--x--|
|-----------------5-----5--5--x--x-|---------------------------------------|
|--4--4--4--x-x--------------------|--/8--8--8--7--x--x--5--5--5--4--x--x--|
|-----------------3-----3--3--x--x-|---------------------------------------|


  1.                          2.
  C°    C°/A  C°/Gb            (Bb)     (A)
                                               ~~~
   E.    E.    E  E    E        E  S  S  S  S  Q.
|---------------------------||----------------------------|
|-13----12-----------------o||-15-15-15-13h15-13----------|
|-------------11------------||-15-15-15-14h15-14----------|
|----------------12---11----||----------------------------|
|--------------------------o||----------------------------|
|---------------------------||----------------------------|
|
|  E  S  E  S  E  S S  S S      E  S  S  S  S  E  S S S S
|---------------------------||----------------------------|
|--------------------------o||----------------------------|
|--5--5--5--5--5--5-5--5-5--||----------------------------|
|--4--4--4--4--4--4-4--4-4--||--8--8--8--7s=8s=7--7-7-7-7-|
|--3--3--3--3--3--3-3--3-3-o||----------------------------|
|---------------------------||--6--6--6--5s=6s=5--5-5-5-5-|
|
|  E  S  E  S  E  S S  S S      E  S  S  S  S  E  S S S S
|---------------------------||----------------------------|
|--------------------------o||----------------------------|
|---------------------------||----------------------------|
|--4--4--4--4--4--4-4--4-4--||--8--8--8--7s=8s=7--7-7-7-7-|
|--3--3--0--0--3--3-3--3-3-o||----------------------------|
|--------------2--2-2--2-2--||--6--6--6--5s=6s=5--5-5-5-5-|


   Bridge #1
    G/B         Am/C             C°        C5
    E S S S S S  S  S  S  S  S   E S S S S S S S S S S
||-----------------------------|-----------------------|
||o----------------------------|-----------------------|
||--4-4-4-4-4-4s=5--5--5--5--5-|-5-5-5-5-5-5-5-5-5-5-x-|
||-----------------------------|-----------------------|
||o-2-2-2-2-2-2s=3--3--3--3--3-|-3-3-3-3-3-3-3-3-3-3-x-|
||-----------------------------|-----------------------|
|
|   E S S S S S  S  S  S  S  S   E S S S S E   S S S S
||-----------------------------|-----------------------|
||o-8-8-8-8-8-8s10-10-10-10-10-|-7-7-7-7-7-8---8-8-8-8-|
||-----------------------------|-----------------------|
||--5-5-5-5-5-5s=7--7--7--7--7-|-4-4-4-4-4-5---5-5-5-5-|
||o----------------------------|-----------------------|
||-----------------------------|-----------------------|


  (G)  (F#)        (E)   Am
                                                 3/8
  E  S E S E    S  E S   E S S  S S S S S S E  6x E  S   S   S   S
|----------------------|--------------------0--||--------------------|
|----------------------|------------------0---o||--------------------|
|----------------------|----------------0------||--------------------|
|-5--x-4-x-4----x--2-x-|------------2s4--------||--------------------|
|----------------------|-3-3-3--3-3-----------o||--------------------|
|-3--x-2-x-2----x--0-x-|-5-5-5--5-5------------||---(0)-(0)-(0)-(0)--|
|
| Q.       S S +Q        E S E.     S S S S E  6x E  E       E
|----------------------|-----------------------||--------------------|
|----------1-0-(0)-----|------------5s7h8p7-5-o||--------------------|
|----------------------|-----0-----------------||--------------------|
|-2--------------------|-----------------------||------------2-------|
|----------------------|-3-3------------------o||---/2---------------|
|----------------------|-----------------------||--------------------|


   Pre-Verse/Verse #2
    N.C.(E)
   6/8
    Gtr III
    W                         W
||--------------------------|---------------------------|
||o-------------------------|---------------------------|
||--------------------------|---------------------------|
||--------------------------|---------------------------|
||o-------------------------|---------------------------|
||--------------------------|---------------------------|
|
|   Gtr I
|   PM-----------------------------------------------|
|   S S S S S S S S S S S S   S S S S S S S  S S S S S
||--------------------------|---------------------------|
||o-------------------------|---------------------------|
||--------------------------|---------------------------|
||--------------------------|---------------------------|
||o-------------------------|---------------------------|
||--0-0-0-0-0-0-0-0-0-0-0-0-|-0-0-0-0-0-0-0--0-0-0-0-0--|
|
|   Gtr II
|   E   S S S S S S S S S S   S S E   S S Q.
||--------------------------|---------------------------|
||o-------------------------|---------------------------|
||--4---4-4-4-4-4S3-3-3-3-3-|-3h4-0---0-----------------|
||--------------------------|-----------4-2-------------|
||o-------------------------|---------------------------|
||--------------------------|---------------------------|


  W                   W
|-------------------|------------------------|
|-------------------|------------------------|
|-------------------|------------------------|
|-------------------|------------------------|
|-------------------|------------------------|
|-------------------|------------------------|
|
| ~
| E E S S E S S S S   S S S S S S S S  E S S
|-------------------|------------------------|
|-------------------|------------------------|
|-------------------|------------------------|
|-------------------|------------------------|
|-1-------------0-2-|-1---1-----0-2-3-/5-3h5-|
|---0-0-2-3-2-3-----|---3---2-3--------------|
|
| Q   S S E S S S S   S S S S S S S S  E S S
|-------------------|------------------------|
|-------------------|------------------------|
|---------------2-4-|-3---3-----2-4-5-/7-5h7-|
|-2---2-4-5-4-5-----|---5---4-5--------------|
|-------------------|------------------------|
|-------------------|------------------------|


  N.C.(E)
  E   S S S S S S S S S S   S S S S S S  E    S S S S
|-------------------------|---------------------------|
|-5---5-5-5-5-5-5-5-5-5-5-|-5S4-4-4-4-4---------------|
|-------------------------|-------------/4----4-4-4-4-|
|-------------------------|---------------------------|
|-------------------------|---------------------------|
|-------------------------|---------------------------|
|
| PM------------------------------------------------|
| S S S S S S S S S S S S   S S S S S S  S  S S S S S
|-------------------------|---------------------------|
|-------------------------|---------------------------|
|-------------------------|---------------------------|
|-------------------------|---------------------------|
|-------------------------|---------------------------|
|-0-0-0-0-0-0-0-0-0-0-0-0-|-0-0-0-0-0-0--0--0-0-0-0-0-|
|
| E   S S S S S S S S S S   S S E   S S  Q.
|-------------------------|---------------------------|
|-------------------------|---------------------------|
|-4---4-4-4-4-4S3-3-3-3-3-|-3h4-0---0-----------------|
|-------------------------|-----------4--2------------|
|-------------------------|---------------------------|
|-------------------------|---------------------------|


  Q   S S E S S S S   S S S S S S S S  E S S  3x
|-------------------|-------------------------||
|-------------------|------------------------o||
|---------------2-4-|-3---3-----2-4-5-/7-5h7--||
|-2---2-4-5-4-5-----|---5---4-5---------------||
|-------------------|------------------------o||
|-------------------|-------------------------||
|
| ~
| E E S S E S S S S   S S S S S S S S  E S S  3x
|-------------------|-------------------------||
|-------------------|------------------------o||
|-------------------|-------------------------||
|-------------------|-------------------------||
|-1-------------0-2-|-1---1-----0-2-3-/5-3h5-o||
|---0-0-2-3-2-3-----|---3---2-3---------------||
|
| Q   S S E S S S S   S S S S S S S S  E S S  3x
|-------------------|-------------------------||
|-------------------|------------------------o||
|---------------2-4-|-3---3-----2-4-5-/7-5h7--||
|-2---2-4-5-4-5-----|---5---4-5---------------||
|-------------------|------------------------o||
|-------------------|-------------------------||


   Bridge #2
    Em6/C#      D#m6/C      D#m6/C       Bm
    W                        W
||------------------------|--------------------------|
||o-----------------------|--------------------------|
||------------------------|--------------------------|
||------------------------|--------------------------|
||o-----------------------|--------------------------|
||------------------------|--------------------------|
|
|   E S S S S S S S S S S    E   S S S S E   S S S S
||------------------------|--------------------------|
||o-----------------------|--------------------------|
||--6-6-6-6-6-6s5-5-5-5-5-|-/5---5-5-5-5-4---4-4-4-4-|
||--5-5-5-5-5-5s4-4-4-4-4-|-/4---4-4-4-4-------------|
||o-4-4-4-4-4-4s3-3-3-3-3-|-/3---3-3-3-3-2---2-2-2-2-|
||------------------------|--------------------------|
|
|   E S S S S S S S S S S    S S S S S S S S S S S S
||------------------------|--------------------------|
||o-5-5-5-5-5-5s4-4-4-4-4-|--4-4-4-4-4-4-3-3-3-3-3-3-|
||--6-6-6-6-6-6s5-5-5-5-5-|--5-5-5-5-5-5-4-4-4-4-4-4-|
||--5-5-5-5-5-5s4-4-4-4-4-|--4-4-4-4-4-4-4-4-4-4-4-4-|
||o-----------------------|--------------------------|
||------------------------|--------------------------|


                      1.,2.,3.
     (D#) (D)          (A(B)
   Q    E  Q     E     Q    E    E        +E   +S      +S   4x
|--------------------|--------------------------------------||
|-12-----------------|-----10---10b12====(10)r(10)b12r(10)-o||
|-------9-12-----9---|-8------------------------------------||
|--------------------|--------------------------------------||
|--------------------|-------------------------------------o||
|--------------------|--------------------------------------||
|
|                           PM|
|  E  E E  E S S S S   E E  S S  S     S   E    E           4x
|--------------------|--------------------------------------||
|--------------------|-------------------------------------o||
|----/8-8--7-7-7-x---|-3-4----------------------------------||
|--------------------|--------------------------------------||
|----/6-6--5-5-5-x---|-1-2---------------------------------o||
|--------------------|------0-0--2h====3---0----0-----------||
|
|                           PM|
|  E  E E  E S S S S   E E  S S  S     S   E    E           4x
|--------------------|--------------------------------------||
|--------------------|-------------------------------------o||
|----/8-8--7-7-7-x-x-|-3-4----------------------------------||
|--------------------|--------------------------------------||
|----/6-6--5-5-5-x-x-|-1-2---------------------------------o||
|--------------------|------0-0--2h====3---0----0-----------||


 4.
  (A(B)
  Q    E    Q          +E
|--------------------------|
|-----10---10b12======(10)-|
|-8------------------------|
|--------------------------|
|--------------------------|
|--------------------------|
|
|      PM|
| E E  S S  S     S E   E
|--------------------------|
|--------------------------|
|-3-4----------------------|
|--------------------------|
|-1-2----------------------|
|------0-0--2h====3-0---0--|
|
|      PM|
| E E  S S  S     S E   E
|--------------------------|
|--------------------------|
|-3-4----------------------|
|--------------------------|
|-1-2----------------------|
|------0-0--2h====3-0---0--|


 Guitar Solo
  Bm                                 Asus4
   +Q.          +Q.                   W
|----------------------------------|---------------------------------------|
|-(10)---------(10)r---------------|---------------------------------------|
|----------------------------------|---------------------------------------|
|----------------------------------|---------------------------------------|
|----------------------------------|---------------------------------------|
|----------------------------------|---------------------------------------|
|
|   Q      E     S   S  S  S  S  S    S      +S   +S   S S  S S S S S  S S
|--------------------7-/9-10-12-10-|-12b13==(12)r(12)-10-9h10p9-7h9p7----7-|
|----------------------------------|----------------------------------10---|
|----------------------------------|---------------------------------------|
|----------------------------------|---------------------------------------|
|----------------------------------|---------------------------------------|
|----------------------------------|---------------------------------------|
|
|   E  S S S S   E      S  S  S  S    E            S   S S  S E   S S  S S
|---2--2-2-2-2---2------2--2--2--2-|--0------------0---0-0--0-0---0-0--0-0-|
|---3--3-3-3-3---3------3--3--3--3-|--3------------3---3-3--3-3---3-3--3-3-|
|---4--4-4-4-4---4------4--4--4--4-|--2------------2---2-2--2-2---2-2--2-2-|
|---4--4-4-4-4---4------4--4--4--4-|--2------------2---2-2--2-2---2-2--2-2-|
|---2--2-2-2-2---2------2--2--2--2-|--0------------0---0-0--0-0---0-0--0-0-|
|----------------------------------|---------------------------------------|


  G                              D           Em
  Gtr I
   S T T S S S S S S S T T S S   S S S S S S S S S S S S
|------------------------------|-------------------------|
|-10-7-------------------------|-------------------7-5---|
|------9-7s6h7p6---------------|-------------4-6-7-----6-|
|----------------7h9p7---------|-----------4-------------|
|----------------------9-7S5p4-|-5-4---4-5---------------|
|------------------------------|-----7-------------------|
|
| Gtr II
|  E     S S S S E   S S   S S   S S S S S S S S S S S S
|--3-----3-3-3-3-3---3-3---3-3-|-------------------------|
|--3-----3-3-3-3-3---3-3---3-3-|-7-7-7-7-x-x-8-8-8-8-x-x-|
|--4-----4-4-4-4-4---4-4---4-4-|-7-7-7-7-x-x-9-9-9-9-x-x-|
|--5-----5-5-5-5-5---5-5---5-5-|-7-7-7-7-x-x-9-9-9-9-x-x-|
|--5-----5-5-5-5-5---5-5---5-5-|-5-5-5-5-x-x-7-7-7-7-x-x-|
|--3-----3-3-3-3-3---3-3---3-3-|-------------------------|


  Bm                     Asus4
  ~~~~~~~~~~~~~
                          |-3-|
  Q.         Q     E      S S S S S S E.   E   E
|----------------------|---------------------------|
|----------------------|---------------------------|
|-7----------6-----4---|-/6h7p6---6--------7---9---|
|----------------------|--------9---7h9------------|
|----------------------|---------------------------|
|----------------------|---------------------------|
|
| E  S S S S E S S S S    E     S S S S  E S S S S
|-2--2-2-2-2-2-2-2-2-2-|--0-----0-0-0-0--0-0-0-0-0-|
|-3--3-3-3-3-3-3-3-3-3-|--3-----3-3-3-3--3-3-3-3-3-|
|-4--4-4-4-4-4-4-4-4-4-|--2-----2-2-2-2--2-2-2-2-2-|
|-4--4-4-4-4-4-4-4-4-4-|--2-----2-2-2-2--2-2-2-2-2-|
|-2--2-2-2-2-2-2-2-2-2-|--0-----0-0-0-0--0-0-0-0-0-|
|----------------------|---------------------------|


  G                                               G    Gb5
                                         ~~~~~~~~~~~~
  Q          E     E     +E    +S  +S    Q.       Q.
|-----------10-------------------------|-------------------|
|--------------------------------------|-------------------|
|-9b11======(9)r---9b11==(9)---(9)r(9)-|-9--------7--------|
|--------------------------------------|-------------------|
|--------------------------------------|-------------------|
|--------------------------------------|-------------------|
|
| E     S S  S   S E      S  S  S   S    E  S E S E  S E S
|-3-----3-3--3---3-3------3--3--3---3--|-------------------|
|-3-----3-3--3---3-3------3--3--3---3--|-------------------|
|-4-----4-4--4---4-4------4--4--4---4--|-------------------|
|-5-----5-5--5---5-5------5--5--5---5--|-------------------|
|-5-----5-5--5---5-5------5--5--5---5--|----------2--x-4-x-|
|-3-----3-3--3---3-3------3--3--3---3--|-5--x-2-x-3--x-3-x-|


  Bm                         Asus4
  Gtr III
                              ~~
  Q      E     E  E    E      H            E    E
|------------/14------14---|-12----------------12---|
|----------------15--------|--------------15--------|
|--------------------------|------------------------|
|--------------------------|------------------------|
|--------------------------|------------------------|
|--------------------------|------------------------|
|
| Gtr I
| ~~                          ~~
| Q.           E  E    E      H            E    E
|--------------------------|------------------------|
|------------/15-12---15---|-14-----------12---14---|
|-6------------------------|------------------------|
|--------------------------|------------------------|
|--------------------------|------------------------|
|--------------------------|------------------------|
|
| Gtr II
| E  S S S S   E  S S  S S    E S S S S E  S S  S S
|-2--2-2-2-2---2--2-2--2-2-|--0-0-0-0-0-0--0-0--0-0-|
|-3--3-3-3-3---3--3-3--3-3-|--3-3-3-3-3-3--3-3--3-3-|
|-4--4-4-4-4---4--4-4--4-4-|--2-2-2-2-2-2--2-2--2-2-|
|-4--4-4-4-4---4--4-4--4-4-|--2-2-2-2-2-2--2-2--2-2-|
|-2--2-2-2-2---2--2-2--2-2-|--0-0-0-0-0-0--0-0--0-0-|
|--------------------------|------------------------|


  G                        D              Em
           ~~                              ~~~
   E  E    H                 Q.            Q.
|-12h14------------------|-/14------------12------------|
|---------15-------------|------------------------------|
|------------------------|------------------------------|
|------------------------|------------------------------|
|------------------------|------------------------------|
|------------------------|------------------------------|
|
|          ~~                              ~~~
|  E  E    H                 Q.            Q.
|------------------------|------------------------------|
|-14h15---12-------------|-/15------------14------------|
|------------------------|------------------------------|
|------------------------|------------------------------|
|------------------------|------------------------------|
|------------------------|------------------------------|
|
|  E  S S  S S E S S S S     S  S S S S S  S  S S S S S
|--3--3-3--3-3-3-3-3-3-3-|------------------------------|
|--3--3-3--3-3-3-3-3-3-3-|---7--7-7-7-x-x--8--8-8-8-x-x-|
|--4--4-4--4-4-4-4-4-4-4-|---7--7-7-7-x-x--9--9-9-9-x-x-|
|--5--5-5--5-5-5-5-5-5-5-|---7--7-7-7-x-x--9--9-9-9-x-x-|
|--5--5-5--5-5-5-5-5-5-5-|---5--5-5-5-x-x--7--7-7-7-x-x-|
|--3--3-3--3-3-3-3-3-3-3-|------------------------------|


  Bm                          Asus4
   ~~~                         ~~
   Q.           E  E    E      H            E    E
|-------------/14------14---|-12----------------12---|
|-15--------------15--------|--------------15--------|
|---------------------------|------------------------|
|---------------------------|------------------------|
|---------------------------|------------------------|
|---------------------------|------------------------|
|
|  ~~~                         ~~
|  Q.           E  E    E      H            E    E
|---------------------------|------------------------|
|-12----------/15-12---15---|-14-----------12---14---|
|---------------------------|------------------------|
|---------------------------|------------------------|
|---------------------------|------------------------|
|---------------------------|------------------------|
|
|  E  S S S S   E  S S  S S    E S S S S E  S S  S S
|--2--2-2-2-2---2--2-2--2-2-|--0-0-0-0-0-0--0-0--0-0-|
|--3--3-3-3-3---3--3-3--3-3-|--3-3-3-3-3-3--3-3--3-3-|
|--4--4-4-4-4---4--4-4--4-4-|--2-2-2-2-2-2--2-2--2-2-|
|--4--4-4-4-4---4--4-4--4-4-|--2-2-2-2-2-2--2-2--2-2-|
|--2--2-2-2-2---2--2-2--2-2-|--0-0-0-0-0-0--0-0--0-0-|
|---------------------------|------------------------|


  G                                   G    Gb5
                                               \0.5____|
           ~~
   E  E    H                 Q.        Q      +S      +S
|-12h14------------------|--------------------------------|
|---------15-------------|-/15--------12-----(12)----(12)-|
|------------------------|--------------------------------|
|------------------------|--------------------------------|
|------------------------|--------------------------------|
|------------------------|--------------------------------|
|
|                                              \0.5____|
|          ~~
|  E  E    H                 Q.        Q      +S      +S
|------------------------|--------------------------------|
|-14h15---12-------------|-/10----------------------------|
|------------------------|------------11-----(11)----(11)-|
|------------------------|--------------------------------|
|------------------------|--------------------------------|
|------------------------|--------------------------------|
|
|  E  S S  S S E S S S S     E  S E S  E S E           S
|--3--3-3--3-3-3-3-3-3-3-|--------------------------------|
|--3--3-3--3-3-3-3-3-3-3-|--------------------------------|
|--4--4-4--4-4-4-4-4-4-4-|--------------------------------|
|--5--5-5--5-5-5-5-5-5-5-|--------------------------------|
|--5--5-5--5-5-5-5-5-5-5-|-------------2-x-4-----------x--|
|--3--3-3--3-3-3-3-3-3-3-|---5--x-2-x--3-x-3-----------x--|


 Bridge #3
  Bm                       Asus4
   +H.                      +H.
|------------------------|------------------------|
|-(12)-------------------|-(12)-------------------|
|------------------------|------------------------|
|------------------------|------------------------|
|------------------------|------------------------|
|------------------------|------------------------|
|
|  +H.                      +H.
|------------------------|------------------------|
|------------------------|------------------------|
|-(11)-------------------|-(11)-------------------|
|------------------------|------------------------|
|------------------------|------------------------|
|------------------------|------------------------|
|
|   E  S S S S E S S S S     E  S S S S E S S S S
|---2--2-2-2-2-2-2-2-2-2-|---0--0-0-0-0-0-0-0-0-0-|
|---3--3-3-3-3-3-3-3-3-3-|---3--3-3-3-3-3-3-3-3-3-|
|---4--4-4-4-4-4-4-4-4-4-|---2--2-2-2-2-2-2-2-2-2-|
|---4--4-4-4-4-4-4-4-4-4-|---2--2-2-2-2-2-2-2-2-2-|
|---2--2-2-2-2-2-2-2-2-2-|---0--0-0-0-0-0-0-0-0-0-|
|------------------------|------------------------|


  G                        D              Em
                             >
   +H.                      +H.
|------------------------|----------------------------|
|-(12)-------------------|-(12)-----------------------|
|------------------------|----------------------------|
|------------------------|----------------------------|
|------------------------|----------------------------|
|------------------------|----------------------------|
|
|                            >
|  +H.                      +H.
|------------------------|----------------------------|
|------------------------|----------------------------|
|-(11)-------------------|-(11)-----------------------|
|------------------------|----------------------------|
|------------------------|----------------------------|
|------------------------|----------------------------|
|
|   E  S S S S E S S S S     S  S S S S S S S S S S S
|---3--3-3-3-3-3-3-3-3-3-|----------------------------|
|---3--3-3-3-3-3-3-3-3-3-|---7--7-7-7-x-x-8-8-8-8-x-x-|
|---4--4-4-4-4-4-4-4-4-4-|---7--7-7-7-x-x-9-9-9-9-x-x-|
|---5--5-5-5-5-5-5-5-5-5-|---7--7-7-7-x-x-9-9-9-9-x-x-|
|---5--5-5-5-5-5-5-5-5-5-|---5--5-5-5-x-x-7-7-7-7-x-x-|
|---3--3-3-3-3-3-3-3-3-3-|----------------------------|


  Bm                    Asus4
  W                     W
|---------------------|---------------------|
|---------------------|---------------------|
|---------------------|---------------------|
|---------------------|---------------------|
|---------------------|---------------------|
|---------------------|---------------------|
|
| W                     W
|---------------------|---------------------|
|---------------------|---------------------|
|---------------------|---------------------|
|---------------------|---------------------|
|---------------------|---------------------|
|---------------------|---------------------|
|
| E S S S S E S S S S   E S S S S E S S S S
|-2-2-2-2-2-2-2-2-2-2-|-0-0-0-0-0-0-0-0-0-0-|
|-3-3-3-3-3-3-3-3-3-3-|-3-3-3-3-3-3-3-3-3-3-|
|-4-4-4-4-4-4-4-4-4-4-|-2-2-2-2-2-2-2-2-2-2-|
|-4-4-4-4-4-4-4-4-4-4-|-2-2-2-2-2-2-2-2-2-2-|
|-2-2-2-2-2-2-2-2-2-2-|-0-0-0-0-0-0-0-0-0-0-|
|---------------------|---------------------|


  F                     Fm
  W                     W
|---------------------|---------------------|
|---------------------|---------------------|
|---------------------|---------------------|
|---------------------|---------------------|
|---------------------|---------------------|
|---------------------|---------------------|
|
| W                     W
|---------------------|---------------------|
|---------------------|---------------------|
|---------------------|---------------------|
|---------------------|---------------------|
|---------------------|---------------------|
|---------------------|---------------------|
|
| E S S S S E S S S S   E S S S S E S S S S
|-1-1-1-1-1-1-1-1-1-1-|-4-4-4-4-4-4-4-4-4-4-|
|-1-1-1-1-1-1-1-1-1-1-|-1-1-1-1-1-1-1-1-1-1-|
|-2-2-2-2-2-2-2-2-2-2-|-1-1-1-1-1-1-1-1-1-1-|
|-3-3-3-3-3-3-3-3-3-3-|-3-3-3-3-3-3-3-3-3-3-|
|-3-3-3-3-3-3-3-3-3-3-|-3-3-3-3-3-3-3-3-3-3-|
|-1-1-1-1-1-1-1-1-1-1-|-1-1-1-1-1-1-1-1-1-1-|


  Am          Asus2       Esus4
  W                        W
|-----------------------|---------------------------------------------|
|-----------------------|---------------------------------------------|
|-----------------------|---------------------------------------------|
|-----------------------|---------------------------------------------|
|-----------------------|---------------------------------------------|
|-----------------------|---------------------------------------------|
|
| W                        W
|-----------------------|---------------------------------------------|
|-----------------------|---------------------------------------------|
|-----------------------|---------------------------------------------|
|-----------------------|---------------------------------------------|
|-----------------------|---------------------------------------------|
|-----------------------|---------------------------------------------|
|
| E S S S S S S S S S S    E   S   S   S   S   S   S   S   S   S   S
|-----------------------|---------------------------------------------|
|-1-1-1-1-1-1p0-0-0-0-0-|--0---0---0---0---0---0---0---0---0---0---0--|
|-2-2-2-2-2-2-2-2-2-2-2-|--2---2---2---2---2---2---2---2---2---2---2--|
|-2-2-2-2-2-2-2-2-2-2-2-|--2---2---2---2---2---2---2---2---2---2---2--|
|-0-0-0-0-0-0-0-0-0-0-0-|-(0)-(0)-(0)-(0)-(0)-(0)-(0)-(0)-(0)-(0)-(0)-|
|-----------------------|---------------------------------------------|


 Interlude #1 - Pt. I
  A5
  Gtr II
   H.               +H.                 +H.
   |                 |                   |
   /                 /                   /

  Gtr I
   Q.      Q.        Q.       Q.         H.
|-----------------|------------------|----------------------------|
|---------15------|-17------\12------|-\10------------------------|
|-17--------------|------------------|----------------------------|
|-----------------|------------------|----------------------------|
|-----------------|------------------|----------------------------|
|-----------------|------------------|----------------------------|
|
| Gtr III
|  Q.      Q.        Q.       Q.         H.
|-----------------|------------------|----------------------------|
|-----------------|------------------|----------------------------|
|-14------16------|-17------\12------|--\9------------------------|
|-----------------|------------------|----------------------------|
|-----------------|------------------|----------------------------|
|-----------------|------------------|----------------------------|
|
| Gtr IV
|  E  E E  E  E E    E  E E   E  E E     S  S S S S S S S S S S S
|-----------------|------------------|----------5-----------5-----|
|-----------------|------------------|--------5---5-------5---5---|
|-------2-------2-|-------2--------2-|------5-------5---5-------5-|
|-----2-------2---|-----2--------2---|---7------------6-----------|
|--0-------2------|--3--------5------|----------------------------|
|-----------------|------------------|----------------------------|


   +H.                         +H.               +H.
    |                           |                 |
    /                           /                 /

   +H.                          Q.      Q.        Q.      Q.
|----------------------------|---------10------|-12------15----------|
|-(10)-----------------------|-13--------------|---------------------|
|----------------------------|-----------------|---------------------|
|----------------------------|-----------------|---------------------|
|----------------------------|-----------------|---------------------|
|----------------------------|-----------------|---------------------|
|
|  +H.                          Q.      Q.        Q.      Q     +E
|----------------------------|-----------------|---------------------|
|----------------------------|-10------12------|-13------------------|
|--(9)-----------------------|-----------------|---------12----(12)\-|
|----------------------------|-----------------|---------------------|
|----------------------------|-----------------|---------------------|
|----------------------------|-----------------|---------------------|
|
|   S  S S S S S S S S S S S    E  E E  E  E E    E  E E  E  E   E
|----------5-----------5-----|-----------------|---------------------|
|--------5---5-------5---5---|-----------------|---------------------|
|------5-------5---5-------5-|-------2-------2-|-------2---------2---|
|---5------------4-----------|-----2-------2---|-----2-------2-------|
|----------------------------|--0-------2------|--3-------5----------|
|----------------------------|-----------------|---------------------|


  +H.                               +H.
   |                                 |
   /                                 /

   Q         +E     Q.              +H.
|--------------------------------|----------------------------|
|-13--------(13)s==17------------|-(17)-----------------------|
|--------------------------------|----------------------------|
|--------------------------------|----------------------------|
|--------------------------------|----------------------------|
|--------------------------------|----------------------------|
|
|  Q         +E     Q.              +H.
|--------------------------------|----------------------------|
|--------------------------------|----------------------------|
|--9---------(9)s==14------------|-(14)-----------------------|
|--------------------------------|----------------------------|
|--------------------------------|----------------------------|
|--------------------------------|----------------------------|
|
|  S  S S S   S  S  S  S S S S S     S  S S S S S S S S S S S
|---------5----------------5-----|----------5-----------5-----|
|-------5-----5----------5---5---|--------5---5-------5---5---|
|-----5----------5-----5-------5-|------5-------5---5-------5-|
|--7----------------6------------|---5------------4-----------|
|--------------------------------|----------------------------|
|--------------------------------|----------------------------|


  N.C.(A)
   Q.      Q.        Q.       Q.         H.
|-----------------|------------------|----------------------------|
|---------15------|-17------\12------|-\10------------------------|
|-17--------------|------------------|----------------------------|
|-----------------|------------------|----------------------------|
|-----------------|------------------|----------------------------|
|-----------------|------------------|----------------------------|
|
|  Q.      Q.        Q.       Q.         H.
|-----------------|------------------|----------------------------|
|-----------------|------------------|----------------------------|
|-14------16------|-17------\12------|--\9------------------------|
|-----------------|------------------|----------------------------|
|-----------------|------------------|----------------------------|
|-----------------|------------------|----------------------------|
|
|  E  E E  E  E E    E  E E   E  E E     S  S S S S S S S S S S S
|-----------------|------------------|----------5-----------5-----|
|-----------------|------------------|--------5---5-------5---5---|
|-------2-------2-|-------2--------2-|------5-------5---5-------5-|
|-----2-------2---|-----2--------2---|---7------------6-----------|
|--0-------2------|--3--------5------|----------------------------|
|-----------------|------------------|----------------------------|


   +H.                          Q.      Q.        Q.      Q.
|----------------------------|---------10------|-12------15----------|
|-(10)-----------------------|-13--------------|---------------------|
|----------------------------|-----------------|---------------------|
|----------------------------|-----------------|---------------------|
|----------------------------|-----------------|---------------------|
|----------------------------|-----------------|---------------------|
|
|  +H.                          Q.      Q.        Q.      Q     +E
|----------------------------|-----------------|---------------------|
|----------------------------|-10------12------|-13------------------|
|--(9)-----------------------|-----------------|---------12----(12)\-|
|----------------------------|-----------------|---------------------|
|----------------------------|-----------------|---------------------|
|----------------------------|-----------------|---------------------|
|
|   S  S S S S S S S S S S S    E  E E  E  E E    E  E E  E  E   E
|----------5-----------5-----|-----------------|---------------------|
|--------5---5-------5---5---|-----------------|---------------------|
|------5-------5---5-------5-|-------2-------2-|-------2---------2---|
|---5------------4-----------|-----2-------2---|-----2-------2-------|
|----------------------------|--0-------2------|--3-------5----------|
|----------------------------|-----------------|---------------------|


   Q        +E     Q.              +H.
|-------------------------------|----------------------------|
|-13-------(13)s==17------------|-(17)-----------------------|
|-------------------------------|----------------------------|
|-------------------------------|----------------------------|
|-------------------------------|----------------------------|
|-------------------------------|----------------------------|
|
|  Q        +E     Q.              +H.
|-------------------------------|----------------------------|
|-------------------------------|----------------------------|
|--9--------(9)s==14------------|-(14)-----------------------|
|-------------------------------|----------------------------|
|-------------------------------|----------------------------|
|-------------------------------|----------------------------|
|
|  S S S S   S  S  S  S S S S S     S  S S S S S S S S S S S
|--------5----------------5-----|----------5-----------5-----|
|------5-----5----------5---5---|--------5---5-------5---5---|
|----5----------5-----5-------5-|------5-------5---5-------5-|
|--7---------------6------------|---5------------4-----------|
|-------------------------------|----------------------------|
|-------------------------------|----------------------------|


    N.C.(A)
     Q.      Q.        Q.      Q.
||------------------|-----------------|
||o---------12------|-13------15------|
||--14--------------|-----------------|
||------------------|-----------------|
||o-----------------|-----------------|
||------------------|-----------------|
|
|    Q.      Q.        Q.      Q.
||------------------|-----------------|
||o---------12------|-13------15------|
||--14--------------|-----------------|
||------------------|-----------------|
||o-----------------|-----------------|
||------------------|-----------------|
|
|    E  E E  E  E E    E  E E  E  E E
||------------------|-----------------|
||o-----------------|-----------------|
||--------2-------2-|-------2-------2-|
||------2-------2---|-----2-------2---|
||o--0-------2------|--3-------5------|
||------------------|-----------------|


   Q        +E     Q.              +H.
|-------------------------------|------------------------------||
|-17-------(17)s==12------------|-(12)------------------------o||
|-------------------------------|------------------------------||
|-------------------------------|------------------------------||
|-------------------------------|-----------------------------o||
|-------------------------------|------------------------------||
|
|  Q        +E     Q.              +H.
|-------------------------------|------------------------------||
|-17-------(17)s==12------------|-(12)------------------------o||
|-------------------------------|------------------------------||
|-------------------------------|------------------------------||
|-------------------------------|-----------------------------o||
|-------------------------------|------------------------------||
|
|  S S S S   S  S  S  S S S S S     S  S S S S S S S S S S S
|--------5----------------5-----|----------5-----------5-------||
|------5-----5----------5---5---|--------5---5-------5---5----o||
|----5----------5-----5-------5-|------5-------5---5-------5---||
|--7---------------6------------|---5------------4-------------||
|-------------------------------|-----------------------------o||
|-------------------------------|------------------------------||


 Interlude #1 - Pt. II
  N.C.(G)
   Q.            Q.              Q        +E     Q.
|-15------------13------------|-------------------------------|
|-----------------------------|-15-------(15)S==11------------|
|-----------------------------|-------------------------------|
|-----------------------------|-------------------------------|
|-----------------------------|-------------------------------|
|-----------------------------|-------------------------------|
|
|  Q.            Q.              Q        +E     Q.
|-----------------------------|-------------------------------|
|-----------------------------|-------------------------------|
|-12------------10------------|-------------------------------|
|-----------------------------|-12-------(12)S===8------------|
|-----------------------------|-------------------------------|
|-----------------------------|-------------------------------|
|
|  S  S S S S S  S  S S S S S    S S S S   S  S  S  S S S S S
|---------3-------------3-----|--------3----------------3-----|
|-------3---3---------3---3---|------3-----3----------3---3---|
|-----3-------3-----3-------3-|----3----------3-----3-------3-|
|--5-------------4------------|--3---------------2------------|
|-----------------------------|-------------------------------|
|-----------------------------|-------------------------------|


                                                D Dsus4
   Q        +E     Q        +E       H.
|---------------------------------|-----------------------|
|-13-------(13)S==15-------(15)S==|=10--------------------|
|---------------------------------|-----------------------|
|---------------------------------|-----------------------|
|---------------------------------|-----------------------|
|---------------------------------|-----------------------|
|
|  Q        +E     Q        +E       H.
|---------------------------------|-----------------------|
|---------------------------------|-----------------------|
|---------------------------------|-----------------------|
|-10-------(10)S==12-------(12)S==|==7--------------------|
|---------------------------------|-----------------------|
|---------------------------------|-----------------------|
|
|  S S S S   S  S  S S S S   S  S    S  S S E S S S S E S
|--------3---------------3--------|---------2---2h3-3-3-x-|
|------3-----3---------3-----3----|-------3---3-3-3-3-3-x-|
|----3----------3----3----------3-|-----2-----------------|
|--1------------------------------|--0--------------------|
|------------------3--------------|-----------------------|
|---------------------------------|-----------------------|


  N.C.(G)
    Q.            Q.              Q        +E     Q.
|-/15------------13------------|-------------------------------|
|------------------------------|-15-------(15)S==11------------|
|------------------------------|-------------------------------|
|------------------------------|-------------------------------|
|------------------------------|-------------------------------|
|------------------------------|-------------------------------|
|
|   Q.            Q.              Q        +E     Q.
|------------------------------|-------------------------------|
|------------------------------|-------------------------------|
|-/12------------10------------|-------------------------------|
|------------------------------|-12-------(12)S===8------------|
|------------------------------|-------------------------------|
|------------------------------|-------------------------------|
|
|   S  S S S S S  S  S S S S S    S S S S   S  S  S  S S S S S
|----------3-------------3-----|--------3----------------3-----|
|--------3---3---------3---3---|------3-----3----------3---3---|
|------3-------3-----3-------3-|----3----------3-----3-------3-|
|---5-------------4------------|--3---------------2------------|
|------------------------------|-------------------------------|
|------------------------------|-------------------------------|


                                               D Dsus4
   Q.            Q.              a  H.
|-----------------------------|--------------------------|
|-13------------11------------|-13s15--------------------|
|-----------------------------|--------------------------|
|-----------------------------|--------------------------|
|-----------------------------|--------------------------|
|-----------------------------|--------------------------|
|
|  Q.            Q.              a  H.
|-----------------------------|--------------------------|
|-----------------------------|--------------------------|
|-----------------------------|--------------------------|
|-10-------------8------------|-10s12--------------------|
|-----------------------------|--------------------------|
|-----------------------------|--------------------------|
|
|  S  S S S S S  S  S S S S S       S  S S E S S S S E S
|---------3-------------3-----|------------2---2h3-3-3-x-|
|-------3---3---------3---3---|----------3---3-3-3-3-3-x-|
|-----3-------3-----3-------3-|--------2-----------------|
|--1--------------------------|-----0--------------------|
|----------------3------------|--------------------------|
|-----------------------------|--------------------------|


 Pre-Bridge/Bridge #4
  Em                                  Em
  Gtr V
   W                                    E   S  S S S  E       S   E       S
|-----------------------------------|----------------------------------------|
|-----------------------------------|----------------------------------------|
|-----------------------------------|------12-11-9---------------------------|
|-----------------------------------|--------------9s=7-------------------7h=|
|-----------------------------------|-------------------------7h=10----------|
|-----------------------------------|----------------------------------------|
|
| Gtrs I, III
|  H.                                  +H.
|-----------------------------------|----------------------------------------|
|-12--------------------------------|-(12)-----------------------------------|
|-----------------------------------|----------------------------------------|
|--9--------------------------------|--(9)-----------------------------------|
|-----------------------------------|----------------------------------------|
|-----------------------------------|----------------------------------------|
|
|  E  S E S  S   S   S   S   S   S      E   S  S S S  S   S   S   S   S   S
|--0--0-0-0-(0)-(0)-(0)-(0)-(0)-(0)-|---0---0--0-0-0-(0)-(0)-(0)-(0)-(0)-(0)-|
|--0--0-0-0-(0)-(0)-(0)-(0)-(0)-(0)-|---0---0--0-0-0-(0)-(0)-(0)-(0)-(0)-(0)-|
|--0--0-0-0-(0)-(0)-(0)--0--(0)-(0)-|---0---0--0-0-0-(0)-(0)-(0)--0--(0)-(0)-|
|--2--2-2-2-(2)-(2)--2--(2)--2---2--|---2---2--2-2-2-(2)-(2)--2--(2)--2---2--|
|--2--2-2-2--0h==2--(2)-(2)-(2)-(2)-|---2---2--2-2-2--0h==2--(2)-(2)-(2)-(2)-|
|--0--0-0-0-(0)-(0)-(0)-(0)-(0)-(0)-|---0---0--0-0-0-(0)-(0)-(0)-(0)-(0)-(0)-|


  Em
    ~~~~
    H.
|------------------------------------|
|------------------------------------|
|------------------------------------|
|---9--------------------------------|
|------------------------------------|
|------------------------------------|
|
|  +H.
|------------------------------------|
|-(12)-------------------------------|
|------------------------------------|
|--(9)-------------------------------|
|------------------------------------|
|------------------------------------|
|
|   E  S E S  S   S   S   S   S   S
|---0--0-0-0-(0)-(0)-(0)-(0)-(0)-(0)-|
|---0--0-0-0-(0)-(0)-(0)-(0)-(0)-(0)-|
|---0--0-0-0-(0)-(0)-(0)--0--(0)-(0)-|
|---2--2-2-2-(2)-(2)--2--(2)--2---2--|
|---2--2-2-2--0h==2--(2)-(2)-(2)-(2)-|
|---0--0-0-0-(0)-(0)-(0)-(0)-(0)-(0)-|


  Em
    E    S S  S  S  S   S   S      +S   +S   S
|-----------------------------------------------|
|------------------10------10b11==(10)r(10)-----|
|----------9h11h12-----12-------------------12--|
|--------9--------------------------------------|
|-----------------------------------------------|
|-----------------------------------------------|
|
|  +H.
|-----------------------------------------------|
|-(12)------------------------------------------|
|-----------------------------------------------|
|--(9)------------------------------------------|
|-----------------------------------------------|
|-----------------------------------------------|
|
|   S  S S E     S  S   S   S       S    S   S
|---0--0-0-0-----0-(0)-(0)-(0)-----(0)--(0)-(0)-|
|---0--0-0-0-----0-(0)-(0)-(0)-----(0)--(0)-(0)-|
|---0--0-0-0-----0-(0)-(0)-(0)------0---(0)-(0)-|
|---2--2-2-2-----2-(2)-(2)--2------(2)---2---2--|
|---2--2-2-2-----2--0h==2--(2)-----(2)--(2)-(2)-|
|---0--0-0-0-----0-(0)-(0)-(0)-----(0)--(0)-(0)-|


  Em                         D         Dsus4   Cmaj7       D         Dsus4
                      >
              ~~~~~~~~~~~
    |--3---|
    S   S  S  E      +H                        W
|--------------------------------------------|-----------------------------|
|--------------------------------------------|-----------------------------|
|--11h=12p11--9------(9)---------------------|-----------------------------|
|--------------------------------------------|-----------------------------|
|--------------------------------------------|-----------------------------|
|--------------------------------------------|-----------------------------|
|
|   >
|  +H.                                         W
|--------------------------------------------|-----------------------------|
|-(12)---------------------------------------|-----------------------------|
|--------------------------------------------|-----------------------------|
|--(9)---------------------------------------|-----------------------------|
|--------------------------------------------|-----------------------------|
|--------------------------------------------|-----------------------------|
|
|   E         S   S   S   S  S  S   S  E  S    E S  E   S  S  S   S  E  S
|---0---------0---0---0---0--2--2---2--3--3--|------0---0--2--2---2--3--3--|
|---0---------0---0---0---0--3--3---3--3--3--|-0-0--0---0--3--3---3--3--3--|
|---0---------0---0---0---0--2--x---2--2--2--|-0-0--0---0--2--x---2--2--2--|
|---2---------2---2--(2)-(2)-0-(0)-(0)-0-(0)-|-2-2-(2)-(2)-0-(0)-(0)-0-(0)-|
|---2---------2--(2)-(2)-(2)-----------------|-3-3-(3)-(3)-----------------|
|---0--------(0)-(0)-(0)-(0)-----------------|-----------------------------|


  Em                                  Em
  Gtr IV
  E S S S S  S   S   S   S   S   S    S S S E S  S   S   S   S   S   S
|-0-0-0-0-0-(0)-(0)-(0)-(0)-(0)-(0)-|-0-0-0-0-0-(0)-(0)-(0)-(0)-(0)-(0)-|
|-0-0-0-0-0-(0)-(0)-(0)-(0)-(0)-(0)-|-0-0-0-0-0-(0)-(0)-(0)-(0)-(0)-(0)-|
|-0-0-0-0-0-(0)-(0)-(0)--0--(0)-(0)-|-0-0-0-0-0-(0)-(0)-(0)--0--(0)-(0)-|
|-2-2-2-x-2-(2)-(2)--2--(2)--2---2--|-2-2-2-2-2-(2)-(2)--2--(2)--2---2--|
|-2-2-2-x-2--0h==2--(2)-(2)-(2)-(2)-|-2-2-2-2-2--0h==2--(2)-(2)-(2)-(2)-|
|-0-0-0-x-0-(0)-(0)-(0)-(0)-(0)-(0)-|-0-0-0-0-0-(0)-(0)-(0)-(0)-(0)-(0)-|


  Em                D         Dsus4   Cmaj7       D         Dsus4
  E  S   S   S   S  S  S   S  E  S    E S  E   S  S  S   S  E  S
|-0--0---0---0---0--2--2---2--3--3--|------0---0--2--2---2--3--3--|
|-0--0---0---0---0--3--3---3--3--3--|-0-0--0---0--3--3---3--3--3--|
|-0--0---0---0---0--2--x---2--2--2--|-0-0--0---0--2--x---2--2--2--|
|-2--2---2--(2)-(2)-0-(0)-(0)-0-(0)-|-2-2-(2)-(2)-0-(0)-(0)-0-(0)-|
|-2--2--(2)-(2)-(2)-----------------|-3-3-(3)-(3)-----------------|
|-0-(0)-(0)-(0)-(0)-----------------|-----------------------------|


  Em                                  Em
  E S S S S  S   S   S   S   S   S    S S S E S  S   S   S   S   S   S
|-0-0-0-0-0-(0)-(0)-(0)-(0)-(0)-(0)-|-0-0-0-0-0-(0)-(0)-(0)-(0)-(0)-(0)-|
|-0-0-0-0-0-(0)-(0)-(0)-(0)-(0)-(0)-|-0-0-0-0-0-(0)-(0)-(0)-(0)-(0)-(0)-|
|-0-0-0-0-0-(0)-(0)-(0)--0--(0)-(0)-|-0-0-0-0-0-(0)-(0)-(0)--0--(0)-(0)-|
|-2-2-2-x-2-(2)-(2)--2--(2)--2---2--|-2-2-2-2-2-(2)-(2)--2--(2)--2---2--|
|-2-2-2-x-2--0h==2--(2)-(2)-(2)-(2)-|-2-2-2-2-2--0h==2--(2)-(2)-(2)-(2)-|
|-0-0-0-x-0-(0)-(0)-(0)-(0)-(0)-(0)-|-0-0-0-0-0-(0)-(0)-(0)-(0)-(0)-(0)-|


  G                 D         Dsus4   Asus2         Em
  E  S   S   S   S  S  S   S  E  S    E  S   E   S  S  S  S S S S
|-3--3---3---3---3--2--2---2--3--3--|--------0---0--0--0--0-0-0-0-|
|-0--0---0---0---0--3--3---3--3--3--|-0--0---0---0--0--0--0-0-0-0-|
|-0--0---0---0---0--2--x---2--2--2--|-2--2---2---2--0--0--0-0-0-0-|
|-0--0---0---0---0--0-(0)-(0)-0-(0)-|-2--2--(2)-(2)-2--x--2-2-2-2-|
|-2-(2)-(2)-(2)-(2)-----------------|-0-(0)-(0)-(0)-2--x--2-2-2-2-|
|-3-(3)-(3)-(3)-(3)-----------------|---------------0-(0)-0-0-0-0-|


  G                 D         Dsus4   Asus2             Em
  E  S   S   S   S  S  S   S  E  S    E  S   S   S   S  S  S   S   S   S   S
|-3--3---3---3---3--2--2---2--3--3--|------------0--(0)-0-(0)-(0)-(0)--0--(0)-|
|-0--0---0---0---0--3--3---3--3--3--|-0-(0)-(0)-(0)-(0)-0-(0)-(0)--0--(0)--0--|
|-0--0---0---0---0--2--x---2--2--2--|-2-(2)--2--(2)--2--0--0---0--(0)-(0)-(0)-|
|-0--0---0---0---0--0-(0)-(0)-0-(0)-|-2--2--(2)-(2)-(2)-2--2---2--(2)-(2)-(2)-|
|-2-(2)-(2)-(2)-(2)-----------------|-0-(0)-(0)-(0)-(0)-2--2--(2)-(2)-(2)-(2)-|
|-3-(3)-(3)-(3)-(3)-----------------|-------------------0-(0)-(0)-(0)-(0)-(0)-|


  G           D         Dsus4   Asus2         Em
  E S  E   S  S  S   S  E  S    E  S   E   S  S  S  S S S S
|-3-3--3---3--2--2---2--3--3--|--------0---0--0--0--0-0-0-0-|
|-0-0--0---0--3--3---3--3--3--|-0--0---0---0--0--0--0-0-0-0-|
|-0-0--0---0--2--x---2--2--2--|-2--2---2---2--0--0--0-0-0-0-|
|-0-0--0---0--0-(0)-(0)-0-(0)-|-2--2--(2)-(2)-2--x--2-2-2-2-|
|-2-2-(2)-(2)-----------------|-0-(0)-(0)-(0)-2--x--2-2-2-2-|
|-3-3-(3)-(3)-----------------|---------------0-(0)-0-0-0-0-|


  G                 D         Dsus4   Asus2             Em
  E  S   S   S   S  S  S   S  E  S    E  S   S   S   S  E  S   S   S   S
|-3--3---3---3---3--2--2---2--3--3--|------------0--(0)-0-(0)-(0)-(0)-(0)-|
|-0--0---0---0---0--3--3---3--3--3--|-0-(0)-(0)-(0)-(0)-0-(0)-(0)-(0)-(0)-|
|-0--0---0---0---0--2--x---2--2--2--|-2--2---2--(2)--2--0-(0)--0--(0)-(0)-|
|-0--0---0---0---0--0-(0)-(0)-0-(0)-|-2--2--(2)-(2)-(2)-2--2--(2)--2--(2)-|
|-2-(2)-(2)-(2)-(2)-----------------|-0-(0)-(0)-(0)-(0)-2--2--(2)-(2)--2--|
|-3-(3)-(3)-(3)-(3)-----------------|-------------------0-(0)-(0)-(0)-(0)-|


    Em                D         Dsus4   Cmaj7       D         Dsus4
    E  S   S   S   S  S  S   S  E  S    E S  E   S  S  S   S  E  S
||--0--0---0---0---0--2--2---2--3--3--|------0---0--2--2---2--3--3--|
||o-0--0---0---0---0--3--3---3--3--3--|-0-0--0---0--3--3---3--3--3--|
||--0--0---0---0---0--2--x---2--2--2--|-0-0--0---0--2--x---2--2--2--|
||--2--2---2--(2)-(2)-0-(0)-(0)-0-(0)-|-2-2-(2)-(2)-0-(0)-(0)-0-(0)-|
||o-2--2--(2)-(2)-(2)-----------------|-3-3-(3)-(3)-----------------|
||--0-(0)-(0)-(0)-(0)-----------------|-----------------------------|


  Em                                Em
  E S E S  S   S   S   S   S   S    E S S S S  S   S   S   S   S   S
|-0-0-0-0-(0)-(0)-(0)-(0)-(0)-(0)-|-0-0-0-0-0-(0)-(0)-(0)-(0)-(0)-(0)--||
|-0-0-0-0-(0)-(0)-(0)-(0)-(0)-(0)-|-0-0-0-0-0-(0)-(0)-(0)-(0)-(0)-(0)-o||
|-0-0-0-0-(0)-(0)-(0)--0--(0)-(0)-|-0-0-0-0-0-(0)-(0)-(0)--0--(0)-(0)--||
|-2-2-2-2-(2)-(2)--2--(2)--2---2--|-2-2-2-2-2-(2)-(2)--2--(2)--2---2---||
|-2-2-2-2--0h==2--(2)-(2)-(2)-(2)-|-2-2-2-2-2--0h==2--(2)-(2)-(2)-(2)-o||
|-0-0-0-0-(0)-(0)-(0)-(0)-(0)-(0)-|-0-0-0-0-0-(0)-(0)-(0)-(0)-(0)-(0)--||


    G                 D         Dsus4   Asus2         Em
    E  S   S   S   S  S  S   S  E  S    E  S   E   S  S  S  S S S S
||--3--3---3---3---3--2--2---2--3--3--|--------0---0--0--0--0-0-0-0-|
||o-0--0---0---0---0--3--3---3--3--3--|-0--0---0---0--0--0--0-0-0-0-|
||--0--0---0---0---0--2--x---2--2--2--|-2--2---2---2--0--0--0-0-0-0-|
||--0--0---0---0---0--0-(0)-(0)-0-(0)-|-2--2--(2)-(2)-2--x--2-2-2-2-|
||o-2-(2)-(2)-(2)-(2)-----------------|-0-(0)-(0)-(0)-2--x--2-2-2-2-|
||--3-(3)-(3)-(3)-(3)-----------------|---------------0-(0)-0-0-0-0-|


                                     1.
  G                 D         Dsus4   Asus2             Em
  E  S   S   S   S  S  S   S  E  S    E  S   S   S   S  S  S   S   S   S   S
|-3--3---3---3---3--2--2---2--3--3--|------------0--(0)-0-(0)-(0)-(0)--0--(0)--||
|-0--0---0---0---0--3--3---3--3--3--|-0-(0)-(0)-(0)-(0)-0-(0)-(0)--0--(0)--0--o||
|-0--0---0---0---0--2--x---2--2--2--|-2-(2)--2--(2)--2--0-(0)--0--(0)-(0)-(0)--||
|-0--0---0---0---0--0-(0)-(0)-0-(0)-|-2--2--(2)-(2)-(2)-2--2--(2)-(2)-(2)-(2)--||
|-2-(2)-(2)-(2)-(2)-----------------|-0-(0)-(0)-(0)-(0)-2--2--(2)-(2)-(2)-(2)-o||
|-3-(3)-(3)-(3)-(3)-----------------|-------------------0-(0)-(0)-(0)-(0)-(0)--||


 2.
  Asus2             Em
  E  S   S   S   S  E  S   S   S   S
|------------0--(0)-0-(0)-(0)-(0)-(0)-|
|-0-(0)-(0)-(0)-(0)-0-(0)-(0)-(0)-(0)-|
|-2--2---2--(2)--2--0-(0)--0--(0)-(0)-|
|-2--2--(2)-(2)-(2)-2--2--(2)--2--(2)-|
|-0-(0)-(0)-(0)-(0)-2--2--(2)-(2)--2--|
|-------------------0-(0)-(0)-(0)-(0)-|


 Interlude #2
  N.C.           Dm                        Dm
  Gtrs I, III
   W             E  S E   S E S +S   E      S   E    E    S  E  E    E
|------------||--------------------------|-------------------------------|
|------------||o-------------------------|-------------------------------|
|------------||--7--7-7---7-7-7-(7)s14---|-14s=10---10---10-10-10----9---|
|------------||--------------------------|-------------------------------|
|------------||o-5--5-5---5-5-5-(5)s12---|-12s==8----8----8--8--8----7---|
|------------||--------------------------|-------------------------------|
|
| Gtr II
|  W             H.                        +H                  +E    E
|------------||--------------------------|-------------------------------|
|------------||o-6-----------------------|-(6)-----------------(6)---5---|
|------------||--------------------------|-------------------------------|
|------------||--------------------------|-------------------------------|
|------------||o-------------------------|-------------------------------|
|------------||--------------------------|-------------------------------|
|
| Gtr IV
|  e  E H        E  S S S S E S  S   S S    E     S  S S  S  E  S  S S S
|------------||--5--5-5-5-5-5-5--5---5-5-|--5-----5--5-5--5--5--5--5-5-5-|
|------------||o-6--6-6-6-6-6-6--6---6-6-|--6-----6--6-6--6--6--6--6-6-6-|
|------------||--7--7-7-7-7-7-7--7---7-7-|--7-----7--7-7--7--7--7--7-7-7-|
|------------||--7--7-7-7-7-7-7--7---7-7-|--7-----7--7-7--7--7--7--7-7-7-|
|------------||o-5--5-5-5-5-5-5--5---5-5-|--5-----5--5-5--5--5--5--5-5-5-|
|-(0)--------||--------------------------|-------------------------------|


  Am                       Am                        F
  E  S S S S  E  E   E      S  E   E   S E E   E      E.   E   S E E   E
|------------------------|-------------------------|--1----1---1-1-1---1---|
|------------------------|-------------------------|--1----1---1-1-1---1---|
|--------------------7---|--7s=9---9---9-9-9---9---|--2----2---2-2-2---2---|
|-7--7-7-7-7s10-10-------|-------------------------|--3----3---3-3-3---3---|
|--------------------5---|--5s=7---7---7-7-7---7---|--3----3---3-3-3---3---|
|-5--5-5-5-5s=8--8-------|-------------------------|--1----1---1-1-1---1---|
|
| H.                        H.                        H.
|-5----------------------|-------------------------|-----------------------|
|------------------------|--5----------------------|-/6--------------------|
|-5----------------------|-(5)---------------------|-----------------------|
|------------------------|-------------------------|-----------------------|
|------------------------|-------------------------|-----------------------|
|------------------------|-------------------------|-----------------------|
|
| E  S S S S  E  S S S S    E    S S S S E S S S S    E  S S S S E S S S S
|-5--5-5-5-5--5--5-5-5-5-|--5----5-5-5-5-5-5-5-5-5-|--1--1-1-1-1-1-1-1-1-1-|
|-5--5-5-5-5--5--5-5-5-5-|--5----5-5-5-5-5-5-5-5-5-|--1--1-1-1-1-1-1-1-1-1-|
|-5--5-5-5-5--5--5-5-5-5-|--5----5-5-5-5-5-5-5-5-5-|--2--2-2-2-2-2-2-2-2-2-|
|-7--7-7-7-7--7--7-7-7-7-|--7----7-7-7-7-7-7-7-7-7-|--3--3-3-3-3-3-3-3-3-3-|
|-7--7-7-7-7--7--7-7-7-7-|--7----7-7-7-7-7-7-7-7-7-|--3--3-3-3-3-3-3-3-3-3-|
|-5--5-5-5-5--5--5-5-5-5-|--5----5-5-5-5-5-5-5-5-5-|--1--1-1-1-1-1-1-1-1-1-|


  Bm                     N.C.
                             PM----|     PM----|
  E.   E   S E E   E     S S S S S S S S S S S S
|-2----2---2-2-2---2---|-------------------------|
|-3----3---3-3-3---3---|-------------------------|
|-4----4---4-4-4---4---|-------------------------|
|-4----4---4-4-4---4---|-------------------------|
|-2----2---2-2-2---2---|-5h7---------5h7---------|
|----------------------|-----0-0-0-0-----0-0-0-0-|
|
| H.                     H.
|----------------------|-------------------------|
|----------------------|-8-----------------------|
|-7--------------------|-4-----------------------|
|----------------------|-------------------------|
|----------------------|-------------------------|
|----------------------|-------------------------|
|
| E  S S S S E S S S S   S S S S H
|-2--2-2-2-2-2-2-2-2-2-|-------7-----------------|
|-3--3-3-3-3-3-3-3-3-3-|-----7---8---------------|
|-4--4-4-4-4-4-4-4-4-4-|---7---------------------|
|-4--4-4-4-4-4-4-4-4-4-|-9-----------------------|
|-2--2-2-2-2-2-2-2-2-2-|-------------------------|
|----------------------|-------------------------|


 1.,2.,3.                          4.
                                      Bm    Am
                                    PM
   E    S S S S a  E    S S S S  4x e E E E E E
|--------------------------------||-------------|
|-------------------------------o||---3-3---1-1-|
|--------------------------------||---4-4---2-2-|
|--------------------------------||---4-4---2-2-|
|--2----2-2-0h2-2h=4----4-4-4-4-o||---2-2---0-0-|
|--------------------------------||-0-----------|
|
|  Q.              Q.            4x E E E E E E
|--------------------------------||-------------|
|--7---------------5------------o||---7-7---5-5-|
|-(4)-------------(4)------------||-------------|
|--------------------------------||-------------|
|-------------------------------o||-------------|
|--------------------------------||-------------|
|
|  S  S S S E      S  S S S E    4x E E E E E E
|---------7---------------5------||-------------|
|-------7---7-----------5---5---o||---3-3---1-1-|
|-----7---------------7----------||---4-4---2-2-|
|--9---------------9-------------||---4-4---2-2-|
|-------------------------------o||---2-2---0-0-|
|--------------------------------||-------------|


   Bridge #5 - Pt. I
    N.C.(E)
    Gtr I
           ~~~~~
     E  S  E. E E S S   S S S S S S S S  S S S S
||--------------------|--------------------------|
||o-------------------|--------------------------|
||--------------------|--------------------------|
||--------------------|-----------------/5h7h8p7-|
||o-(2)---------------|-7---5h7p5---5------------|
||---0--0--3--4-0-5h6-|---6-------6---6----------|
|
|   Gtr II
|          ~~~~~
|    E  S  E. E E S S   S S S S S S S S  S S S S
||--------------------|--------------------------|
||o-------------------|--------------------------|
||--------------------|--------------------------|
||--------------------|-----------------/5h7h8p7-|
||o-(2)---------------|-7---5h7p5---5------------|
||---0--0-/7--7-0-5h6-|---6-------6---6----------|


                                               1.,2.,3.            4.
  E5/B                                          Gm                  Gm
   E   S   S   S   S   S   S   S   S   S   S    E E S S E E S S  4x E E E E E E
|---------------------------------------------|-3-3-x-x-3-3-x-x--||-3-3---3-3---|
|---------------------------------------------|-3-3-x-x-3-3-x-x-o||-3-3---3-3---|
|--9---9---9---9---9---9s==8---8---8---x---x--|-3-3-x-x-3-3-x-x--||-3-3---3-3---|
|---------------------------------------------|-5-5-x-x-5-5-x-x--||-5-5---5-5---|
|--7---7---7---7---7---7s==6---6---6---x---x--|-5-5-x-x-5-5-x-x-o||-5-5---5-5---|
|---------------------------------------------|-3-3-x-x-3-3-x-x--||-3-3---3-3---|
|
|  E   S   S   S   S   S   S   S   S   S   S    E E S S E E S S  4x E E E E E E
|---------------------------------------------|-3-3-x-x-3-3-x-x--||-3-3---3-3---|
|---------------------------------------------|-3-3-x-x-3-3-x-x-o||-3-3---3-3---|
|---------------------------------------------|-3-3-x-x-3-3-x-x--||-3-3---3-3---|
|--9---9---9---9---9---9---9---9---9---9---x--|-5-5-x-x-5-5-x-x--||-5-5---5-5---|
|--7---7---7---7---7---7---7---7---7---7---x--|-5-5-x-x-5-5-x-x-o||-5-5---5-5---|
|-(7)-(7)-(7)-(7)-(7)-(7)-(7)-(7)-(7)-(7)-(x)-|-3-3-x-x-3-3-x-x--||-3-3---3-3---|


   Bridge #5 - Pt. II
    N.C.(E)
    Gtrs I, II
     W                  W
||--------------------|----------------------------|
||o-------------------|----------------------------|
||--------------------|----------------------------|
||--------------------|----------------------------|
||o-------------------|----------------------------|
||--------------------|----------------------------|
|
|   Gtr IV
|    E  S E S E E S S   S  S  S S S S S S  S S S S
||--------------------|----------------------------|
||o-------------------|----------------------------|
||--------------------|----------------------------|
||--------------------|-------------------/5h7h8p7-|
||o-(2)---------------|-7-----5h7p5---5------------|
||---0--x-7-x-7-0-5h6-|----x--------6---6----------|
|
|   Gtr V
|    E  S E S E E S S   S  S  S S S S S S  S S S S
||--------------------|----------------------------|
||o-------------------|----------------------------|
||--------------------|----------------------------|
||--------------------|-------------------/5h7h8p7-|
||o-(2)---------------|-7-----5h7p5---5------------|
||---0--x-3-x-4-0-5h6-|---(6)-------6---6----------|


                       1.              2.
  (E)       (D#)        Bb              Bb      Gm
  W                     W               Q   S S E E S S
|---------------------|--------------||-------x-3-3-x-x-|
|---------------------|-------------o||-------x-3-3-x-x-|
|---------------------|--------------||-------x-3-3-x-x-|
|---------------------|--------------||-------x-5-5-x-x-|
|---------------------|-------------o||-------x-5-5-x-x-|
|---------------------|--------------||-------x-3-3-x-x-|
|
| E S E S S S S S S S   E E E E E E     E E E   E E E
|---------------------|--------------||-----------------|
|---------------------|-------------o||-----------------|
|-----9-9-9s8-8-8-x-x-|-7-7---7-7----||-7-7-----7-7-----|
|---------------------|-8-8---8-8----||-8-8-----8-8-----|
|-7-7-7-7-7s6-6-6-x-x-|-------------o||-----------------|
|---------------------|--------------||-----------------|
|
| E S E S S S S E   S   E E E E E E     E E E   E E E
|---------------------|--------------||-----------------|
|---------------------|-------------o||-----------------|
|-----9-9-9s8-8-8---x-|-7-7---7-7----||-7-7-----7-7-----|
|---------------------|-8-8---8-8----||-8-8-----8-8-----|
|-7-7-7-7-7s6-6-6---x-|-------------o||-----------------|
|---------------------|--------------||-----------------|


   Bridge #5 - Pt. III
    N.C.(E)
    Gtr I
           ~~~~~
     E  S  E. E E S S   S S S S S S S S  S S S S
||--------------------|--------------------------|
||o-------------------|--------------------------|
||--------------------|--------------------------|
||--------------------|-----------------/5h7h8p7-|
||o-(2)---------------|-7---5h7p5---5------------|
||---0--0--3--4-0-5h6-|---6-------6---6----------|
|
|   Gtr II
|          ~~~~~
|    E  S  E. E E S S   S S S S S S S S  S S S S
||--------------------|--------------------------|
||o-------------------|--------------------------|
||--------------------|--------------------------|
||--------------------|-----------------/5h7h8p7-|
||o-(2)---------------|-7---5h7p5---5------------|
||---0--0-/7--7-0-5h6-|---6-------6---6----------|


  E5/B
   E   S   S   S   S   S   S   S   S   S   S
|---------------------------------------------|
|---------------------------------------------|
|--9---9---9---9---9---9s==8---8---8---x---x--|
|---------------------------------------------|
|--7---7---7---7---7---7s==6---6---6---x---x--|
|---------------------------------------------|
|
|  E   S   S   S   S   S   S   S   S   S   S
|---------------------------------------------|
|---------------------------------------------|
|---------------------------------------------|
|--9---9---9---9---9---9---9---9---9---9---x--|
|--7---7---7---7---7---7---7---7---7---7---x--|
|-(7)-(7)-(7)-(7)-(7)-(7)-(7)-(7)-(7)-(7)-(x)-|


 1.                  2.
  Gm                  Gm
  E E S S E E S S     E E S S E Q
|-3-3-x-x-3-3-x-x--||-3-3-x-x-3-----|
|-3-3-x-x-3-3-x-x-o||-3-3-x-x-3-----|
|-3-3-x-x-3-3-x-x--||-3-3-x-x-3-----|
|-5-5-x-x-5-5-x-x--||-5-5-x-x-5-----|
|-5-5-x-x-5-5-x-x-o||-5-5-x-x-5-----|
|-3-3-x-x-3-3-x-x--||-3-3-x-x-3-----|
|
| E E S S E E S S     E E S S E Q
|-3-3-x-x-3-3-x-x--||-3-3-x-x-3-----|
|-3-3-x-x-3-3-x-x-o||-3-3-x-x-3-----|
|-3-3-x-x-3-3-x-x--||-3-3-x-x-3-----|
|-5-5-x-x-5-5-x-x--||-5-5-x-x-5-----|
|-5-5-x-x-5-5-x-x-o||-5-5-x-x-5-----|
|-3-3-x-x-3-3-x-x--||-3-3-x-x-3-----|


   Verse #2 - Revisited
    N.C.(E)
    Gtr III
    W                         W
||--------------------------|--------------------------|
||o-------------------------|--------------------------|
||--------------------------|--------------------------|
||--------------------------|--------------------------|
||o-------------------------|--------------------------|
||--------------------------|--------------------------|
|
|   Gtr I
|   PM-----------------------------------------------|
|   S S S S S S S S S S S S   S S S S S S S  S S S S S
||--------------------------|--------------------------|
||o-------------------------|--------------------------|
||--------------------------|--------------------------|
||--------------------------|--------------------------|
||o-------------------------|--------------------------|
||--0-0-0-0-0-0-0-0-0-0-0-0-|-0-0-0-0-0-0-0--0-0-0-0-0-|
|
|   Gtr II
|   E   S S S S S S S S S S   S S E   S S Q.
||--------------------------|--------------------------|
||o-------------------------|--------------------------|
||--4---4-4-4-4-4S3-3-3-3-3-|-3h4-0---0----------------|
||--------------------------|-----------4-2------------|
||o-------------------------|--------------------------|
||--------------------------|--------------------------|


  W                   W
|-------------------|------------------------|
|-------------------|------------------------|
|-------------------|------------------------|
|-------------------|------------------------|
|-------------------|------------------------|
|-------------------|------------------------|
|
| ~
| E E S S E S S S S   S S S S S S S S  E S S
|-------------------|------------------------|
|-------------------|------------------------|
|-------------------|------------------------|
|-------------------|------------------------|
|-1-------------0-2-|-1---1-----0-2-3-/5-3h5-|
|---0-0-2-3-2-3-----|---3---2-3--------------|
|
| Q   S S E S S S S   S S S S S S S S  E S S
|-------------------|------------------------|
|-------------------|------------------------|
|---------------2-4-|-3---3-----2-4-5-/7-5h7-|
|-2---2-4-5-4-5-----|---5---4-5--------------|
|-------------------|------------------------|
|-------------------|------------------------|


  N.C.(E)
  E   S S S S S S S S S S   S S S S S S  E    S S S S
|-------------------------|---------------------------|
|-5---5-5-5-5-5-5-5-5-5-5-|-5S4-4-4-4-4---------------|
|-------------------------|-------------/4----4-4-4-4-|
|-------------------------|---------------------------|
|-------------------------|---------------------------|
|-------------------------|---------------------------|
|
| PM------------------------------------------------|
| S S S S S S S S S S S S   S S S S S S  S  S S S S S
|-------------------------|---------------------------|
|-------------------------|---------------------------|
|-------------------------|---------------------------|
|-------------------------|---------------------------|
|-------------------------|---------------------------|
|-0-0-0-0-0-0-0-0-0-0-0-0-|-0-0-0-0-0-0--0--0-0-0-0-0-|
|
| E   S S S S S S S S S S   S S E   S S  Q.
|-------------------------|---------------------------|
|-------------------------|---------------------------|
|-4---4-4-4-4-4S3-3-3-3-3-|-3h4-0---0-----------------|
|-------------------------|-----------4--2------------|
|-------------------------|---------------------------|
|-------------------------|---------------------------|


  Q   S S E S S S S   S S S S S S S S  E S S
|-------------------|-------------------------||
|-------------------|------------------------o||
|---------------2-4-|-3---3-----2-4-5-/7-5h7--||
|-2---2-4-5-4-5-----|---5---4-5---------------||
|-------------------|------------------------o||
|-------------------|-------------------------||
|
| ~
| E E S S E S S S S   S S S S S S S S  E S S
|-------------------|-------------------------||
|-------------------|------------------------o||
|-------------------|-------------------------||
|-------------------|-------------------------||
|-1-------------0-2-|-1---1-----0-2-3-/5-3h5-o||
|---0-0-2-3-2-3-----|---3---2-3---------------||
|
| Q   S S E S S S S   S S S S S S S S  E S S
|-------------------|-------------------------||
|-------------------|------------------------o||
|---------------2-4-|-3---3-----2-4-5-/7-5h7--||
|-2---2-4-5-4-5-----|---5---4-5---------------||
|-------------------|------------------------o||
|-------------------|-------------------------||


   Bridge #2 - Revisited
    Em6/C#      D#m6/C      D#m6/C       Bm
    W                        W
||------------------------|--------------------------|
||o-----------------------|--------------------------|
||------------------------|--------------------------|
||------------------------|--------------------------|
||o-----------------------|--------------------------|
||------------------------|--------------------------|
|
|   E S S S S S S S S S S    E   S S S S E   S S S S
||------------------------|--------------------------|
||o-----------------------|--------------------------|
||--6-6-6-6-6-6s5-5-5-5-5-|-/5---5-5-5-5-4---4-4-4-4-|
||--5-5-5-5-5-5s4-4-4-4-4-|-/4---4-4-4-4-------------|
||o-4-4-4-4-4-4s3-3-3-3-3-|-/3---3-3-3-3-2---2-2-2-2-|
||------------------------|--------------------------|
|
|   E S S S S S S S S S S    S S S S S S S S S S S S
||------------------------|--------------------------|
||o-5-5-5-5-5-5s4-4-4-4-4-|--4-4-4-4-4-4-3-3-3-3-3-3-|
||--6-6-6-6-6-6s5-5-5-5-5-|--5-5-5-5-5-5-4-4-4-4-4-4-|
||--5-5-5-5-5-5s4-4-4-4-4-|--4-4-4-4-4-4-4-4-4-4-4-4-|
||o-----------------------|--------------------------|
||------------------------|--------------------------|


                      1.,2.,3.
     (D#) (D)          (A(B)
   Q    E  Q     E     Q    E    E        +E   +S      +S   4x
|--------------------|--------------------------------------||
|-12-----------------|-----10---10b12====(10)r(10)b12r(10)-o||
|-------9-12-----9---|-8------------------------------------||
|--------------------|--------------------------------------||
|--------------------|-------------------------------------o||
|--------------------|--------------------------------------||
|
|                           PM|
|  E  E E  E S S S S   E E  S S  S     S   E    E           4x
|--------------------|--------------------------------------||
|--------------------|-------------------------------------o||
|----/8-8--7-7-7-x---|-3-4----------------------------------||
|--------------------|--------------------------------------||
|----/6-6--5-5-5-x---|-1-2---------------------------------o||
|--------------------|------0-0--2h====3---0----0-----------||
|
|                           PM|
|  E  E E  E S S S S   E E  S S  S     S   E    E           4x
|--------------------|--------------------------------------||
|--------------------|-------------------------------------o||
|----/8-8--7-7-7-x-x-|-3-4----------------------------------||
|--------------------|--------------------------------------||
|----/6-6--5-5-5-x-x-|-1-2---------------------------------o||
|--------------------|------0-0--2h====3---0----0-----------||


 4.
  (A(B)
  Q    E    Q          +E
|--------------------------|
|-----10---10b12======(10)-|
|-8------------------------|
|-----------7b9========(7)-|
|--------------------------|
|--------------------------|
|
|      PM|
| E E  S S  S     S E   E
|--------------------------|
|--------------------------|
|-3-4----------------------|
|--------------------------|
|-1-2----------------------|
|------0-0--2h====3-0---0--|
|
|      PM|
| E E  S S  S     S E   E
|--------------------------|
|--------------------------|
|-3-4----------------------|
|--------------------------|
|-1-2----------------------|
|------0-0--2h====3-0---0--|


 Bridge #3 - Revisited
  Bm                       Asus4
  Gtr III
   +H.                      +H.
|------------------------|-------------------------|
|-(10)-------------------|-(10)r-------------------|
|------------------------|-------------------------|
|--(7)-------------------|--(7)r-------------------|
|------------------------|-------------------------|
|------------------------|-------------------------|
|
| Gtrs I, II
|   E  S S S S E S S S S     E   S S S S E S S S S
|---2--2-2-2-2-2-2-2-2-2-|---0---0-0-0-0-0-0-0-0-0-|
|---3--3-3-3-3-3-3-3-3-3-|---3---3-3-3-3-3-3-3-3-3-|
|---4--4-4-4-4-4-4-4-4-4-|---2---2-2-2-2-2-2-2-2-2-|
|---4--4-4-4-4-4-4-4-4-4-|---2---2-2-2-2-2-2-2-2-2-|
|---2--2-2-2-2-2-2-2-2-2-|---0---0-0-0-0-0-0-0-0-0-|
|------------------------|-------------------------|


  G                     D           Em
  Gtrs I, II
  E S S S S E S S S S   S S S S S S S S S S S S
|-3-3-3-3-3-3-3-3-3-3-|-------------------------|
|-3-3-3-3-3-3-3-3-3-3-|-7-7-7-7-x-x-8-8-8-8-x-x-|
|-4-4-4-4-4-4-4-4-4-4-|-7-7-7-7-x-x-9-9-9-9-x-x-|
|-5-5-5-5-5-5-5-5-5-5-|-7-7-7-7-x-x-9-9-9-9-x-x-|
|-5-5-5-5-5-5-5-5-5-5-|-5-5-5-5-x-x-7-7-7-7-x-x-|
|-3-3-3-3-3-3-3-3-3-3-|-------------------------|


  Bm                    Asus4
  E S S S S E S S S S   E S S S S E S S S S
|-2-2-2-2-2-2-2-2-2-2-|-0-0-0-0-0-0-0-0-0-0-|
|-3-3-3-3-3-3-3-3-3-3-|-3-3-3-3-3-3-3-3-3-3-|
|-4-4-4-4-4-4-4-4-4-4-|-2-2-2-2-2-2-2-2-2-2-|
|-4-4-4-4-4-4-4-4-4-4-|-2-2-2-2-2-2-2-2-2-2-|
|-2-2-2-2-2-2-2-2-2-2-|-0-0-0-0-0-0-0-0-0-0-|
|---------------------|---------------------|


  G                             G   Gb5
  E S S S S E S S S S   E S E S E S E S
|-3-3-3-3-3-3-3-3-3-3-|-----------------|
|-3-3-3-3-3-3-3-3-3-3-|-----------------|
|-4-4-4-4-4-4-4-4-4-4-|-----------------|
|-5-5-5-5-5-5-5-5-5-5-|-----------------|
|-5-5-5-5-5-5-5-5-5-5-|---------2-x-4-x-|
|-3-3-3-3-3-3-3-3-3-3-|-5-x-2-x-3-x-3-x-|


  Bm                    Asus4
  E S S S S E S S S S   E S S S S E S S S S
|-2-2-2-2-2-2-2-2-2-2-|-0-0-0-0-0-0-0-0-0-0-|
|-3-3-3-3-3-3-3-3-3-3-|-3-3-3-3-3-3-3-3-3-3-|
|-4-4-4-4-4-4-4-4-4-4-|-2-2-2-2-2-2-2-2-2-2-|
|-4-4-4-4-4-4-4-4-4-4-|-2-2-2-2-2-2-2-2-2-2-|
|-2-2-2-2-2-2-2-2-2-2-|-0-0-0-0-0-0-0-0-0-0-|
|---------------------|---------------------|


  G                     D           Em
  E S S S S E S S S S   S S S S S S S S S S S S
|-3-3-3-3-3-3-3-3-3-3-|-------------------------|
|-3-3-3-3-3-3-3-3-3-3-|-7-7-7-7-x-x-8-8-8-8-x-x-|
|-4-4-4-4-4-4-4-4-4-4-|-7-7-7-7-x-x-9-9-9-9-x-x-|
|-5-5-5-5-5-5-5-5-5-5-|-7-7-7-7-x-x-9-9-9-9-x-x-|
|-5-5-5-5-5-5-5-5-5-5-|-5-5-5-5-x-x-7-7-7-7-x-x-|
|-3-3-3-3-3-3-3-3-3-3-|-------------------------|


  Bm                    Asus4
  E S S S S E S S S S   E S S S S E S S S S
|-2-2-2-2-2-2-2-2-2-2-|-0-0-0-0-0-0-0-0-0-0-|
|-3-3-3-3-3-3-3-3-3-3-|-3-3-3-3-3-3-3-3-3-3-|
|-4-4-4-4-4-4-4-4-4-4-|-2-2-2-2-2-2-2-2-2-2-|
|-4-4-4-4-4-4-4-4-4-4-|-2-2-2-2-2-2-2-2-2-2-|
|-2-2-2-2-2-2-2-2-2-2-|-0-0-0-0-0-0-0-0-0-0-|
|---------------------|---------------------|


  F                     Fm
  E S S S S E S S S S   E S S S S E S S S S
|-1-1-1-1-1-1-1-1-1-1-|-4-4-4-4-4-4-4-4-4-4-|
|-1-1-1-1-1-1-1-1-1-1-|-1-1-1-1-1-1-1-1-1-1-|
|-2-2-2-2-2-2-2-2-2-2-|-1-1-1-1-1-1-1-1-1-1-|
|-3-3-3-3-3-3-3-3-3-3-|-3-3-3-3-3-3-3-3-3-3-|
|-3-3-3-3-3-3-3-3-3-3-|-3-3-3-3-3-3-3-3-3-3-|
|-1-1-1-1-1-1-1-1-1-1-|-1-1-1-1-1-1-1-1-1-1-|


   Outro
    (G#)      (G)    (F)  (B)   (A#)F°  E5
    Gtr I
      S  S  S  E   S  E S E S   E S S E E. E.
||----------------------------|----------------|
||o---------------------------|----------------|
||--/13-13-13-12---x-10-x-----|----------------|
||------------------------9-x-|-8-x-3-3--------|
||o-/11-11-11-10---x--8-x-----|----------------|
||------------------------7-x-|-6-x-1-1-0--0---|
|
|   Gtr II
|     S  S  S  S S S  E S E S   E S S E Q.
||----------------------------|----------------|
||o---------------------------|----------------|
||--/13-13-13-12-x-x-10-x-----|----------------|
||------------------------9-x-|-8-x-9-9-9------|
||o-/11-11-11-10-x-x--8-x-----|----------------|
||------------------------7-x-|-6-x-7-7-7------|


                            1.,2.              3.
  (G#)     (G)    (F)  (B)   (A#)F°  E5         (A#)F°    E5
   S  S  S  E   S  E S E S   E S S E E. E.   3x E S S S S E Q
|--------------------------|-----------------||----------------*|
|--------------------------|----------------o||----------------*|
|-13-13-13-12---x-10-x-----|-----------------||----------------*|
|----------------------9-x-|-8-x-3-3---------||-8-x-3-3-3-2----*|
|-11-11-11-10---x--8-x-----|----------------o||----------------*|
|----------------------7-x-|-6-x-1-1-0--0----||-6-x-1-1-1-0----*|
|
|  S  S  S  S S S  E S E S   E S S E Q.      3x E S S S S E Q
|--------------------------|-----------------||----------------*|
|--------------------------|----------------o||----------------*|
|-13-13-13-12-x-x-10-x-----|-----------------||----------------*|
|----------------------9-x-|-8-x-9-9-9-------||-8-x-9-9-9-9----*|
|-11-11-11-10-x-x--8-x-----|----------------o||----------------*|
|----------------------7-x-|-6-x-7-7-7-------||-6-x-7-7-7-7----*|


Performance Notes
-----------------
Yet another GREAT song, with GREAT guitarplaying.
It displays the strength & variety of Opeth in such a fantastic way,, it really is

incredible music.

Play it to the bone & enjoy!

Duration Legend
---------------
W - whole; H - half; Q - quarter; E - 8th; S - 16th; T - 32nd; X - 64th; a - acciaccatura
+ - note tied to previous; . - note dotted; .. - note double dotted
Uncapitalized letters represent notes that are staccato (1/2 duration)
Irregular groupings are notated above the duration line
Duration letters will always appear directly above the note/fret number it represents the
duration for.  Duration letters with no fret number below them represent rests.  Multi-
bar rests are notated in the form Wxn, where n is the number of bars to rest for.  Low
melody durations appear below the staff

Tablature Legend
----------------
 h   - hammer-on
 p   - pull-off
 b   - bend
 pb  - pre-bend
 r   - bend release (if no number after the r, then release immediately)
 /\  - slide into or out of (from/to "nowhere")
 s   - legato slide
 S   - shift slide
  - natural harmonic
[n]  - artificial harmonic
n(n) - tapped harmonic
 ~   - vibrato
 tr  - trill
 T   - tap
 TP  - trem. picking
 PM  - palm muting
\n/  - tremolo bar dip; n = amount to dip
 \n  - tremolo bar down
 n/  - tremolo bar up
/n\  - tremolo bar inverted dip
 =   - hold bend; also acts as connecting device for hammers/pulls
 <>  - volume swell (louder/softer)
 x   - on rhythm slash represents muted slash
 o   - on rhythm slash represents single note slash

Misc Legend
-----------
 |  - bar
||  - double bar
||o - repeat start
o|| - repeat end
*|  - double bar (ending)
 :  - bar (freetime)
 $  - Segno
 &  - Coda
Tempo markers -  = BPM(8/16=s8/s16), where s8 = swing 8ths, s16 = swing

16ths
comments
We did not receive enough feedback on this tab! Please rate:
print report bad tab
1 2 3 4 5
I want to post or [tab]
guest
You may want to rate the tab now too:
select rating
Please do not post tabs as comments. Select "correction" instead!