Oops, an error
Loading. Please wait.

Grand Conjuration Tab

ver1
ver1

Intro

Whole song

Interactive

More versions @911Tabs.com
10,455 views 21 this week
5 commentsread comments
1 2 3 4 5
accurate
x 10
Autoscroll
+/-
esc
set tempo
stop
Contributor
Hey! There's an official Ultimate Guitar app which is ideal
for learning songs when you're away from computer. Get the app
WARNING: You are trying to view
                                    content from Ultimate-Guitar.com
                                    in an unauthorized application,
                                    which is prohibited.

                                    Please use an official Ultimate
                                    Guitar Tabs application for iPhone,
                                    iPad or Android to access legitimate
                                    chords, guitar, bass, and drum tabs
                                    from Ultimate-Guitar.com database.

                                    Type "ultimate guitar tabs" in Apple
                                    App Store's or Android Market's
                                    search to find the application.
The Grand Conjuration - Opeth
Ghost Reveries

Tuning = D-A-D-G-B-E 
String = 6-5-4-3-2-1
         
I pulled from versions 3 and 4. Changed some things up. 
Enjoy. Not much else to say.

Intro

|---------------------------------------------------| 
|-1010--1010--1010--88---88---88---66---66---66-----|
|--7-7---7-7---7-7--55---55---55---33---33---33-----| 
|---------------------------------------------------| 
|-----0-----0-----0----0----0----0----0----0----0---| 
|-----0-----0-----0----0----0----0----0----0----0---| 
      .     .     .    .    .    .    .    .    .
                        
|---------------------------------------------------| 
|---------------------------------------------------|
|---------------------------------------------------| 
|---------------------------------------------------| 
|-0-0-----------------------------------------------|
|-0-0-12/13-13\1-0-4--5-4-7--12-10-6--7-6-0---------|
  . .
Verse 
Guitar 1

(Majesty Faithful me...) (Repeat 2X)
|--------------------------------------| 
|--------------------------------------|
|--------------------------------------| 
|--------------------------------------| 
|--------------------------------------| 
|-0-1-0--0-1-0--0-1-0--12-10-6---------|

Guitar 2 Verse (enters after Guitar 1 plays Verse once)
|---8--------8------| 
|-----10-------10---|
|-9------9-9------9-|  (Repeat 15X)
|-------------------| 
|-------------------| 
|-------------------|

     1X       | (Repeat 4X)                           |
|-------------|---------------|-----------------------| 
|-------------|---------------|-----------------------|
|-------------|---------------|-----------------------| 
|-------------|0-0-0-0-0-0-0-0|-0-----0---------------| 
|-------------|0-0-0-0-0-0-0-0|-0-----0---------------| 
|-6-1-1-6-1-1-|0-0-0-0-0-0-0-0|-0-000-0-000-----------|
                                  ...   ...
Repeat; Verse 2 Same

Guitar Solo
  N.C.
  Gtr IV
    T      T           T     T               T       T             T       T
    |-------7-------|  |--------7---------|  |--------7---------|  |--------7---------|
    S   S  S  S S S S  S  S  S  S   S S   S  S  S    S  S   S S S  S  S    S  S S S   S
|---------------------------------------------------------------------------------------|
|--12p=10h12p10p8p7h8-15p10h15p10p==8p7h==8-17p10h==17p10p==8p7h8-19p10h==19p10p8p7h==8-|
|---------------------------------------------------------------------------------------|
|---------------------------------------------------------------------------------------|
|---------------------------------------------------------------------------------------|
|---------------------------------------------------------------------------------------|
|
| Gtrs I, II
|                                 PM              PM               PM               PM
|   Q                  E          S     S    S    S       E        S    E           S
|---------------------------------------------------------------------------------------|
|---------------------------------------------------------------------------------------|
|---------------------------------------------------------------------------------------|
|-/12\----------------------------------------------------------------------------------|
|---------------------------------0---------------0----------------0----------------0---|
|-/12\----------------------------0---------------0----------------0----------------0---|


   T     T               T       T             T       T               T       T
   |--------7---------|  |--------7---------|  |---------7----------|  |-------6--------|
   S  S  S  S   S S   S  S  S    S  S   S S S  S  S    S  S   S S   S  S  S    S  S S   S
|-----------------------------------------------------------------------------------------|
|-20p10h20p10p==8p7h==8-19p10h==19p10p==8p7h8-17p10h==17p10p==8p7h==8-15p10h==15p10p8p==7-|
|-----------------------------------------------------------------------------------------|
|-----------------------------------------------------------------------------------------|
|-----------------------------------------------------------------------------------------|
|-----------------------------------------------------------------------------------------|
|
|             PM              PM                            PM----|               PM--|
|  E          S     S    S    S       E        S    S       S     S    S    S     S   S
|-----------------------------------------------------------------------------------------|
|-----------------------------------------------------------------------------------------|
|-----------------------------------------------------------------------------------------|
|-----------------------------------------------------------------------------------------|
|-------------0---------------0-----------------------------0-----0---------------0---0---|
|-------------0---------------0----------------1p===0-------0-----0----1p===0-----0---0---|


    E  S  S  +S.  T  S S S S  S  S  S  S  S      +S
|----------------------------------12-14-14b15==(14)-|
|------8-10-(10)h11p10-8---8-10s11-------------------|
|--/9--------------------9---------------------------|
|----------------------------------------------------|
|----------------------------------------------------|
|----------------------------------------------------|
|
|                    PM    PM       PM            PM
|   Q         E      S S S S  E     S  E          S
|----------------------------------------------------|
|----------------------------------------------------|
|----------------------------------------------------|
|-/12\-----------------------------------------------|
|--------------------0-----0--------0-------------0--|
|-/12\---------------0-----0--------0-------------0--|


                                           ~~~~~~~~~~
   +Q.           +S   +S      +S  +S      +E     +E    e
|-(14)r---------(14)-(14)b15-(14)(14)b15-(14)---(14)--12----|
|-----------------------------------------------------------|
|-----------------------------------------------------------|
|-----------------------------------------------------------|
|-----------------------------------------------------------|
|-----------------------------------------------------------|
|
|       PM    PM                           PM-|        PM|
|   E   S S S S   E            S   S       S  S   S S  S S
|-----------------------------------------------------------|
|-----------------------------------------------------------|
|-----------------------------------------------------------|
|-----------------------------------------------------------|
|-------0-----0----------------------------0--0--------0-0--|
|-------0-----0----------------1p==0-------0--0---1p0--0-0--|


    ~~~~~~~~~~~~~~~~~~~                      ~~~~~~~~~~~~~~~~~~~~~
                              |---3---|
    H             +E       E  E    E  E      Q.            E  +H
|--10b12=========(10)r---/12-14---15-17---|-17b19---------17-(17)--------------|
|-----------------------------------------|------------------------------------|
|-----------------------------------------|------------------------------------|
|-----------------------------------------|------------------------------------|
|-----------------------------------------|------------------------------------|
|-----------------------------------------|------------------------------------|
|
|            PM        PM     PM        PM        PM    PM         PM|     PM|
|   Q      E S S   S   S   E  S E       S    E    S S S S  E   S S S S S S S S
|-----------------------------------------|------------------------------------|
|-----------------------------------------|------------------------------------|
|-----------------------------------------|------------------------------------|
|-/12\------------------------------------|------------------------------------|
|------------0---------0------0---------0-|-------0-----0----------0-0-----0-0-|
|-/12\-------0---------0------0---------0-|-------0-----0------1p0-0-0-1p0-0-0-|


           |--3--|
    S   S  S  S  S  S  S  S     S  S  S  S  S  S  S  S  S
|---------------------------------------10-12----12-------|
|------10-12h13p12-10-12-------10-12-13-------13----12h13-|
|--12--------------------12b14----------------------------|
|---------------------------------------------------------|
|---------------------------------------------------------|
|---------------------------------------------------------|
|
|                         PM          PM       PM       PM
|   Q               E     S     S  S  S  E     S  E     S
|---------------------------------------------------------|
|---------------------------------------------------------|
|---------------------------------------------------------|
|-/12\----------------------------------------------------|
|-------------------------0-----------0--------0--------0-|
|-/12\--------------------0-----------0--------0--------0-|


                     |--3--| |--3--|
   S  S S  S S S S S S S   S S S   S S S  S S
|-------------------------------------------7--|
|-10h12-8h10-7h8---7-7h8p==7---------7h8-10----|
|----------------9-----------9-7---9-----------|
|----------------------------------------------|
|----------------------------------------------|
|----------------------------------------------|
|
|       PM     PM            PM--|        PM|
|  E    S  S S S E   S   S   S   S   S S  S S
|----------------------------------------------|
|----------------------------------------------|
|----------------------------------------------|
|----------------------------------------------|
|-------0------0-------------0---0--------0-0--|
|-------0------0-----1p==0---0---0---1p0--0-0--|


  N.C.
               ~~~
  E +S    +S  +E  E +Q     Q      +H          E  +S  S +S.. +X  E
|-------------------------------|---------------------------------|
|-7-(7)b8-(7)-(7)-5-(5)---[5]---|-(5)-----------------------------|
|-------------------------------|-------------7--(7)s9-(9)--(9)s4-|
|-------------------------------|---------------------------------|
|-------------------------------|---------------------------------|
|-------------------------------|---------------------------------|
|
| E.       S  +E  E +S  E. E. S   +E  E a Q   E.     S +E       E
|-------------------------------|---------------------------------|
|-------------------------------|---------------------------------|
|-------------------------------|-------------------------------8s|
|-----------------0-(0)-------0-|-(0)---------0-------------------|
|-------------------------------|-------------------------------4s|
|-0h=======1--(1)-------1h=3----|-----3-3s7--(7)-----6-(6)--------|


                          ~~~~~~~~~~~~~~
   E  +S  S +E   E  Q     Q         +W
|---------------------------------|--------------------|
|-------------------------8-------|-(8)----------------|
|-/7--(7)s3-(3)-/4----------------|--------------------|
|-------------------3-------------|--------------------|
|---------------------------------|--------------------|
|---------------------------------|--------------------|
|
|  E.     S +E   E +S  E. E +S  S   +E  E +S  E. Q  Q
|---------------------------------|--------------------|
|---------------------------------|--------------------|
|--9------9-(9)-------------------|--------------------|
|----------------------0--------0-|-(0)-------0-----0--|
|--5------5-(5)-------------------|--------------------|
|----------------7-(7)----6-(6)---|-----3-(3)----1-----|


   ~~~~~~~~~~~~~~~~~~~~~~~~~~~~~~~~~~~~~~~~~~~~~~~
  +W                      +W
|-----------------------|------------------------|
|-(8)-------------------|-(8)--------------------|
|-----------------------|------------------------|
|-----------------------|------------------------|
|-----------------------|------------------------|
|-----------------------|------------------------|
|
|  E.S +E  E +S  E.E. S   +E  E a Q   E. S +E  E
|-----------------------|------------------------|
|-----------------------|------------------------|
|-----------------------|----------------------8s|
|----------0-(0)------0-|-(0)---------0----------|
|-----------------------|----------------------4s|
|--0h1-(1)-------1h3----|-----3-3s7--(7)-6-(6)---|


   >
 ~~~~~
  +W                            W
|----------------------------|--------------------|
|-(8)------------------------|--------------------|
|----------------------------|--------------------|
|----------------------------|--------------------|
|----------------------------|--------------------|
|----------------------------|--------------------|
|
|  E. S +E  E +S  E. E +S  S   +E  E +S  E. Q  Q
|----------------------------|--------------------|
|----------------------------|--------------------|
|--9--9-(9)------------------|--------------------|
|-----------------0--------0-|-(0)-------0-----0--|
|--5--5-(5)------------------|--------------------|
|-----------7-(7)----6-(6)---|-----3-(3)----1-----|


   Bridge 1
    N.C.
    Gtrs I, II
    E.S +E  E +S  E.E. S   +E  E a Q   E. S +E  E
||-----------------------|------------------------|
||o----------------------|------------------------|
||-----------------------|----------------------8s|
||----------0-(0)------0-|-(0)---------0----------|
||o----------------------|----------------------4s|
||--0h1-(1)-------1h3----|-----3-3s7--(7)-6-(6)---|


  E. S +E  E +S  E. E +S  S   +E  E +S  E. Q  Q
|---------------------------|----------------------||
|---------------------------|---------------------o||
|-9--9-(9)------------------|----------------------||
|----------------0--------0-|-(0)-------0-----0----||
|-5--5-(5)------------------|---------------------o||
|----------7-(7)----6-(6)---|-----3-(3)----1-------||


 Bridge 2
  N.C.
  E E E E +E  E +E. +S     E E E E E E +E. +S
|------------------------|----------------------|
|------------------------|----------------------|
|------------------------|----------------------|
|------------------------|----------------------|
|-----2-------4-(4)-(4)/-|-----8-----6-(6)-(6)\-|
|-0h1---3-(3)------------|-6h7---8-9------------|


  E E E E +E  E +S  +S   E   E E Q  E E E. +S
|--------------------------|---------------------|
|--------------------------|---------------------|
|--------------------------|---------------------|
|--------------------------|-5s6-6--8s9-9--(9)\--|
|-----2-------4-(4)-(4)/---|---------------------|
|-0h1---3-(3)------------0-|-5s6-6--8s9-9--(9)\--|


  E E E E +E  E +E. +S     E E E E E E +E. +S
|------------------------|----------------------|
|------------------------|----------------------|
|------------------------|----------------------|
|------------------------|----------------------|
|-----2-------4-(4)-(4)/-|-----8-----6-(6)-(6)\-|
|-0h1---3-(3)------------|-6h7---8-9------------|


                     PM|    PM|
  E E E E +E  Q  E   S S Q  S S Q  Q
|------------------|------------------|
|------------------|------------------|
|------------------|------------------|
|------------------|------------------|
|-----2-------4----|------------------|
|-0h1---3-(3)----0-|-6-5-2--6-4-1--3--|


    Gtr I
    E E E E +E  E +E. +S     E E E E E E +E. +S
||-------------------------|----------------------|
||o------------------------|----------------------|
||-------------------------|----------------------|
||-------------------------|----------------------|
||o-----2-------4-(4)-(4)/-|-----8-----6-(6)-(6)\-|
||--0h1---3-(3)------------|-6h7---8-9------------|
|
|   Gtr II
|   E E E E +E  E +E. +S     E E E E E E +E. +S
||-------------------------|----------------------|
||o------------------------|----------------------|
||-------------------------|----------------------|
||-------------------------|----------------------|
||o-----2-------4-(4)-(4)/-|-----8-----6-(6)-(6)\-|
||--0h1---3-(3)------------|-6h7---8-9------------|


  E E E E +E  E +S  +S   E   E E Q   E  E  E.  +S
|--------------------------|------------------------|
|--------------------------|------------------------|
|--------------------------|------------------------|
|--------------------------|-5s6-6---8s=9--9---(9)\-|
|-----2-------4-(4)-(4)/---|------------------------|
|-0h1---3-(3)------------0-|-5s6-6---8s=9--9---(9)\-|
|
| E E E E +E  E +S  +S   E   E E Q   E  E  E.  +S
|--------------------------|------------------------|
|--------------------------|------------------------|
|--------------------------|------------------------|
|--------------------------|-8s9-9--11s12-12--(12)\-|
|-----2-------4-(4)-(4)/---|------------------------|
|-0h1---3-(3)------------0-|-8s9-9--11s12-12--(12)\-|


  1.
  Gtr I
  E E E E +E  E +E. +S     E E E E E E +E. +S
|------------------------|----------------------|
|------------------------|----------------------|
|------------------------|----------------------|
|------------------------|----------------------|
|-----2-------4-(4)-(4)/-|-----8-----6-(6)-(6)\-|
|-0h1---3-(3)------------|-6h7---8-9------------|
|
| Gtr II
| E E E E +E  E +E. +S     E E E E E E +E. +S
|------------------------|----------------------|
|------------------------|----------------------|
|------------------------|----------------------|
|------------------------|----------------------|
|-----2-------4-(4)-(4)/-|-----8-----6-(6)-(6)\-|
|-0h1---3-(3)------------|-6h7---8-9------------|


                     PM|    PM|
  E E E E +E  Q  E   S S Q  S S Q  Q
|------------------|-------------------||
|------------------|------------------o||
|------------------|-------------------||
|------------------|-------------------||
|-----2-------4----|------------------o||
|-0h1---3-(3)----0-|-6-5-2--6-4-1--3---||
|
|                    PM|    PM|
| E E E E +E  Q  E   S S Q  S S Q  Q
|------------------|-------------------||
|------------------|------------------o||
|------------------|-------------------||
|------------------|-------------------||
|-----2-------4----|------------------o||
|-0h1---3-(3)----0-|-6-5-5--6-4-4--6---||


  2.
  E E E E +E  E +E. +S     E E E E E E +E. +S
|------------------------|----------------------|
|------------------------|----------------------|
|------------------------|----------------------|
|------------------------|----------------------|
|-----2-------4-(4)-(4)/-|-----8-----6-(6)-(6)\-|
|-0h1---3-(3)------------|-6h7---8-9------------|
|
| E E E E +E  E +E. +S     E E E E E E +E. +S
|------------------------|----------------------|
|------------------------|----------------------|
|------------------------|----------------------|
|------------------------|----------------------|
|-----2-------4-(4)-(4)/-|-----8-----6-(6)-(6)\-|
|-0h1---3-(3)------------|-6h7---8-9------------|


                     PM|    PM|
  E E E E +E  Q  E   S S Q  S S Q  q
|------------------|------------------|
|------------------|------------------|
|------------------|------------------|
|------------------|------------------|
|-----2-------4----|------------------|
|-0h1---3-(3)----0-|-6-5-2--6-4-1--3--|
|
|                    PM|    PM|
| E E E E +E  Q  E   S S Q  S S Q  q
|------------------|------------------|
|------------------|------------------|
|------------------|------------------|
|------------------|------------------|
|-----2-------4----|------------------|
|-0h1---3-(3)----0-|-6-5-5--6-4-4--6--|


 Bridge 3
  Gtr V
  E E E E +E  Q  E   E E  E E E Q.     E E E E +E  Q.     +W
|------------------|-----------------|------------------|----------------|
|------------------|-----------------|------------------|----------------|
|-----4-------6----|-----10-----8----|-----4-------6----|-(6)------------|
|-0-1---3-(3)----3-|-6-7----8-9------|-0-1---3-(3)------|----------------|
|------------------|-----------------|------------------|----------------|
|------------------|-----------------|------------------|----------------|
|
| Gtr III
| W                  W                 W                   E E Q  E E Q
|------------------|-----------------|------------------|----------------|
|------------------|-----------------|------------------|----------------|
|------------------|-----------------|------------------|----------------|
|------------------|-----------------|------------------|--5s6-6--8s9-9--|
|------------------|-----------------|------------------|--1s2-2--4s5-5--|
|------------------|-----------------|------------------|--5s6-6--8s9-9--|


   E   E E E +E  Q   E   E E  E E E Q.
|----------------------|-----------------|
|----------------------|-----------------|
|--------4-------6-----|-----10-----8----|
|--0---1---3-(3)-----3-|-6-7----8-9------|
|----------------------|-----------------|
|----------------------|-----------------|
|
|                        Gtr I
| +H.              Q     W
|----------------------|-----------------|
|----------------------|-----------------|
|----------------------|-----------------|
|-(9)\-----------------|-----------------|
|-(5)\-----------------|-----------------|
|-(9)\-----------------|-----------------|
|
| Gtr II
|  W                     W
|----------------------|-----------------|
|----------------------|-----------------|
|----------------------|-----------------|
|----------------------|-----------------|
|----------------------|-----------------|
|----------------------|-----------------|


  E E E E +E  Q.     +W
|------------------|--------------------|
|------------------|--------------------|
|-----4-------6----|-(6)----------------|
|-0-1---3-(3)------|--------------------|
|------------------|--------------------|
|------------------|--------------------|
|
|                     PM-|    PM|
| W                   S  S Q  S S Q  q
|------------------|--------------------|
|------------------|--------------------|
|------------------|--------------------|
|------------------|--------------------|
|------------------|--------------------|
|------------------|--6--5-2--6-4-1--3--|
|
|                     PM-|    PM|
| W                   S  S Q  S S Q  q
|------------------|--------------------|
|------------------|--------------------|
|------------------|--------------------|
|------------------|--------------------|
|------------------|--------------------|
|------------------|--6--5-5--6-4-4--6--|


  D5
  Gtrs I, II
                       <
  Q  H.        S e. Q  Q..   S
|------------|-----------------|
|------------|-----------------|
|------------|-----------------|
|-0----------|---0-----0-------|
|-0----------|---0-----0-------|
|-0----------|---0-----0-------|


   Interlude
    Q=113
    N.C.
   3/4
    Gtr I
     S S S S +S  E S S S S S     S  S S S +S  E S S S S S
||---------------------------|----------------------------|
||o--------------------------|------------------------7---|
||-------------------7-------|------------------7---------|
||---5h7---8-(8)-7-7---7-7-7-|---5h=7---8-(8)-7---8p7-----|
||o------0-------------------|--------0-----------------0-|
||---------------------------|----------------------------|
|
|   Gtr II
|    S S S S +S  E S S S S S     S  S S S +S  E S S S S S
||---------------------------|----------------------------|
||o--------------------------|------------------------7---|
||---------------------------|----------------------------|
||---5h7-7-8-(8)-7-7-5h7-7-7-|---5h=7-7-8-(8)-7-7-8p7-----|
||o--------------------------|--------------------------0-|
||---------------------------|----------------------------|
|
|   Gtr VI
|    H.                         +H.
||---------------------------|----------------------------|
||o-17-----------------------|-(17)-----------------------|
||---------------------------|----------------------------|
||--14-----------------------|-(14)-----------------------|
||o--------------------------|----------------------------|
||---------------------------|----------------------------|


   S S S S +S  E S S S S S     S  S S S +S  E S S S S S
|--------------------------|----------------------------|
|--------------------------|------------------------7---|
|------------------7-------|------------------7---------|
|--5h7---8-(8)-7-7---7-7-7-|---5h=7---8-(8)-7---8p7-----|
|------0-------------------|--------0-----------------0-|
|--------------------------|----------------------------|
|
|  S S S S +S  E S S S S S     S  S S S +S  E S S S S S
|--------------------------|----------------------------|
|--------------------------|------------------------7---|
|--------------------------|----------------------------|
|--5h7-7-8-(8)-7-7-5h7-7-7-|---5h=7-7-8-(8)-7-7-8p7-----|
|--------------------------|--------------------------0-|
|--------------------------|----------------------------|
|
|  H.                         +H.
|--------------------------|----------------------------|
|-15-----------------------|-(15)-----------------------|
|--------------------------|----------------------------|
|-12-----------------------|-(12)-----------------------|
|--------------------------|----------------------------|
|--------------------------|----------------------------|


   S S S S +S  E S S S S S     S  S S S +S  E S S S S S
|--------------------------|----------------------------|
|--------------------------|------------------------7---|
|------------------7-------|------------------7---------|
|--5h7---8-(8)-7-7---7-7-7-|---5h=7---8-(8)-7---8p7-----|
|------0-------------------|--------0-----------------0-|
|--------------------------|----------------------------|
|
|  S S S S +S  E S S S S S     S  S S S +S  E S S S S S
|--------------------------|----------------------------|
|--------------------------|------------------------7---|
|--------------------------|----------------------------|
|--5h7-7-8-(8)-7-7-5h7-7-7-|---5h=7-7-8-(8)-7-7-8p7-----|
|--------------------------|--------------------------0-|
|--------------------------|----------------------------|
|
|  H.                         +H.
|--------------------------|----------------------------|
|-14-----------------------|-(14)-----------------------|
|--------------------------|----------------------------|
|-11-----------------------|-(11)-----------------------|
|--------------------------|----------------------------|
|--------------------------|----------------------------|


  1.
   S S S S +S  E S S S S S     S  S S S +S  E S S S S S
|--------------------------|-----------------------------||
|--------------------------|------------------------7---o||
|------------------7-------|------------------7----------||
|--5h7---8-(8)-7-7---7-7-7-|---5h=7---8-(8)-7---8p7------||
|------0-------------------|--------0-----------------0-o||
|--------------------------|-----------------------------||
|
|  S S S S +S  E S S S S S     S  S S S +S  E S S S S S
|--------------------------|-----------------------------||
|--------------------------|------------------------7---o||
|--------------------------|-----------------------------||
|--5h7-7-8-(8)-7-7-5h7-7-7-|---5h=7-7-8-(8)-7-7-8p7------||
|--------------------------|--------------------------0-o||
|--------------------------|-----------------------------||
|
|  H.                         +H.
|--------------------------|-----------------------------||
|-13-----------------------|-(13)-----------------------o||
|--------------------------|-----------------------------||
|-10-----------------------|-(10)------------------------||
|--------------------------|----------------------------o||
|--------------------------|-----------------------------||


  2.
                                                G5
  Gtr II           Gtr IV             Gtr I     Gtrs I, II
   S S S S +S  E S S S S S     S  S S S +S  E S Q
|--------------------------|------------------------|
|--------------------------|------------------------|
|--------------------------|------------------------|
|--5h7---8-(8)-7-7-5h7-7-7-|---5--7---8-(8)-7-7-5\--|
|------0-------------------|--------0-----------5\--|
|--------------------------|--------------------5\--|
|
| Gtr VI
|  H.                         +H.
|--------------------------|------------------------|
|-13-----------------------|-(13)-------------------|
|--------------------------|------------------------|
|-10-----------------------|-(10)-------------------|
|--------------------------|------------------------|
|--------------------------|------------------------|


    F5G5      D5  F5G5D5  F5G5      D5  F5G5AbG5
    Gtrs I, II
    S S S S S S E S S E   S S S S S S E S S S S  4x
||----------------------|------------------------||
||o---------------------|-----------------------o||
||----------------------|------------------------||
||--3h5-5-5-5-0-0-3h5-0-|-3h5-5-5-5-0-0-3h5-6p5--||
||o-3h5-5-5-5-0-0-3h5-0-|-3h5-5-5-5-0-0-3h5-6p5-o||
||--3h5-5-5-5-0-0-3h5-0-|-3h5-5-5-5-0-0-3h5-6p5--||


  N.C.
  Gtr I
   S S S S +S  E S S S S S     S  S S S +S  E S S S S S
|--------------------------|----------------------------|
|--------------------------|------------------------7---|
|------------------7-------|------------------7---------|
|--5h7---8-(8)-7-7---7-7-7-|---5h=7---8-(8)-7---8p7-----|
|------0-------------------|--------0-----------------0-|
|--------------------------|----------------------------|
|
| Gtr II
|  S S S S +S  E S S S S S     S  S S S +S  E S S S S S
|--------------------------|----------------------------|
|--------------------------|------------------------7---|
|--------------------------|----------------------------|
|--5h7-7-8-(8)-7-7-5h7-7-7-|---5h=7-7-8-(8)-7-7-8p7-----|
|--------------------------|--------------------------0-|
|--------------------------|----------------------------|
|
| Gtr VI
|  H.                         +H.
|--------------------------|----------------------------|
|-17-----------------------|-(17)-----------------------|
|--------------------------|----------------------------|
|-14-----------------------|-(14)-----------------------|
|--------------------------|----------------------------|
|--------------------------|----------------------------|


   S S S S +S  E S S S S S     S  S S S +S  E S S S S S
|--------------------------|----------------------------|
|--------------------------|------------------------7---|
|------------------7-------|------------------7---------|
|--5h7---8-(8)-7-7---7-7-7-|---5h=7---8-(8)-7---8p7-----|
|------0-------------------|--------0-----------------0-|
|--------------------------|----------------------------|
|
|  S S S S +S  E S S S S S     S  S S S +S  E S S S S S
|--------------------------|----------------------------|
|--------------------------|------------------------7---|
|--------------------------|----------------------------|
|--5h7-7-8-(8)-7-7-5h7-7-7-|---5h=7-7-8-(8)-7-7-8p7-----|
|--------------------------|--------------------------0-|
|--------------------------|----------------------------|
|
|  H.                         +H.
|--------------------------|----------------------------|
|-15-----------------------|-(15)-----------------------|
|--------------------------|----------------------------|
|-12-----------------------|-(12)-----------------------|
|--------------------------|----------------------------|
|--------------------------|----------------------------|


   S S S S +S  E S S S S S     S  S S S +S  E S S S S S
|--------------------------|----------------------------|
|--------------------------|------------------------7---|
|------------------7-------|------------------7---------|
|--5h7---8-(8)-7-7---7-7-7-|---5h=7---8-(8)-7---8p7-----|
|------0-------------------|--------0-----------------0-|
|--------------------------|----------------------------|
|
|  S S S S +S  E S S S S S     S  S S S +S  E S S S S S
|--------------------------|----------------------------|
|--------------------------|------------------------7---|
|--------------------------|----------------------------|
|--5h7-7-8-(8)-7-7-5h7-7-7-|---5h=7-7-8-(8)-7-7-8p7-----|
|--------------------------|--------------------------0-|
|--------------------------|----------------------------|
|
|  H.                         +H.
|--------------------------|----------------------------|
|-14-----------------------|-(14)-----------------------|
|--------------------------|----------------------------|
|-11-----------------------|-(11)-----------------------|
|--------------------------|----------------------------|
|--------------------------|----------------------------|


   S S S S +S  E S S S S S     S  S S S +S  E S S S S S
|--------------------------|----------------------------|
|--------------------------|------------------------7---|
|------------------7-------|------------------7---------|
|--5h7---8-(8)-7-7---7-7-7-|---5h=7---8-(8)-7---8p7-----|
|------0-------------------|--------0-----------------0-|
|--------------------------|----------------------------|
|
|  S S S S +S  E S S S S S     S  S S S +S  E S S S S S
|--------------------------|----------------------------|
|--------------------------|------------------------7---|
|--------------------------|----------------------------|
|--5h7-7-8-(8)-7-7-5h7-7-7-|---5h=7-7-8-(8)-7-7-8p7-----|
|--------------------------|--------------------------0-|
|--------------------------|----------------------------|
|
|  H.                         +H.
|--------------------------|----------------------------|
|-13-----------------------|-(13)-----------------------|
|--------------------------|----------------------------|
|-10-----------------------|-(10)-----------------------|
|--------------------------|----------------------------|
|--------------------------|----------------------------|


    Gtrs I, II
    S S S S +S  E S S S S S   S S S S +S  E S S S S S  4x
||--------------------------|--------------------------||
||o-------------------------|---------------------7---o||
||--------------------------|--------------------------||
||--5h7-7-8-(8)-7-7-5h7-7-7-|-5h7-7-8-(8)-7-7-8p7------||
||o-------------------------|-----------------------0-o||
||--------------------------|--------------------------||


   Intro Riff
    Q=110
    N.C.
|---------------------------------------------------| 
|-1010--1010--1010--88---88---88---66---66---66-----|
|--7-7---7-7---7-7--55---55---55---33---33---33-----| 
|---------------------------------------------------| 
|-----0-----0-----0----0----0----0----0----0----0---| 
|-----0-----0-----0----0----0----0----0----0----0---| 
      .     .     .    .    .    .    .    .    .


|---------------------------------------------------| 
|---------------------------------------------------|
|---------------------------------------------------| 
|---------------------------------------------------| 
|-0-0-----------------------------------------------|
|-0-0-12/13-13\1-0-4--5-4-7--12-10-6--7-6-0---------|


      H.                           H.
||--/19-------------------------|-18-------------------------|
||o-----------------------------|----------------------------|
||------------------------------|----------------------------|
||------------------------------|----------------------------|
||o-----------------------------|----------------------------|
||------------------------------|----------------------------|
|
|   Gtrs I, II
|     
|---------------------------------------------------| 
|-1010--1010--1010--88---88---88---66---66---66-----|
|--7-7---7-7---7-7--55---55---55---33---33---33-----| 
|---------------------------------------------------| 
|-----0-----0-----0----0----0----0----0----0----0---| 
|-----0-----0-----0----0----0----0----0----0----0---| 
      .     .     .    .    .    .    .    .    .


                                      D5
    H.                       H.
|-\15--------------------|-\12---------------------||
|------------------------|------------------------o||
|------------------------|-------------------------||
|------------------------|-------------------------||
|------------------------|------------------------o||
|------------------------|-------------------------||
|
|---------------------------------------------------| 
|---------------------------------------------------|
|---------------------------------------------------| 
|---------------------------------------------------| 
|-0-0-----------------------------------------------|
|-0-0-12/13-13\1-0-4--5-4-7--12-10-6--7-6-0---------|


                                                   Eb5  D5    F#5
                                                  4/4
                            ~~~~~~~~~~~~~~~~~~~~~~~~~~~~
   H.                      +H.                      +W
|-12--------------------|-(12)-------------------|-(12)----------------|
|-----------------------|------------------------|---------------------|
|-----------------------|------------------------|---------------------|
|-----------------------|------------------------|---------------------|
|-----------------------|------------------------|---------------------|
|-----------------------|------------------------|---------------------|
|
|  S  E S E  E  +S   E.     S  E S E  E  +S   E.     E. S +E  E +H
|-----------------------|------------------------|---------------------|
|-----------------------|------------------------|---------------------|
|-----------------------|------------------------|---------------------|
|-----------------------|------------------------|---1--0-(0)-4-(4)----|
|-----------12-(12)-12\-|------------12-(12)-12\-|---1--0-(0)-4-(4)----|
|--0----0---12-(12)-12\-|---0----0---12-(12)-12\-|---1--0-(0)-4-(4)----|


  G5   F#5   A5         D5   C5      G#5        A5   G#5   D5
    ~~~~~~~~~~~~~~~~~~~~~~~~~~~~~~~~~~~~~~~~~~~~~~~~~
   +W                    +W                      +W
|-(12)----------------|-(12)------------------|-(12)----------------|
|---------------------|-----------------------|---------------------|
|---------------------|-----------------------|---------------------|
|---------------------|-----------------------|---------------------|
|---------------------|-----------------------|---------------------|
|---------------------|-----------------------|---------------------|
|
|   E. S +E  E +H         E.  S  +E  E +H         E. S +E  E +H
|---------------------|-----------------------|---------------------|
|---------------------|-----------------------|---------------------|
|---------------------|-----------------------|---------------------|
|---5--4-(4)-7-(7)----|--12--10-(10)-6-(6)----|---7--6-(6)-0-(0)----|
|---5--4-(4)-7-(7)----|--12--10-(10)-6-(6)----|---7--6-(6)-0-(0)----|
|---5--4-(4)-7-(7)----|--12--10-(10)-6-(6)----|---7--6-(6)-0-(0)----|


   Verse
    N.C.
    Gtrs I, II
    E.S +E  E +H       +W           E.S +E  E +H       +W
||-------------------|------------|------------------|--------|
||o------------------|------------|------------------|--------|
||-------------------|------------|------------------|--------|
||-------------------|------------|------------------|--------|
||o------------------|------------|------------------|--------|
||--0h1-(1)-0-(0)----|-(0)--------|-0h1-(1)-0-(0)----|-(0)----|


  E.S +E  E +H       +W           E. S +E  E +H       +W
|------------------|------------|-------------------|---------||
|------------------|------------|-------------------|--------o||
|------------------|------------|-------------------|---------||
|------------------|------------|-------------------|---------||
|------------------|------------|-5--3-(3)----------|--------o||
|-0h1-(1)-0-(0)----|-(0)--------|----------6-(6)----|-(6)-----||


    N.C.
    E. S +E  E +H       +W           E. S +E  E +H       +W
||--------------------|------------|-------------------|--------|
||o-------------------|------------|-------------------|--------|
||--------------------|------------|-------------------|--------|
||--------------------|------------|-------------------|--------|
||o-------------------|------------|----------0-(0)----|-(0)----|
||--1--0-(0)-4-(4)----|-(4)--------|-5--4-(4)----------|--------|


  E. S +E  E +H       +W           E. S +E  E +H       +W
|-------------------|------------|-------------------|---------||
|-------------------|------------|-------------------|--------o||
|-------------------|------------|-------------------|---------||
|-------------------|------------|-------------------|---------||
|-5--3-(3)----------|------------|-------------------|--------o||
|----------6-(6)----|-(6)--------|-7--6-(6)-0-(0)----|-(0)-----||


  E. S +E  E +H       E. S +E  E +H
|-------------------|-------------------|
|-------------------|-------------------|
|-------------------|-------------------|
|-------------------|-------------------|
|-------------------|----------0-(0)----|
|-1--0-(0)-4-(4)----|-5--4-(4)----------|


   E. S +E  E +H       E. S +E  E +H
|--------------------|-------------------|
|--------------------|-------------------|
|--------------------|-------------------|
|--------------------|-------------------|
|-/5--3-(3)----------|-------------------|
|-----------6-(6)----|-7--6-(6)-0-(0)----|


  E. S +E  E +H       E. S +E  E +H
|-------------------|-------------------|
|-------------------|-------------------|
|-------------------|-------------------|
|-------------------|-------------------|
|-------------------|----------0-(0)----|
|-1--0-(0)-4-(4)----|-5--4-(4)----------|


                       A5 G#5   D5
   E. S +E  E +H       E. S +E  E +H
|--------------------|-------------------|
|--------------------|-------------------|
|--------------------|-------------------|
|--------------------|-7--6-(6)-0-(0)----|
|-/5--3-(3)----------|-7--6-(6)-0-(0)----|
|-----------6-(6)----|-7--6-(6)-0-(0)----|


   Outro
    Eb5D5    N.C.
    E. S +E  E +H       E. S +E   E +H
||--------------------|--------------------|
||o-------------------|--------------------|
||--------------------|--------------------|
||--1--0-(0)-4-(4)----|-5--4-(4)-/7-(7)----|
||o-1--0-(0)----------|--------------------|
||--1--0-(0)-4-(4)----|-5--4-(4)-/7-(7)----|


                                   D5
    E.  S  +E  E +H       E. S +E  E +H      4x
|-----------------------|--------------------||
|-----------------------|-------------------o||
|-----------------------|--------------------||
|-/12--10-(10)-6-(6)----|-7--6-(6)-0-(0)-----||
|-----------------------|----------0-(0)----o||
|-/12--10-(10)-6-(6)----|-7--6-(6)-0-(0)-----||


  Eb5D5    N.C.
  E. S +E  E +H       E. S +E   E +H
|-------------------|--------------------|
|-------------------|--------------------|
|-------------------|--------------------|
|-1--0-(0)-4-(4)----|-5--4-(4)-/7-(7)----|
|-1--0-(0)----------|--------------------|
|-1--0-(0)-4-(4)----|-5--4-(4)-/7-(7)----|


                          PM--------------|
    E.  S  +E  E +H       S S S S S S S S S  S S S E +E
|-----------------------|---------------------------------|
|-----------------------|---------------------------------|
|-----------------------|---------------------------------|
|-/12--10-(10)-6-(6)----|---------------------------------|
|-----------------------|-------------------/6-6-6-5-(5)\-|
|-/12--10-(10)-6-(6)----|-2-1-0-4-1-0-6-3-0---------------|


    Eb5 D5      N.C.
    Gtrs I, II
     E.  S  +E   E  +E  E +S  E.    E.  S  +E   E  +E  E +S  E.
||-------------------------------|------------------------------|
||o------------------------------|------------------------------|
||-------------------------------|------------------------------|
||---1---0--(0)--4--(4)-4-(4)-4--|--5---4--(4)-/7--(7)-7-(7)-7--|
||o--1---0--(0)------------------|------------------------------|
||---1---0--(0)--4--(4)-4-(4)-4--|--5---4--(4)-/7--(7)-7-(7)-7--|
|
|   Gtr VI
|    E.  S  +E   E  +H              E.  S  +E   E  +H
||-------------------------------|------------------------------|
||o-------------19-(19)----------|-20--19-(19)-22-(22)----------|
||--20--19-(19)------------------|------------------------------|
||--------------16-(16)----------|-17--16-(16)-19-(19)----------|
||o-18--17-(17)------------------|------------------------------|
||-------------------------------|------------------------------|


                                              D5
    E.  S  +E   E  +E  E +S  E.    E.  S  +E   E  +E  E +S  E.
|-------------------------------|-------------------------------|
|-------------------------------|-------------------------------|
|-------------------------------|-------------------------------|
|-/12--10-(10)--6--(6)-6-(6)-6--|--7---6--(6)--0--(0)-0-(0)-0---|
|-------------------------------|--------------0--(0)-0-(0)-0---|
|-/12--10-(10)--6--(6)-6-(6)-6--|--7---6--(6)--0--(0)-0-(0)-0---|
|
|   E.  S  +E   E  +H              E.  S  +E   E  +H
|--22--20-(20)------------------|-------------22-(22)-----------|
|--------------21-(21)----------|-22--21-(21)-------------------|
|--19--17-(17)------------------|-------------19-(19)-----------|
|--------------18-(18)----------|-19--18-(18)-------------------|
|-------------------------------|-------------------------------|
|-------------------------------|-------------------------------|


  Eb5 D5      N.C.
   E.  S  +E   E  +E  E +S  E.    E.  S  +E   E  +E  E +S  E.
|------------------------------|------------------------------|
|------------------------------|------------------------------|
|------------------------------|------------------------------|
|--1---0--(0)--4--(4)-4-(4)-4--|--5---4--(4)-/7--(7)-7-(7)-7--|
|--1---0--(0)------------------|------------------------------|
|--1---0--(0)--4--(4)-4-(4)-4--|--5---4--(4)-/7--(7)-7-(7)-7--|
|
|  E.  S  +E   E  +H              E.  S  +E   E  +H
|------------------------------|------------------------------|
|-------------19-(19)----------|-20--19-(19)-22-(22)----------|
|-20--19-(19)------------------|------------------------------|
|-------------16-(16)----------|-17--16-(16)-19-(19)----------|
|-18--17-(17)------------------|------------------------------|
|------------------------------|------------------------------|


                                  1.
                                   PM--------------------|
    E.  S  +E   E  +E  E +S  E.    S  S S  S   S  S  S S   S   S S S E +E
|-------------------------------|--------------------------------------------||
|-------------------------------|-------------------------------------------o||
|-------------------------------|--------------------------------------------||
|-/12--10-(10)--6--(6)-6-(6)-6--|--------------------------------------------||
|-------------------------------|-----------------------------/6-6-6-5-(5)\-o||
|-/12--10-(10)--6--(6)-6-(6)-6--|--2--1-0--4---1--0--6-3---0-----------------||
|
|   E.  S  +E   E  +H              E.      S  +E     E    +H
|--22--20-(20)------------------|-------------------22---(22)----------------||
|--------------21-(21)----------|-22------21-(21)---------------------------o||
|--19--17-(17)------------------|-------------------19---(19)----------------||
|--------------18-(18)----------|-19------18-(18)----------------------------||
|-------------------------------|-------------------------------------------o||
|-------------------------------|--------------------------------------------||


  2.
              D5
   E.  S  +E   E  +H        +W            +W            +W
|------------------------|-------------|-------------|---------*|
|------------------------|-------------|-------------|---------*|
|------------------------|-------------|-------------|---------*|
|--7---6--(6)--0--(0)----|--(0)--------|--(0)--------|--(0)----*|
|--------------0--(0)----|--(0)--------|--(0)--------|--(0)----*|
|--7---6--(6)--0--(0)----|--(0)--------|--(0)--------|--(0)----*|
|                                         +W
|
|  E.  S  +E   E  +H        +W            +W            +W
|-------------22-(22)----|-(22)--------|-(22)--------|-(22)----*|
|-22--21-(21)------------|-------------|-------------|---------*|
|-------------19-(19)----|-(19)--------|-(19)--------|-(19)----*|
|-19--18-(18)------------|-------------|-------------|---------*|
|------------------------|-------------|-------------|---------*|
|------------------------|-------------|-------------|---------*|


Duration Legend
---------------
W - whole; H - half; Q - quarter; E - 8th; S - 16th; T - 32nd; X - 64th; a - acciaccatura
+ - note tied to previous; . - note dotted; .. - note double dotted
Uncapitalized letters represent notes that are staccato (1/2 duration)
Irregular groupings are notated above the duration line
Duration letters will always appear directly above the note/fret number it represents the
duration for.  Duration letters with no fret number below them represent rests.  Multi-
bar rests are notated in the form Wxn, where n is the number of bars to rest for.  Low
melody durations appear below the staff

Tablature Legend
----------------
 h   - hammer-on
 p   - pull-off
 b   - bend
 pb  - pre-bend
 r   - bend release (if no number after the r, then release immediately)
 /\  - slide into or out of (from/to "nowhere")
 s   - legato slide
 S   - shift slide
<n>  - natural harmonic
[n]  - artificial harmonic
n(n) - tapped harmonic
 ~   - vibrato
 tr  - trill
 T   - tap
 TP  - trem. picking
 PM  - palm muting
\n/  - tremolo bar dip; n = amount to dip
 \n  - tremolo bar down
 n/  - tremolo bar up
/n\  - tremolo bar inverted dip
 =   - hold bend; also acts as connecting device for hammers/pulls
 <>  - volume swell (louder/softer)
 x   - on rhythm slash represents muted slash
 o   - on rhythm slash represents single note slash
 . OR PM   - palm mute
Misc Legend
-----------
 |  - bar
||  - double bar
||o - repeat start
o|| - repeat end
*|  - double bar (ending)
 :  - bar (freetime)
 $  - Segno
 &  - Coda
Tempo markers - <E/E./Q/Q./H/H.> = BPM(8/16=s8/s16), where s8 = swing 8ths, s16 = swing 16ths

comments
print report bad tab
5 comments total. Showing first comments.
0 reply
spencer Cr wrote on April 29 2007, 04:33 pm

wrong tuning all opeth songs on ghost reveries are Dm open
low to high

D, A, D, F, A, D

0 reply
the_voltage wrote on December 5 2007, 01:48 pm

dude, after I played this song with my band, the drummer whas so exhausted he almost fainted...lol

0 reply
eNdofthELinE9 wrote on February 9 2009, 11:22 pm

You're an idiot. You put the drop d tuning from your tab into everything else from the open dm tuning of Ver3. and the intro is completely off, that's how far i got before i puked.

I want to post or [tab]
guest
You may want to rate the tab now too:
select rating
Please do not post tabs as comments. Select "correction" instead!