Oops, an error
Loading. Please wait.

Hessian Peel Tab

ver1
ver1

Solo

Whole song

Interactive

More versions @911Tabs.com
41,576 views 52 this week
14 commentsread comments
1 2 3 4 5
excellent!
x 18
Autoscroll
+/-
esc
set tempo
stop
Contributor
Hey! There's an official Ultimate Guitar app which is ideal
for learning songs when you're away from computer. Get the app
WARNING: You are trying to view
                                    content from Ultimate-Guitar.com
                                    in an unauthorized application,
                                    which is prohibited.

                                    Please use an official Ultimate
                                    Guitar Tabs application for iPhone,
                                    iPad or Android to access legitimate
                                    chords, guitar, bass, and drum tabs
                                    from Ultimate-Guitar.com database.

                                    Type "ultimate guitar tabs" in Apple
                                    App Store's or Android Market's
                                    search to find the application.
Gtr I (E A D G B E) - 'Untitled'
Gtr II (E A D G B E) - 'Untitled'
Gtr III (E A D G B E) - 'Untitled'

  Q=60
 4/4

INTRO (free time)

  Gtr I
  H     S S S S S H      H    T T E E a S S S S S E S E   S S E
|---------3---2p0------|----------3-5-5s7---7---5---------------|
|----------------------|--------5-------------8---7-5-7b8r5-3-0-|
|------/4---4-----4----|------4-----------6---------------------|
|----------------------|----------------------------------------|
|----------------------|----------------------------------------|
|-0--------------------|-0--------------------------------------|


  H   E S S S  S S S S S E    +Q     H  E E E S S E E S E S S  Q
|-----7-8p7p5--7-5-3-5-7-7b8--(7)--|----0-0-0-0--------------------|
|----------------------------------|----5-3-0----------------------|
|----------------------------------|----------2h3-2-0-2-0------1---|
|----------------------------------|----------------------2-0--2---|
|----------------------------------|---------------------------2---|
|-0--------------------------------|-0-------------------------0---|


RIFF A


  Q=120
  |--3--|    |----3----|   |---3---|        |----3-----|
  Q  E  Q.   E E Q   E E   Q    E  Q.       E E Q    E E
|----------------0-------|----------------------0--------|
|-------8----------------|---------8---------------------|
|-------9----------------|---------9---------------------|
|----9---------7-------7-|------9-------------7--------7-|
|-7----------5-------5---|-7----------------5--------5---|
|------------------------|-------------------------------|
|
| Gtr II
| |---3----| |----3----|   |------3------|
| Q.    Q  E E Q   Q   E   E  E E  E  E  E  Q      Q
|------------------------|--------------12-10------------|
|-8----10--8-7s5---5---7-|-8s10-8-10s12-----------12-----|
|------------------------|-------------------------------|
|------------------------|-------------------------------|
|------------------------|-------------------------------|
|------------------------|-------------------------------|


  |--3--|    |----3----|   |---3---|        |----3-----|
  Q  E  Q.   E E Q   E E   Q    E  Q.       E E Q    E E
|----------------0-------|----------------------0--------|
|-------8----------------|---------8---------------------|
|-------9----------------|---------9---------------------|
|----9---------7-------7-|------9-------------7--------7-|
|-7----------5-------5---|-7----------------5--------5---|
|------------------------|-------------------------------|
|
| |---3----| |----3----|   |------3------|
| Q.    Q  E E Q   Q   E   E  E E  E  E  E  Q      Q
|------------------------|--------------12-11------------|
|-8----10--8-7s5---5---7-|-8s10-8-10s12-----------12-----|
|------------------------|-------------------------------|
|------------------------|-------------------------------|
|------------------------|-------------------------------|
|------------------------|-------------------------------|


  |--3--|    |----3----|   |---3---|        |----3-----|
  Q  E  q.   E E Q   E E   Q    E  q.       E E Q    E E
|----------------0-------|----------------------0--------|
|-------8----------------|---------8---------------------|
|-------9----------------|---------9---------------------|
|----9---------7-------7-|------9-------------7--------7-|
|-7----------5-------5---|-7----------------5--------5---|
|------------------------|-------------------------------|
|
| |---3----| |----3----|   |------3------|
| Q.    Q  E E Q   Q   E   E  E E  E  E  E  Q      Q
|------------------------|--------------12-10------------|
|-8----10--8-7s5---5---7-|-8s10-8-10s12-----------12-----|
|------------------------|-------------------------------|
|------------------------|-------------------------------|
|------------------------|-------------------------------|
|------------------------|-------------------------------|


  |--3--|           |----3----|   |---3---|         |----3-----|
  Q  E  q.          E E Q   E E   Q    E  q.        E E Q    E E
|-----------------------0-------|-----------------------0----------|
|-------8-----------------------|---------8------------------------|
|-------9-----------------------|---------9------------------------|
|----9----------------7-------7-|------9--------------7--------7---|
|-7-----------------5-------5---|-7-----------------5--------5-----|
|-------------------------------|----------------------------------|
|
| |--3--|   |-3--|  |----3----|   |------3------|
| Q.    E   S  S E  E Q   Q   E   E  E E  E  E  E   Q      Q
|-------------------------------|--------------12--11--------------|
|-8----10---8h10p8--7s5---5---7-|-8s10-8-10s12------------12-------|
|-------------------------------|----------------------------------|
|-------------------------------|----------------------------------|
|-------------------------------|----------------------------------|
|-------------------------------|----------------------------------|


FIRST VERSE


    |-3-|   |----3----|   |-3-|   |----3----|
    Q E q.  E E E E E E   Q E q.  E E E E E E
||----------------------|---------------------|
||o-----4---------4h5p4-|-----4---------4h5p4-|
||--------------4-------|-------------4-------|
||----6-------4---------|---6-------4---------|
||o-4-------0-----------|-4-------0-----------|
||----------------------|---------------------|


  |-3-|   |----3----|   |-3-|   |----3----|
  Q E q.  E E E E E E   Q E q.  E E E E E E
|---------------------|-----------------------||--|
|-----4---------4h5p4-|-----4---------4h5p4--o||--|
|-------------4-------|-------------4---------||--|
|---6-------4---------|---6-------4-----------||--|
|-4-------0-----------|-4-------0------------o||--|
|---------------------|-----------------------||--|


RIFF A AGAIN

  |--3--|    |----3----|   |---3---|        |----3-----|
  Q  E  Q.   E E Q   E E   Q    E  Q.       E E Q    E E
|----------------0-------|----------------------0--------|
|-------8----------------|---------8---------------------|
|-------9----------------|---------9---------------------|
|----9---------7-------7-|------9-------------7--------7-|
|-7----------5-------5---|-7----------------5--------5---|
|------------------------|-------------------------------|
|
| |---3----| |----3----|   |------3------|
| Q.    Q  E E Q   Q   E   E  E E  E  E  E  Q      Q
|------------------------|--------------12-10------------|
|-8----10--8-7s5---5---7-|-8s10-8-10s12-----------12-----|
|------------------------|-------------------------------|
|------------------------|-------------------------------|
|------------------------|-------------------------------|
|------------------------|-------------------------------|


  |--3--|    |----3----|   |---3---|        |----3-----|
  Q  E  Q.   E E Q   E E   Q    E  Q.       E E Q    E E
|----------------0-------|----------------------0--------|
|-------8----------------|---------8---------------------|
|-------9----------------|---------9---------------------|
|----9---------7-------7-|------9-------------7--------7-|
|-7----------5-------5---|-7----------------5--------5---|
|------------------------|-------------------------------|
|
| |---3----| |----3----|   |------3------|
| Q.    Q  E E Q   Q   E   E  E E  E  E  E  Q      Q
|------------------------|--------------12-11------------|
|-8----10--8-7s5---5---7-|-8s10-8-10s12-----------12-----|
|------------------------|-------------------------------|
|------------------------|-------------------------------|
|------------------------|-------------------------------|
|------------------------|-------------------------------|


  |--3--|    |----3----|   |---3---|        |----3-----|
  Q  E  Q.   E E Q   E E   Q    E  Q.       E E Q    E E
|----------------0-------|----------------------0--------|
|-------8----------------|---------8---------------------|
|-------9----------------|---------9---------------------|
|----9---------7-------7-|------9-------------7--------7-|
|-7----------5-------5---|-7----------------5--------5---|
|------------------------|-------------------------------|
|
| |---3----| |----3----|   |------3------|
| Q.    Q  E E Q   Q   E   E  E E  E  E  E  Q      Q
|------------------------|--------------12-10------------|
|-8----10--8-7s5---5---7-|-8s10-8-10s12-----------12-----|
|------------------------|-------------------------------|
|------------------------|-------------------------------|
|------------------------|-------------------------------|
|------------------------|-------------------------------|


  |--3--|         |----3----|   |---3---|        |----3-----|
  Q  E  Q.        E E Q   E E   Q    E  Q.       E E Q    E E
|---------------------0-------|----------------------0---------|
|-------8---------------------|---------8----------------------|
|-------9---------------------|---------9----------------------|
|----9--------------7-------7-|------9-------------7--------7--|
|-7---------------5-------5---|-7----------------5--------5----|
|-----------------------------|--------------------------------|
|
| |--3--|  |-3--| |----3----|   |------3------|
| Q.    E  S  S E E Q   Q   E   E  E E  E  E  E  Q      Q
|-----------------------------|--------------12-11-------------|
|-8----10--8h10p8-7s5---5---7-|-8s10-8-10s12-----------12------|
|-----------------------------|--------------------------------|
|-----------------------------|--------------------------------|
|-----------------------------|--------------------------------|
|-----------------------------|--------------------------------|

VERSE


  |-3-|   |----3----|   |-3-|   |----3----|
  Q E q.  E E E E E E   Q E q.  E E E E E E
|---------------------|---------------------|
|-----4---------4h5p4-|-----4---------4h5p4-|
|-------------4-------|-------------4-------|
|---6-------4---------|---6-------4---------|
|-4-------0-----------|-4-------0-----------|
|---------------------|---------------------|


  |-3-|   |----3----|   |-3-|   |----3----|
  Q E q.  E E E E E E   Q E q.  E E E E E E
|---------------------|----------------------|
|-----4---------4h5p4-|-----4---------4h5p4--|
|-------------4-------|-------------4--------|
|---6-------4---------|---6-------4----------|
|-4-------0-----------|-4-------0------------|
|---------------------|----------------------|


HARMONIZED RIFF A

  |--3---| |---3---|   |------3------|
  Q.   Q E E Q  Q  E   E  E E  E  E  E  Q    Q
|--------------------|--------------12-10--------|
|-8---10-8-7s5--5--7-|-8s10-8-10s12---------12---|
|--------------------|---------------------------|
|--------------------|---------------------------|
|--------------------|---------------------------|
|--------------------|---------------------------|
|
| Gtr III
| |--3---| |---3---|   |------3------|
| Q.   Q E E Q  Q  E   E  E E  E  E  E  Q    Q
|-7---10-7-5-3--3--5-|-7-10-7-10-12-15-14---10---|
|--------------------|---------------------------|
|--------------------|---------------------------|
|--------------------|---------------------------|
|--------------------|---------------------------|
|--------------------|---------------------------|


  |--3---| |---3---|   |------3------|
  Q.   Q E E Q  Q  E   E  E E  E  E  E  Q    Q
|--------------------|--------------12-11--------|
|-8---10-8-7s5--5--7-|-8s10-8-10s12---------12---|
|--------------------|---------------------------|
|--------------------|---------------------------|
|--------------------|---------------------------|
|--------------------|---------------------------|
|
| |--3---| |---3---|   |------3------|
| Q.   Q E E Q  Q  E   E  E E  E  E  E  Q    Q
|-7---10-7-5-3--3--5-|-7-10-7-10-12-15-14---10---|
|--------------------|---------------------------|
|--------------------|---------------------------|
|--------------------|---------------------------|
|--------------------|---------------------------|
|--------------------|---------------------------|


PART WITH REVERSED LYRICS

  Q=58
                        |-3-| |-3-| |-3-| |-3-|   |-3-| |-3-| |-3-| |-3-|
  W          W          E E E E E E E E E E E E   E E E E E E E E E E E E
|-2--------|-5--------|-----4-----------4-------|-----3-----------3--------|
|-2--------|-5--------|-------4---4-------4---4-|-------3---3-------3---3--|
|-2--------|-5--------|---4-----4-----4-----4---|---4-----4-----4-----4----|
|-4--------|-7--------|-6-----------6-----------|-5-----------5------------|
|-4--------|-7--------|-------------------------|--------------------------|
|-2--------|-5--------|-------------------------|--------------------------|


  |-3-| |-3-| |-3-| |-3-|   |-3-| |-3-| |-3-| |-3-|
  E E E E E E E E E E E E   E E E E E E E E E E E E
|-----2-----------2-------|-----5-----------5-------|
|-------2---2-------2---2-|-------5---5-------5---5-|
|---2-----2-----2-----2---|---5-----5-----5-----5---|
|-4-----------4-----------|-7-----------7-----------|
|-------------------------|-------------------------|
|-------------------------|-------------------------|


* this is my best guess, the chords are all right, but I don't know if 
that's exactly how they are arpeggiated.


  |-3-| |-3-| |-3-| |-3-|   |-3-| |-3-| |-3-| |-3-|
  E E E E E E E E E E E E   E E E E E E E E E E E E
|-----4-----------4-------|-----3-----------3----------|
|-------4---4-------4---4-|-------3---3-------3---3----|
|---4-----4-----4-----4---|---4-----4-----4-----4------|
|-6-----------6-----------|-5-----------5--------------|
|-------------------------|----------------------------|
|-------------------------|----------------------------|


RIFF B


  Gtr II
          |-3-|      |---9----|  |---9----|  |---9----|  |-------9-------|
  Q  Q  E S S S Q    S S S E. E. S S S E. E. S S S E. E. S S S S S S S S S
|------------------|-------------------------------------------------------|
|------------------|-------------------------------------------------------|
|------------------|-------------------------------------------------------|
|---------------5--|-4-5-4----4--2-4-2----2--0-2-0----0--------------------|
|-2--4--5-2-4-5----|-------5-----------4-----------2-----4-5-1-4-1---------|
|------------------|-----------------------------------------------3-2-0-2-|


RIFF C


  Q=85
   W
|-------------|---------------|----------------|-----------------|
|-------------|---------------|----------------|-----------------|
|-------------|---------------|----------------|-----------------|
|-------------|---------------|----------------|-----------------|
|--2----------|---------------|----------------|-----------------|
|-------------|---------------|----------------|-----------------|
|
| Gtr I
|    |-3-|          |-3-|       |-3-|  |3-|      |---6----|
|  Q E E E  H     Q E E E  H    E E E  Q  E H    Q  E E E E H
|-11-------11-|--10-------10--|-3--------------|--------0--------|
|----7--------|-----7---------|-----0--5----2--|------3---3------|
|------8------|-------7-------|---0------------|----4-------4----|
|--9-----9----|---9-----9-----|-2--------------|-----------------|
|-------------|---------------|--------4--4-1--|-2---------------|
|-------------|---------------|----------------|-----------------|


RIFF D


  Q=125
               |-3-|                     |-3-|
  Q  Q  H      Q Q Q H      Q  Q  H      Q Q Q H
|------------|------------|------------|------------|
|------------|------------|------------|------------|
|------------|------------|------------|------------|
|-------5----|-----5-6----|-------5----|-----5-6----|
|-7--6--3----|-7-6-3-4----|-7--6--3----|-7-6-3-4----|
|-5--4-------|-5-4--------|-5--4-------|-5-4--------|


SOLO

                                                  ~~~~~
   |-----6-----|  |-----6-----|    |-----6-----|
   E  E E  E E E  E E E  E E  E    E E E E  E  E  H
|-------------------------------|-------------------------|
|-17-19-0-12-0-0-17-0-0-10-0-12-|-12-0-7-0-11-12-12b14----|
|-------------------------------|-------------------------|
|-------------------------------|-------------------------|
|-------------------------------|-------------------------|
|-------------------------------|-------------------------|
|
|  |-----3-----|  |-----3-----|
|  H         E E  Q   Q    E  E    H        H
|-------------------------------|-------------------------|
|-------------------------------|-------------------------|
|-------------------------------|-------------------------|
|--4----------------------------|--5--------4-------------|
|--4----------------------------|--5--------4-------------|
|--2---------0-2--3---3----0--2-|--3--------2-------------|


   |------6-------|  |------6-------|
   E  E  E  E  E  E  E  E  E  E  E  E
|-------------------------------------|
|-------12-------14-12----------------|
|----11-------11-------------12-11----|
|-14-------14-------------------------|
|----------------------14-14-------14-|
|-------------------------------------|
|
|  |------3-------|  |------3-------|
|  H           E  E  Q     Q     E  E
|-------------------------------------|
|-------------------------------------|
|-------------------------------------|
|--4----------------------------------|
|--4----------------------------------|
|--2-----------0--2--3-----3-----0--2-|


                                        ~~~~~
   |------6-------|  |-------7-------|
   S  S  S  S  S  S  E   S  S  S  S  S  H
|-----------------------14-15-17-15-14----------|
|----------12-14-15-14\----------------17b19----|
|-11-12-15--------------------------------------|
|-----------------------------------------------|
|-----------------------------------------------|
|-----------------------------------------------|
|
|  H                                    H
|-----------------------------------------------|
|-----------------------------------------------|
|-----------------------------------------------|
|--5------------------------------------4-------|
|--5------------------------------------4-------|
|--3------------------------------------2-------|


                                                                    ~~
   |------6-------|  |------6-------|    |------6-------|  |--3--|
   E  E  E  E  E  E  E  E  E  E  E  E    E  E  E  E  E  E  E  E  E  Q
|-------19-------21-21-------19-------|-------14-15-14-----------------|
|-17-19----17-19-------19-17----19-17-|----------------------17--------|
|-------------------------------------|-15-16----------16-15----12-11--|
|-------------------------------------|--------------------------------|
|-------------------------------------|--------------------------------|
|-------------------------------------|--------------------------------|
|
|  |------3-------|  |------3-------|
|  H           E  E  Q     Q     E  E    H                 H
|-------------------------------------|--------------------------------|
|-------------------------------------|--------------------------------|
|-------------------------------------|--------------------------------|
|--4----------------------------------|--5-----------------4-----------|
|--4----------------------------------|--5-----------------4-----------|
|--2-----------0--2--3-----3-----0--2-|--3-----------------2-----------|


   |---------------6----------------|  |---------------6----------------|
   S  S  S  S  S  S  S  S  S  S  S  S  S  S  S  S  S  S  S  S  S  S  S  S
|-------------------------------------------------------------------------|
|-------------------------------------------------------------------------|
|----------------------------------------------------------------12-------|
|----------------------------12----------------12-14-16-12-14-16----16-14-|
|----------12-14-16-12-14-16----16-14-12-14-16----------------------------|
|-12-14-15----------------------------------------------------------------|
|
|  |--------------3--------------|     |--------------3--------------|
|  H                       E     E     Q           Q           E     E
|-------------------------------------------------------------------------|
|-------------------------------------------------------------------------|
|-------------------------------------------------------------------------|
|--4----------------------------------------------------------------------|
|--4----------------------------------------------------------------------|
|--2-----------------------0-----2-----3-----------3-----------0-----2----|


   |----------9:6----------|
   S  S  S  S  S  S  S  S  S  H
|----------------------------17b19------|
|-------------------14-15-17------------|
|----------12-14-16---------------------|
|-12-14-16------------------------------|
|---------------------------------------|
|---------------------------------------|
|
|  H                               H
|---------------------------------------|
|---------------------------------------|
|---------------------------------------|
|--5-------------------------------4----|
|--5-------------------------------4----|
|--3-------------------------------2----|


BRUTAL RIFF (play 4 times)


  |-3-| |-3-| |-3-| |-3-|      |-3--|
  E E E E E E E E E E E E   Q  E E  E  Q      Q
|-------------------------|----------------------|
|-------------------------|----------------------|
|-------------------------|----------------------|
|-------------------------|----------------------|
|-------------------------|----------------------|
|-6-6-6-5-6p5-0-5h6-0-6h8-|-9--8-9-11-11b12--11--|


   |-3-| |--3--|  |-3--|  |-3--|
   E E E E  E  E  E  E E  E E  E
|--------------------------------|
|--------------------------------|
|--------------------------------|
|--------------------------------|
|------------------------10p9----|
|-15-0-0-0-15-15-15s12-0------12-|


  |-3-| |-3-| |-3-| |-3-|
  E E E E E E E E E E E E
|----------------------------|
|----------------------------|
|----------------------------|
|----------------------------|
|----------------------------|
|-9-6-9-5-8-5-5-6-5-0-5-7----|



RIFF E (play twice)


  |-3-| |-3-| |-3-| |-3-|   |-3-| |-3-| |-3-| |-3-|
  E E E E E E E E E E E E   E E E E E E E E E E E E
|-------------------------|-------------------------|
|-------------------------|-------------------------|
|-------------------------|-------------------------|
|-------------------6---6-|-------------------------|
|-------------5-7-8---8---|-7-8-5-7---5-------------|
|-1-0-3-4-0-7-------------|---------8---5-4-0-1-0-0-|


  |-3-| |-3-|  |-3-| |-3-|   |-3-| |-3-| |-3-| |3|
  E E E E E E  E E E E E E   E E E E E E E E E Q E
|--------------------------|-----------------------|
|--------------------------|-----------------------|
|--------------------------|-----------------------|
|--------------------6---6-|-----------------------|
|-------------/5-7-8---8---|-7-8-5-7---5-----------|
|-1-0-3-4-0-7--------------|---------8---5-4-5-7-8-|


TRANSITION


  |-3-|   |-3-|   |-3-|   |-3-| |-3-| |-3--|
  E E E E E E E E E E E   E E E E E E E E +H
|-----------------------|----------------------|
|-8-8-8---8-8-8---8-8---|-8-8---8---8-4-4-(4)--|
|-9-9-9---9-9-9---9-9---|-9-9---9---9-5-5-(5)--|
|-9-9-9---9-9-9---9-9---|-9-9---9---9-5-5-(5)--|
|-7-7-7---7-7-7---7-7---|-7-7---7---7-3-3-(3)--|
|-----------------------|----------------------|


  |-3-|   |-3-|   |-3-|   |-3-| |-3-|
  E E E E E E E E E E E   E E E E E E H
|-----------------------|------------------|
|-8-8-8---8-8-8---8---8-|---8---8---8------|
|-9-9-9---9-9-9---9---9-|---9---9---9------|
|-9-9-9---9-9-9---9---9-|---9---9---9------|
|-7-7-7---7-7-7---7---7-|---7---7---7------|
|-----------------------|------------------|


LYRICS COME IN AGAIN

 5/4
                             |-3-|                            |-3-|
  W        +Q     +W         E E E   W        +Q     +W       E E E
|---------------|------------------|---------------|----------------|
|---------------|------------------|---------------|----------------|
|-1--------(1)--|-(1)--------------|-1--------(1)--|-(1)------------|
|-2--------(2)--|-(2)----------2-0-|-2--------(2)--|-(2)--------3-2-|
|-2--------(2)--|-(2)--------------|-2--------(2)--|-(2)------------|
|-0--------(0)--|-(0)--------------|-0--------(0)--|-(0)------------|


                             |-3-|                              |-3-|
  W        +Q     +W         E E E   W        +Q     +W         E E E
|---------------|------------------|---------------|--------------------|
|---------------|------------------|---------------|--------------------|
|-1--------(1)--|-(1)--------------|-1--------(1)--|-(1)----------------|
|-2--------(2)--|-(2)------------0-|-2--------(2)--|-(2)----------3-2---|
|-2--------(2)--|-(2)--------------|-2--------(2)--|-(2)----------------|
|-0--------(0)--|-(0)--------------|-0--------(0)--|-(0)----------------|


 4/4
                      |-3-|                       |-3-|
  W          +H.      E E E   W          +H.      E E E
|----------|----------------|----------|-----------------|
|----------|----------------|----------|-----------------|
|-1--------|-(1)------------|-1--------|-(1)-------------|
|-2--------|-(2)----------0-|-2--------|-(2)--------3-2--|
|-2--------|-(2)------------|-2--------|-(2)-------------|
|-0--------|-(0)------------|-0--------|-(0)-------------|

 ^You can faintly hear the acoustic riff over this part


TRANSITION

                         |-3-|     |-3-|   |-3-| |-3-| |-3-| |-3-| |-3--|
     Q  Q  Q  Q    Q  Q  Q Q Q  3x E E E E E E E E E E E E E E E E E E  E Q.
||---------------|-------------||-------------------------------------------|
||o--------------|------------o||-8-8-8---8-8-8---8---8---8---8---8----8----|
||---------------|-------------||-9-9-9---9-9-9---9---9---9---9---9----9----|
||--10--9--8--7--|-6--5--4-3-2-||-9-9-9---9-9-9---9---9---9---9---9----9----|
||o--8--7--6--5--|-4--3--2-1-0o||-7-7-7---7-7-7---7---7---7---7---7----7----|
||---------------|-------------||-------------------------------------------|


ACOUSTIC RIFF


  |-3-| |-3-| |-3-| |-3-|   |-3-| |-3-|
  E E E E E E E E E E E E   E E E E E E H
|-------------------------|------------------|
|-------------------------|------------------|
|-------------------------|------------------|
|-------3-2-0-2---0-2-3-5-|---3-5-6-5-3-2----|
|-2-4-5---------4---------|------------------|
|-------------------------|------------------|


  |-3-| |-3-| |-3-| |-3-|   |-3-| |-3-| |-3-| |-3-|
  E E E E E E E E E E E E   E E E E E E E E E E E E
|-------------------------|-------------3---3--------|
|-------------------------|-----------6---6---6------|
|-------------------------|---------5-----------5----|
|-------3-2-0-2---0-2-3-5-|---3-5-6---------------6--|
|-2-4-5---------4---------|--------------------------|
|-------------------------|--------------------------|


  |-3-| |-3-| |-3-| |-3-|   |-3-| |-3-|
  E E E E E E E E E E E E   E E E E E E H
|-------------------------|------------------|
|-------------------------|------------------|
|-------------------------|------------------|
|-------3-2-0-2---0-2-3-5-|---3-5-6-5-3-2----|
|-2-4-5---------4---------|------------------|
|-------------------------|------------------|


  |-3-| |-3-| |-3-| |-3-|   |-3-| |-3-| |-3-| |-3-|
  E E E E E E E E E E E E   E E E E E E E E E E E E
|-------------------------|-------------3---3--------|
|-------------------------|-----------6---6---6------|
|-------------------------|---------5-----------5----|
|-------3-2-0-2---0-2-3-5-|---3-5-6---------------6--|
|-2-4-5---------4---------|--------------------------|
|-------------------------|--------------------------|


RIFF F

  W                      +W
|----------------------|------------------------|
|----------------------|------------------------|
|-6--------------------|-(6)--------------------|
|-6--------------------|-(6)--------------------|
|-4--------------------|-(4)--------------------|
|-4--------------------|-(4)--------------------|
|
| |-3-|    |----6----|    |-3--|    |----6----|
| E E E Q  E E E E E E    E  E E Q  E E E E E E
|----------------------|------------------------|
|----------------------|------------------------|
|-6--------6-----6-7-4-|--6---------6-----6-7-4-|
|---5-5------6-5-------|-----5-5------6-5-------|
|-------4--------------|---------4--------------|
|----------------------|------------------------|


  +W                       +W
|------------------------|------------------------|
|------------------------|------------------------|
|-(6)--------------------|-(6)--------------------|
|-(6)--------------------|-(6)--------------------|
|-(4)--------------------|-(4)--------------------|
|-(4)--------------------|-(4)--------------------|
|
|  |-3--|    |----6----|    |-3--|    |----6----|
|  E  E E Q  E E E E E E    E  E E Q  E E E E E E
|------------------------|------------------------|
|------------------------|------------------------|
|--6---------6-----6-7-4-|--6---------6-----6-7-4-|
|-----5-5------6-5-------|-----5-5------6-5-------|
|---------4--------------|---------4--------------|
|------------------------|------------------------|


  +W                       +W
|------------------------|------------------------|
|------------------------|------------------------|
|-(6)--------------------|-(6)--------------------|
|-(6)--------------------|-(6)--------------------|
|-(4)--------------------|-(4)--------------------|
|-(4)--------------------|-(4)--------------------|
|
|  |-3--|    |----6----|    |-3--|    |----6----|
|  E  E E Q  E E E E E E    E  E E Q  E E E E E E
|------------------------|------------------------|
|------------------------|------------------------|
|--5---------5-----5-6-4-|--5---------5-----5-6-4-|
|-----5-4------5-4-------|-----5-4------5-4-------|
|---------3--------------|---------3--------------|
|------------------------|------------------------|


  +W                       +H           H
|------------------------|-------------------------|
|------------------------|-------------------------|
|-(6)--------------------|-(6)---------------------|
|-(6)--------------------|-(6)---------------------|
|-(4)--------------------|-(4)---------------------|
|-(4)--------------------|-(4)----------9\---------|
|
|  |-3--|    |----6----|    |-3--|    |----6-----|
|  E  E E Q  E E E E E E    E  E E Q  E E  E E E E
|------------------------|-------------------------|
|------------------------|-------------------------|
|--5---------5-----5-6-4-|--5---------5------5-6-4-|
|-----5-4------5-4-------|-----5-4------5--4-------|
|---------3--------------|---------3---------------|
|------------------------|-------------------------|


RIFF G (there is another dissonant riff over this part, but I can't make 
        out what it is)


  |-3-|    |-3-| |-3-|      |-3-| |-3-| |3-|
  E E E Q  E E E E E E   Q  E E E E E E Q  E
|----------------------|---------------------|
|----------------------|---------------------|
|----------------------|---------------------|
|----------------------|---------------------|
|-4-4-4----------4-4-4-|----------4-4-4------|
|-6-6-6-6--0-0-0-6-6-6-|-6--0-0-0-6-6-6-6\-0-|


  |-3-|    |-3-| |-3-|      |-3-| |-3-| |3-|
  E E E Q  E E E E E E   Q  E E E E E E Q  E
|----------------------|-----------------------|
|----------------------|-----------------------|
|----------------------|-----------------------|
|----------------------|-----------------------|
|-4-4-4----------4-4-4-|----------1-1-1--------|
|-6-6-6-6--0-0-0-6-6-6-|-6--0-0-0-3-3-3-3\-0---|


  |-3-|    |-3-| |-3-|      |-3-| |-3-| |3-|
  E E E Q  E E E E E E   Q  E E E E E E Q  E
|----------------------|---------------------|
|----------------------|---------------------|
|----------------------|---------------------|
|----------------------|---------------------|
|-6-6-6----------6-6-6-|----------6-6-6------|
|-2-2-2-2--0-0-0-2-2-2-|-2--0-0-0-2-2-2-2\-0-|


  |-3-|    |-3-| |-3-|      |-3-| |-3-| |3-|
  E E E Q  E E E E E E   Q  E E E E E E Q  E
|----------------------|-----------------------|
|----------------------|-----------------------|
|----------------------|-----------------------|
|----------------------|-----------------------|
|-6-6-6----------6-6-6-|----------6-6-6--------|
|-2-2-2-2--0-0-0-2-2-2-|-2--0-0-0-2-2-2-2\-0---|


LYRICS COME IN HERE

  |-3-|     |-3-| |-3-|       |-3-| |-3-| |3-|
  E E E Q   E E E E E E   Q   E E E E E E Q  E
|-----------------------|----------------------|
|-----------------------|----------------------|
|-----------------0-0-0-|----------------------|
|-5-5-5-5\--------9-9-9-|-5\--------5-5-5-5\---|
|-7-7-7-7\--------7-7-7-|-7\--------7-7-7-7\---|
|-----------0-0-0-------|-----0-0-0----------0-|


  |-3-|     |-3-| |-3-|       |-3-|     |-3-|
  E E E Q   E E E E E E   Q   E E E Q  +Q   E
|-----------------------|------------------------|
|-----------------------|------------------------|
|-----------------0-0-0-|------------------------|
|-5-5-5-5\--------9-9-9-|-5\--------4--(4)\------|
|-7-7-7-7\--------7-7-7-|-7\--------6--(6)\------|
|-----------0-0-0-------|-----0-0-0---------0----|


  |-3-|     |-3-| |-3-|       |-3-| |-3-| |3-|
  E E E Q   E E E E E E   Q   E E E E E E Q  E
|-----------------------|----------------------|
|-----------------------|----------------------|
|-----------------------|----------------------|
|-4-4-4-4\--------4-4-4-|-4\--------4-4-4-4\---|
|-6-6-6-6\--------6-6-6-|-6\--------6-6-6-6\---|
|-----------0-0-0-------|-----0-0-0----------0-|


  |-3-|     |-3-| |-3-|       |-3-|     |-3-|
  E E E Q   E E E E E E   Q   E E E Q  +Q   E
|-----------------------|---------------------|
|-----------------------|---------------------|
|-----------------------|---------------------|
|-4-4-4-4\--------4-4-4-|-4\--------4--(4)\---|
|-6-6-6-6\--------6-6-6-|-6\--------6--(6)\---|
|-----------0-0-0-------|-----0-0-0---------0-|


  |-3-|    |-3-| |-3-|      |-3-| |-3-| |3-|
  E E E Q  E E E E E E   Q  E E E E E E Q  E
|----------------------|---------------------|
|----------------------|---------------------|
|----------------------|---------------------|
|----------------------|---------------------|
|-4-4-4----------4-4-4-|----------4-4-4------|
|-6-6-6-6--0-0-0-6-6-6-|-6--0-0-0-6-6-6-6\-0-|


  |-3-|    |-3-| |-3-|      |-3-| |-3-| |3-|
  E E E Q  E E E E E E   Q  E E E E E E Q  E
|----------------------|-----------------------|
|----------------------|-----------------------|
|----------------------|-----------------------|
|----------------------|-----------------------|
|-4-4-4----------4-4-4-|----------1-1-1--------|
|-6-6-6-6--0-0-0-6-6-6-|-6--0-0-0-3-3-3-3\-0---|


  |-3-|    |-3-| |-3-|      |-3-| |-3-| |3-|
  E E E Q  E E E E E E   Q  E E E E E E Q  E
|----------------------|---------------------|
|----------------------|---------------------|
|----------------------|---------------------|
|----------------------|---------------------|
|-6-6-6----------6-6-6-|----------6-6-6------|
|-2-2-2-2--0-0-0-2-2-2-|-2--0-0-0-2-2-2-2\-0-|


  |-3-|    |-3-| |-3-|      |-3-| |-3-| |3-|
  E E E Q  E E E E E E   Q  E E E E E E Q  E
|----------------------|-----------------------|
|----------------------|-----------------------|
|----------------------|-----------------------|
|----------------------|-----------------------|
|-6-6-6----------6-6-6-|----------6-6-6--------|
|-2-2-2-2--0-0-0-2-2-2-|-2--0-0-0-2-2-2-2\-0---|



OUTRO


  |-3-| |-3-|                       |-3-| |-3-|
  E E E E E E +H       +W           E E E E E E +H       +W
|--------------------|------------|--------------------|--------|
|--------------------|------------|--------------------|--------|
|--------------------|------------|--------------------|--------|
|--------------------|------------|--------------------|--------|
|-3-3-3-3-3-2-(2)----|-(2)--------|-3-3-3-3-3-2-(2)----|-(2)----|
|-1-1-1-1-1-0-(0)----|-(0)--------|-1-1-1-1-1-0-(0)----|-(0)----|
|
| |-3-| |-3-|                       |-3-| |-3-|
| E E E E E E +H       +W           E E E E E E +H       +W
|--------------------|------------|--------------------|--------|
|--------------------|------------|--------------------|--------|
|--------------------|------------|-3-3-3-3-3-4-(4)----|-(4)----|
|-6-6-6-6-6-5-(5)----|-(5)--------|-3-3-3-3-3-2-(2)----|-(2)----|
|-8-8-8-8-8-7-(7)----|-(7)--------|--------------------|--------|
|--------------------|------------|--------------------|--------|

^ play that twice before playing next part


   |--3---|               |--3--|
   Q   Q  Q +H            Q  Q  Q +H         W
|----------------------|-------------------|------|
|----------------------|-------------------|------|
|----------------------|-------------------|------|
|----------------------|-------------------|-2----|
|--6---5--4-(4)--------|--5--4--3-(3)------|-2----|
|--4---3--2-(2)--------|--3--2--1-(1)------|-0----|
|
|  |--3---|               |--3--|
|  Q   Q  Q +H            Q  Q  Q +H         W
|----------------------|-------------------|------|
|----------------------|-------------------|------|
|----------------------|-------------------|------|
|--9---8--7-(7)--------|--8--7--6-(6)------|-5----|
|-11--10--9-(9)--------|-10--9--8-(8)------|-7----|
|----------------------|-------------------|-0----|


(crazy dissonant piano follows, song ends)

* For a fun game, count how many 666's you find in this tab haha



Duration Legend
---------------
W - whole; H - half; Q - quarter; E - 8th; S - 16th; T - 32nd; X - 64th; a - acciaccatura
+ - note tied to previous; . - note dotted; .. - note double dotted
Uncapitalized letters represent notes that are staccato (1/2 duration)
Irregular groupings are notated above the duration line
Duration letters will always appear directly above the note/fret number it represents the
duration for.  Duration letters with no fret number below them represent rests.  Multi-
bar rests are notated in the form Wxn, where n is the number of bars to rest for.  Low
melody durations appear below the staff

Tablature Legend
----------------
 h   - hammer-on
 p   - pull-off
 b   - bend
 pb  - pre-bend
 r   - bend release (if no number after the r, then release immediately)
 /\  - slide into or out of (from/to "nowhere")
 s   - legato slide
 S   - shift slide
 - natural harmonic
[n]  - artificial harmonic
n(n) - tapped harmonic
 ~   - vibrato
 tr  - trill
 T   - tap
 TP  - trem. picking
 PM  - palm muting
\n/  - tremolo bar dip; n = amount to dip
 \n  - tremolo bar down
 n/  - tremolo bar up
/n\  - tremolo bar inverted dip
 =   - hold bend; also acts as connecting device for hammers/pulls
 <> - volume swell (louder/softer)
 x   - on rhythm slash represents muted slash
 o   - on rhythm slash represents single note slash

Misc Legend
-----------
 |  - bar
||  - double bar
||o - repeat start
o|| - repeat end
*|  - double bar (ending)
 :  - bar (freetime)
 $  - Segno
 &  - Coda
Tempo markers -  = BPM(8/16=s8/s16), where s8 = swing 8ths, s16 = swing 16ths

comments
print report bad tab
14 comments total. Showing first comments.
+1 reply
uk.mace wrote on July 22 2008, 11:42 am

nicely done. however there is one small mistake though - if you watch the special edition DVD you can see riff A and the verse riff are played as


e-------------
B-------------
G-------11----
D----9--------
A-7-----------
E-------------

and similar

0 reply
BringMeTheCalm wrote on July 22 2008, 12:21 pm

Good tab.

0 reply
Pete_KC wrote on July 27 2008, 09:51 am

Awesome tab dude!!!

I want to post or [tab]
guest
You may want to rate the tab now too:
select rating
Please do not post tabs as comments. Select "correction" instead!