Oops, an error
Loading. Please wait.

Hex Omega Tab

ver2
ver2

Intro

Whole song

More versions @911Tabs.com
3,044 views 12 this week
4 commentsread comments
1 2 3 4 5
worth learning
x 3
Autoscroll
+/-
esc
set tempo
stop
Contributor
Difficulty
intermediate
WARNING: You are trying to view
                                    content from Ultimate-Guitar.com
                                    in an unauthorized application,
                                    which is prohibited.

                                    Please use an official Ultimate
                                    Guitar Tabs application for iPhone,
                                    iPad or Android to access legitimate
                                    chords, guitar, bass, and drum tabs
                                    from Ultimate-Guitar.com database.

                                    Type "ultimate guitar tabs" in Apple
                                    App Store's or Android Market's
                                    search to find the application.
-----------------------------------------------------------------------------------------------
  Artist - Opeth
  Album  - Watershed (2008)
  Tabbed - Jakob Jugovic
  Mail   - jakobjugovic@gmail.com
  Year   - 2009
-----------------------------------------------------------------------------------------------

  Pretty song, easy to play, the solo need more practice, enjoy :)

  TUNING:

  E
  B
  G
  D
  A
  E
  

  p = pull
  h = hammer on
  / = slide upwards
  \ = slide downwards
  x = ghost note
  ~ = vibrato
  o = 1/4 (timescale)
  ^ = bend
  > = release to
  pm= palm mute





  INTRO:


    o . . o . . o . . o . . o . . o . . o . . o . .
E |-------------------------------------------------|
B |-------------------------------------------------|
G |-------------------------------------------------|
D |-------------------------------------------------|
A |-----------8-7-8-7-------------------5---5-7-^-8-|
E |-0-----------------0-----------0-4-7---7---------|
pm            . . . .


    o . . o . . o . . o . . o . . o . . o . . o . .
E |-----------------------------------------------0-|
B |-------------------------------------------------|
G |-------------------------------------------------|
D |-------------------------------------------------|
A |-7~~~~~~~~~~~~~~~~~~~~~~-------------------------|
E |-------------------------------------------------|


    o . . o . . o . . o . . o . . o . . o . . o . .
E |-------------------------------------------------|
B |-0-----------------9-----------------------------|
G |---7---------------9-----------------------------|
D |-----8-------------9-----------------------------|
A |-------------------7-----------------------6h8p6-|
E |-------------0-----0-----------------------------|
pm              .


    o . . o . . o . . o . . o . . o . . o . . o . .
E |-------------12----------------------------------|
B |---------------------11--------------------------|
G |-----------------12------9^10>>>>>>>>>>>>>>9-----|
D |-------------------------------------------------|
A |-7-----------------------------------------------|
E |-------0-----------------------------------------|



  VERSE:


    o . . . o . . . o . . . o . . . o . . . o . . . o . . . o . . .
E |-----------------------------------------------------------------|
B |-----------------------------------------------------------------|
G |---------9-------------------------------------------------------|
D |-----------------------------------------------------------------|
A |-----7-----------------------------------------------------------|
E |-0---------------------------------------------------------------|


    o . . . o . . . o . . . o . . . o . . . o . . . o . . . o . . .
E |-----------------------------------------------------------------|
B |-----------------------------------------------------------------|
G |---------13------------------------------------------------------|
D |-----------------------------------------------------------------|
A |-----11----------------------------------------------------------|
E |-0---------------------------------------------------------------|


    o . . . o . . . o . . . o . . . o . . . o . . . o . . . o . . .
E |-----------------------------------------------------------------|
B |-----------------------------------------------------------------|
G |---------9-------------------------------------------------------|
D |-----------------------------------------------------------------|
A |-----7-----------------------------------------------------------|
E |-0---------------------------------------------------------------|


    o . . . o . . . o . . . o . . . o . . . o . . . o . . . o . . .
E |-----------------------------------------------------------------|
B |-----------------------------------------------------------------|
G |---------6-\-5-------5---\---2---2-/-3-------3---\-2-----2-------|
D |---------------------------------x-----------x-----x-------------|
A |-----4-----\-3-------3---\---0---0-h-1-------1---p-0-------------|
E |-0---------------------------------------------------1-------1---|


  BRIDGE:

    o . . . o . . . o . . . o . . . o . . . o . . . o . . . o . . .
E |-----------------------------------------------------------------|
B |-----------------------------------------------------------------|
G |-9---9---9---9---9---9---9---9---9---9---9---9---9---9---9---9---|
D |-8---8---8---8---8---8---8---8---8---8---8---8---8---8---8---8---|
A |-7---7---7---7---7---7---7---7---7---7---7---7---7---7---7---7---|
E |-0---0---0---0---0---0---0---0---0---0---------------------------|


  CHORUS [x2]:

    o . . . o . . . o . . . o . . . o . . . o . . . o . . . o . . .
E |-------------------------4---------------------------------------|
B |---------3-p-0--/6---5---------------5---------------------------|
G |-----------------------------------------------------------------|
D |-----------------------------------------6^7>6---6---------------|
A |-----------------------------------------------5---5-------------|
E |-0---------------------------------------------------4~~~~~~~~~--|


    o . . . o . . . o . . . o . . . o . . . o . . . o . . . o . . .
E |-----------------------------------------------------------------|
B |-----------------------------------------3---3-------------------|
G |-----------------------------------------2---2-------------------|
D |-2---------------3---2-------2---2-------0---0-------3-----------|
A |-2---------------3---2-------2---2-------0---0-------3-----------|
E |-0-------0---0-0-1---0---0-0-0---0---0-0---------0-0-1-----------|
pm          .   . .         . .         . .         . .


  VERSE [x2]:


    o . . . o . . . o . . . o . . . o . . . o . . . o . . . o . . .
E |-----------------------------------------------------------------|
B |-----------------------------------------------------------------|
G |---------9-------------------------------------------------------|
D |-----------------------------------------------------------------|
A |-----7-----------------------------------------------------------|
E |-0---------------------------------------------------------------|


    o . . . o . . . o . . . o . . . o . . . o . . . o . . . o . . .
E |-----------------------------------------------------------------|
B |-----------------------------------------------------------------|
G |---------13------------------------------------------------------|
D |-----------------------------------------------------------------|
A |-----11----------------------------------------------------------|
E |-0---------------------------------------------------------------|


    o . . . o . . . o . . . o . . . o . . . o . . . o . . . o . . .
E |-----------------------------------------------------------------|
B |-----------------------------------------------------------------|
G |---------9-------------------------------------------------------|
D |-----------------------------------------------------------------|
A |-----7-----------------------------------------------------------|
E |-0---------------------------------------------------------------|


    o . . . o . . . o . . . o . . . o . . . o . . . o . . . o . . .
E |-----------------------------------------------------------------|
B |-----------------------------------------------------------------|
G |---------6-\-5-------5---\---2---2-/-3-------3---\-2-----2-------|
D |---------------------------------x-----------x-----x-------------|
A |-----4-----\-3-------3---\---0---0-h-1-------1---p-0-------------|
E |-0---------------------------------------------------1-------1---|


  BRIDGE:

    o . . . o . . . o . . . o . . . o . . . o . . . o . . . o . . .
E |-----------------------------------------------------------------|
B |-----------------------------------------------------------------|
G |-9---9---9---9---9---9---9---9---9---9---9---9---9---9---9---9---|
D |-8---8---8---8---8---8---8---8---8---8---8---8---8---8---8---8---|
A |-7---7---7---7---7---7---7---7---7---7---7---7---7---7---7---7---|
E |-0---0---0---0---0---0---0---0---0---0---------------------------|


  CHORUS [x4]:

    o . . . o . . . o . . . o . . . o . . . o . . . o . . . o . . .
E |-------------------------4---------------------------------------|
B |---------3-p-0--/6---5---------------5---------------------------|
G |-----------------------------------------------------------------|
D |-----------------------------------------6^7>6---6---------------|
A |-----------------------------------------------5---5-------------|
E |-0---------------------------------------------------4~~~~~~~~~--|


    o . . . o . . . o . . . o . . . o . . . o . . . o . . . o . . .
E |-----------------------------------------------------------------|
B |-----------------------------------------3---3-------------------|
G |-----------------------------------------2---2-------------------|
D |-2---------------3---2-------2---2-------0---0-------3-----------|
A |-2---------------3---2-------2---2-------0---0-------3-----------|
E |-0-------0---0-0-1---0---0-0-0---0---0-0---------0-0-1-----------|
pm          .   . .         . .         . .         . .



  SOLO:

    o . . . o . . . o . . . o . . . o . . . o . . . o . . . o . . .
E |-----------------------------------------------------------------|
B |----------------------------------------------------------9101213|  (9,10,12,13)
G |--------------------------------------------------------910------|  (9,10)
D |----------------------------------------------------91012--------|  (9,10,12)
A |-------------------------------------------------1112------------|  (11,12)
E |-----------------------------------------------------------------|


    o . . . o . . . o . . . o . . . o . . . o . . . o . . . o . . .
E |-----------------------------------------------------------------|
B |-9~~~~~~~~~~~~~~~~~~~~~~~9~~~~~~~~~~~~~~~~~~~~~~~~~~~9~~~~~~~~~~~|
G |-----------------------------------------------------------------|
D |-----------------------------------------------------------------|
A |-----------------------------------------------------------------|
E |-----------------------------------------------------------------|


    o . . . o . . . o . . . o . . . o . . . o . . . o . . . o . . .
E |-------------------------------------9/12131211------------------|  (12,13,12,11)
B |-9~~~~~~~9~~~~~9^12~~~~~~>>>>9~~~~~~~~~~~----131211--------------|  (13,12,11)
G |-------------------------------------------------1091098---------|  (10,9,10,9,8)
D |-------------------------------------------------------109-------|  (10,9)
A |----------------------------------------------------------1211---|  (12,11)
E |-----------------------------------------------------------------|


    o . . . o . . . o . . . o . . . o . . . o . . . o . . . o . . .
E |-----------------------------------------------------------------|
B |-------------------------------------------------------------1213|  (12,13)
G |------------------------------------------------------------14---|
D |-----------------------------------------------------6/9/1415----|  (14,15)
A |-----------------------------------------------------------------|
E |-ABABA^C>A------^13>>12\\\\\\4^5>4///7---------------------------|  (A=12,B=10,C=13)


    o . . . o . . . o . . . o . . . o . . . o . . . o . . . o . . .
E |-1316--1316-----^17----171613-1412-------------------------------|  (13,16,13,16,17,16,13,14,12)
B |-----13--------------------------12-1210010^12^10^12^10^12~~~~~~~|  (12,10,0,10)
G |-----------------------------------------------------------------|
D |-----------------------------------------------------------------|
A |-----------------------------------------------------------------|
E |-----------------------------------------------------------------|


    o . . . o . . . o . . . o . . . o . . . o . . . o . . . o . . .
E |-----------------------------------------------------------------|
B |-12~~~~~~~-------------------------------------------------------|
G |-----------------------------------------------------------------|
D |-----------------------------------------------------------------|
A |-----------------------------------------------------------------|
E |-----------------------------------------------------------------|


  VERSE [x4]:

    o . . . o . . . o . . . o . . . o . . . o . . . o . . . o . . .
E |-----------------------------------------------------------------|
B |-----------------------------------------------------------------|
G |-----------------------------------------------------------------|
D |---------9-------------------------------------------------------|
A |-----7-----------------------------------------------------------|
E |-0---------------------------------------------------------------|


    o . . . o . . . o . . . o . . . o . . . o . . . o . . . o . . .
E |-----------------------------------------------------------------|
B |-----------------------------------------------------------------|
G |-----------------------------------------------------------------|
D |---------13------------------------------------------------------|
A |-----11----------------------------------------------------------|
E |-0---------------------------------------------------------------|


    o . . . o . . . o . . . o . . . o . . . o . . . o . . . o . . .
E |-----------------------------------------------------------------|
B |-----------------------------------------------------------------|
G |-----------------------------------------------------------------|
D |---------9-------------------------------------------------------|
A |-----7-----------------------------------------------------------|
E |-0---------------------------------------------------------------|


    o . . . o . . . o . . . o . . . o . . . o . . . o . . . o . . .
E |-----------------------------------------------------------------|
B |-----------------------------------------------------------------|
G |---------6-\-5-------5---\---2---2-/-3-------3---\-2-----2-------|
D |---------------------------------x-----------x-----x-------------|
A |-----4-----\-3-------3---\---0---0-h-1-------1---p-0-------------|
E |-0---------------------------------------------------1-------1---|


  ENDING:

  [guitar 1]

    o . . . o . . . o . . . o . . . o . . . o . . . o . . . o . . .     _
E |-----------------------------------------------------------------|    |
B |-----------------------------------------------------------------|    |
G |-----------------------------------------------------------------|    |
D |-----------------------------------------------------------------|    |
A |-7---8---8-------------------------------7---8---8---------------|    |
E |---------------------------------0---------------------------0---|    |
                                                                         |
                                                                         | x8
    o . . . o . . . o . . . o . . . o . . . o . . . o . . . o . . .      |
E |-----------------------------------------------------------------|    |
B |-----------------------------------------------------------------|    |
G |-----------------------------------------------------------------|    |
D |-6---7---7-------------------------------------------------------|    |
A |-7---8---8-------------------------------------------------------|    |
E |-----------------------------------------------------------------|   _|

  [guitar 2, after 3xguitar 1]]

    o . . . o . . . o . . . o . . . o . . . o . . . o . . . o . . .     _
E |-----------------------------------------------------------------|    |
B |-------------------------------------------------------------10--|    |
G |-9---10--10------------------------------9---10--10----------10--|    |
D |-----------------------------------------------------------------|    |
A |-7---8---8-------------------------------7---8---8-----------8---|    |
E |---------------------------------0-------------------------------|    |
                                                                         |
                                                                         | x5
    o . . . o . . . o . . . o . . . o . . . o . . . o . . . o . . .      |
E |-----------------------------------------------------------------|    |
B |-9---10--10------------------------------------------------------|    |
G |-9---10--10------------------------------------------------------|    |
D |-----------------------------------------------------------------|    |
A |-7---8---8-------------------------------------------------------|    |
E |-----------------------------------------------------------------|   _|
comments
We did not receive enough feedback on this tab! Please rate:
print report bad tab
1 2 3 4 5
4 comments total. Showing first comments.
0 reply
jerryhendrix wrote on August 12 2009, 03:15 pm

Great tab, I just noticed a few things from playing it through a few times

intro changed A to A# on b string
o . . o . . o . . o . . o . . o . . o . . o . .
E |-------------12----------------------------------|
B |---------------------11--------------------------|
G |-----------------12------9^10>>>>>>>>>>>>>>9-----|
D |-------------------------------------------------|
A |-7-----------------------------------------------|
E |-------0-----------------------------------------|

verses play octaves instead
o . . . o . . . o . . . o . . . o . . . o . . . o . . . o . . .
E |-----------------------------------------------------------------|
B |-----------------------------------------------------------------|
G |---------9-------------------------------------------------------|
D |-----------------------------------------------------------------|
A |-----7-----------------------------------------------------------|
E |-0---------------------------------------------------------------|

o . . . o . . . o . . . o . . . o . . . o . . . o . . . o . . .
E |-----------------------------------------------------------------|
B |-----------------------------------------------------------------|
G |-----------13----------------------------------------------------|
D |-----------------------------------------------------------------|
A |-----11----------------------------------------------------------|
E |-0---------------------------------------------------------------|

o . . . o . . . o . . . o . . . o . . . o . . . o . . . o . . .
E |-----------------------------------------------------------------|
B |-----------------------------------------------------------------|
G |----------9------------------------------------------------------|
D |-----------------------------------------------------------------|
A |-----7-----------------------------------------------------------|
E |-0---------------------------------------------------------------|

0 reply
musiktrooper wrote on August 20 2009, 05:56 am

THANKS!
o.o uhh... how the f. i wroted wrong note i dont know :P
Anyway thanks, i will correct the TAB quickly.
But i dont understeand what is wrong with verse...

0 reply
jerryhendrix wrote on October 16 2009, 09:57 pm

Just in the first part of the verse the part I tabbed, play how I tabbed (the octaves of E[7th fret a-string] and G#[11th fret a-string]
instead of E to B and G# to D# how it was tabbed

I want to post or [tab]
guest
You may want to rate the tab now too:
select rating
Please do not post tabs as comments. Select "correction" instead!