Oops, an error
Loading. Please wait.

Porcelain Heart Tab

ver3
ver3

Intro

Whole song

More versions @911Tabs.com
12,639 views 60 this week
5 commentsread comments
1 2 3 4 5
excellent!
x 2
Autoscroll
+/-
esc
set tempo
stop
Contributor
WARNING: You are trying to view
                                    content from Ultimate-Guitar.com
                                    in an unauthorized application,
                                    which is prohibited.

                                    Please use an official Ultimate
                                    Guitar Tabs application for iPhone,
                                    iPad or Android to access legitimate
                                    chords, guitar, bass, and drum tabs
                                    from Ultimate-Guitar.com database.

                                    Type "ultimate guitar tabs" in Apple
                                    App Store's or Android Market's
                                    search to find the application.
-------------------------------------------------------------------------------
                             Porcelain Heart - Opeth
-------------------------------------------------------------------------------

All credit to TG

Tuning D,A,D,G,B,E

Intro/Interlude 1

E|-------------------------------------------------------------------------|
B|-------------------------------------------------------------------------|
G|--7----9---9/10---10/13---13~~~~~~~~-------16/10/3-----------------------|
D|-------------------------------------------------------------------------|
A|--5----7---7/8----8/11----11~~~~~~~~-------14/8/1------------------------|
D|-------------------------------------------------------------------------|

E|-------------------------------------------------------------------------|
B|-------------------------------------------------------------------------|
G|--7----9---9/10---10/13---13~~~~~~~~-------16/10~~~~~~~~~~~~~~~~~--------|
D|-------------------------------------------------------------------------|
A|--5----7---7/8----8/11----11~~~~~~~~-------14----------------------------|
D|-------------------------------------------------------------------------|


Acoustic Section 1

Let ring---------------------------------------------------------------------|
E|---------------------------------------------------------------------------|
B|---------------------------------------------------------------------------|
G|----------------------------------0-----------------2-----1-----0----------|
D|-------0--------------------3--------3-----------2-----2-----2-----2-------|
A|-------------5-----------7-----7--------7----------------------------------|
D|--0-------------------0--------------------3--2----------------------------|
    p    m     i        p  i  m  i  a  m  i  p  p  i  m  i  m  i  m  i



Let ring---------------------------------------------------------------------|
E|---------------------------------------------------------------------------|
B|---------------------------------------------------------------------------|
G|----------------------------------0-----------------2-----1-----0----------|
D|----2/3---------------------3--------3-----------2-----2-----2-----2-------|
A|-------------5-----------7-----7--------7----------------------------------|
D|----------0-----------0--------------------3--2----------------------------|
        m   p  i


The last time you play this through end with...

E|----------|
B|----------|
G|----------|
D|---2/3----|
A|----------|
D|-----0----|



Interlude 2 - This follows the same pattern as the Intro, but the chords are used 
instead of octaves for a bigger sound, however you can still use the octaves.

E|-------------------------------------------------------------------------|
B|----------5--5/6---6/9----9----------------------------------------------|
G|----------4--4/5---5/8----8---------------------3------------------------|
D|--0-------2--2/3---3/6----6---------------------3-------1----------------|
A|--0-------2--2/3---3/6----6----5--4-------------1-------1----------------|
D|--0-------2--2/3---3/6----6----------2-----3------------1----------------|


E|-------------------------------------------------------------------------|
B|----------5--5/6---6/9----9----------------------------------------------|
G|----------4--4/5---5/8----8---------------------3------------------------|
D|--0-------2--2/3---3/6----6---------------------3------------------------|
A|--0-------2--2/3---3/6----6----5--4-------------1-------1/6~~~~~~~-------|
D|--0-------2--2/3---3/6----6----------2-----3-----------------------------|




Legato section - This is played on top of Interlude 3, starting just before it. It is a 
single phrase repeated over and over.

E|------------------|
B|------------------|
G|------------------|
D|----7h9h10p9p7----|
A|--7---------------|
D|------------------|



Interlude 3 Part 1

E|---------------------------------------------------------------------------|
B|---------------------------------------------------------------------------|
G|---------------------------------------------------------------------------|
D|---------------------------------------------------------------------------|
A|--2-------0----------------------------------------------------------------|
D|--2-------0----3--3--3--3--3--3--3--3--3--3--3--3--3--3--3--3--3--3--------|
                 PM----------------------------------------------------------|


E|---------------------------------------------------------------------------|
B|---------------------------------------------------------------------------|
G|---------------------------------------------------------------------------|
D|---------------------------------------------------------------------------|
A|--5-------3----------------------------------------------------------------|
D|--5-------3----7--7--7--7--7--7--7--7--7--7--7--7--7--7--7--7--7--7--------|
                 PM----------------------------------------------------------|


E|---------------------------------------------------------------------------|
B|---------------------------------------------------------------------------|
G|---------------------------------------------------------------------------|
D|---------------------------------------------------------------------------|
A|--8-------7----------------------------------------------------------------|
D|--8-------7----2--2--2--2--2--2--2--2--2--2--2--2--2--2--2--2--2--2--------|
                 PM----------------------------------------------------------|


E|---------------------------------------------------------------------------|
B|---------------------------------------------------------------------------|
G|---------------------------------------------------------------------------|
D|---------------------------------------------------------------------------|
A|--3-------2----------------------------------------------------------------|
D|--3-------2----0--0--0--0--0--0--0--0--0--0--0--0--0--0--0--0--0--0--------|
                 PM----------------------------------------------------------|



Interlude 3 Part 2

E|-------------------------------------------------------------------------|
B|-------------------------------------------------------------------------|
G|-------------------------------------------------------------------------|
D|--2----0----3-------5----3----7-------8----7----2-------3----2----0------|
A|--2----0----3-------5----3----7-------8----7----2-------3----2----0------|
D|--2----0----3-------5----3----7-------8----7----2-------3----2----0------|



Solo

E|-------------------------------------------------------------------------|
B|------------5~~~~~~~----5h6----------------------------------------------|
G|-----------------------------7----7p6----------------6---7---------------|
D|--7-------------------------------------7-------6/7----------------------|
A|-------------------------------------------------------------------------|
D|-------------------------------------------------------------------------|

E|--------------------------------------------------------------------9/10-|
B|--------------------------------8--10--11---------------9/10-------------|
G|--7/9------7--9--9/10-----9h10-------------9~~~~~~~----------------------|
D|-------------------------------------------------------------------------|
A|-------------------------------------------------------------------------|
D|-------------------------------------------------------------------------|

                      BU    BD
E|--------10--12----12--(13)--(12)-10--------------------------------------|
B|--9/10------------------------------13-----------------------5/6---------|
G|---------------------------------------12/10/9~~~~~~~~-------------------|
D|-------------------------------------------------------------------------|
A|-------------------------------------------------------------------------|
D|-------------------------------------------------------------------------|

E|-------------------------------------------------------------------------|
B|---6h5-------------------------------------------------------------------|
G|-------6-----------------------------------------------------------------|
D|---------7--------------5h7p5--------------------------------------------|
A|-------------------------------7/8---------------------------------------|
D|-------------------------------------------------------------------------|



Acoustic Section 2 Part 1


Let ring---------------------------------------------------------------------|
E|---------------------------------------------------------------------------|
B|---------------------5---------1---------0---------0---------0-------------|
G|--7--------4---------5---------2---------0---------0---------5-------------|
D|-----7--------7---------7---------2---------2---------0---------7----------|
A|--0-----0--------0---------0---------0---------0---------0---------0-------|
D|---------------------------------------------------------------------------|


Let ring---------------------------------------------------------------------|
E|---------------------------------------------------------------------------|
B|--0-------------------3---------5---------1---------3---------0------------|
G|--5---------7---------4---------5---------2---------4---------0------------|
D|-----7---------7---------0---------7---------2---------2---------0---------|
A|--------0---------0---------0---------0---------0---------0---------0------|
D|---------------------------------------------------------------------------|


Let ring------------------|
E|------------------------|
B|--0---------0-----------|
G|--5---------5-----------|
D|-----7---------7--------|
A|--------0---------0-----|
D|------------------------|


Acoustic Section 2 part 2


Let ring---------------------------------------------------------------------|
E|--1p0------------------------------------------------------5---------------|
B|--3---------3------1-----3-----1-------0-------------------5---------------|
G|--2----------------2-------------------2-------2-----------5---------------|
D|--0----------------2-------------------2-------2---------------------------|
A|-------------------0---------------------------------------0---------------|
D|---------------------------------------2-----------------------------------|



Outro


E|-------------------------------------------------------------------------|
B|-------------------------------------------------------------------------|
G|-------------------------------------------------------------------------|
D|--2----0----3-------5----3----7-------8----7----2-------3----2----0------|
A|--2----0----3-------5----3----7-------8----7----2-------3----2----0------|
D|--2----0----3-------5----3----7-------8----7----2-------3----2----0------|


   PM----------------------------------------------------------------------|
E|-------------------------------------------------------------------------|
B|-------------------------------------------------------------------------|
G|-------------------------------------------------------------------------|
D|-------------------------------------------------------------------------|
A|-------------------------------------------------------------------------|
D|--2--2--2--0--0--0--3--3--3--3--3--3--3--3--3--3--3--3--3--3--3--3--3--3-|


    PM---------------------------------------------------------------------|
E|-------------------------------------------------------------------------|
B|-------------------------------------------------------------------------|
G|-------------------------------------------------------------------------|
D|-------------------------------------------------------------------------|
A|-------------------------------------------------------------------------|
D|--5--5--5--3--3--3--7--7--7--7--7--7--7--7--7--7--7--7--7--7--7--7--7--7-|


   PM------------------------------------------------------------------------|
E|---------------------------------------------------------------------------|
B|---------------------------------------------------------------------------|
G|---------------------------------------------------------------------------|
D|---------------------------------------------------------------------------|
A|---------------------------------------------------------------------------|
D|--8--8--8--7--7--7--2--2--2--2--2--2--2--2--2--2--2--2--2--2--2--2--2--2---|


    PM---------------------------------------------------------------------|
E|-------------------------------------------------------------------------|
B|-------------------------------------------------------------------------|
G|-------------------------------------------------------------------------|
D|-------------------------------------------------------------------------|
A|-------------------------------------------------------------------------|
D|--3--3--3--2--2--2--0--0--0--0--0--0--0--0--0--0--0--0--0--0--0--0--0--0-|



E|-------------------------------------------------------------------------|
B|-------------------------------------------------------------------------|
G|-------------------------------------------------------------------------|
D|--2--2--2--0--0--0--3--3--3--3--3--3--3--3--3--3--3--3--3--3--3--3--3--3-|
A|--2--2--2--0--0--0--3--3--3--3--3--3--3--3--3--3--3--3--3--3--3--3--3--3-|
D|--2--2--2--0--0--0--3--3--3--3--3--3--3--3--3--3--3--3--3--3--3--3--3--3-|


E|-------------------------------------------------------------------------|
B|-------------------------------------------------------------------------|
G|-------------------------------------------------------------------------|
D|--5--5--5--3--3--3--7--7--7--7--7--7--7--7--7--7--7--7--7--7--7--7--7--7-|
A|--5--5--5--3--3--3--7--7--7--7--7--7--7--7--7--7--7--7--7--7--7--7--7--7-|
D|--5--5--5--3--3--3--7--7--7--7--7--7--7--7--7--7--7--7--7--7--7--7--7--7-|



E|-------------------------------------------------------------------------|
B|-------------------------------------------------------------------------|
G|-------------------------------------------------------------------------|
D|--8--8--8--7--7--7--2--2--2--2--2--2--2--2--2--2--2--2--2--2--2--2--2--2-|
A|--8--8--8--7--7--7--2--2--2--2--2--2--2--2--2--2--2--2--2--2--2--2--2--2-|
D|--8--8--8--7--7--7--2--2--2--2--2--2--2--2--2--2--2--2--2--2--2--2--2--2-|


E|-------------------------------------------------------------------------|
B|-------------------------------------------------------------------------|
G|-------------------------------------------------------------------------|
D|--3--3--3--2--2--2--0--0--0--0--0--0--0--0--0--0--0--0--0--0--0--0--0--0-|
A|--3--3--3--2--2--2--0--0--0--0--0--0--0--0--0--0--0--0--0--0--0--0--0--0-|
D|--3--3--3--2--2--2--0--0--0--0--0--0--0--0--0--0--0--0--0--0--0--0--0--0-|


And finally fish with...

E|------|
B|------|
G|------|
D|--0---|
A|--0---|
D|--0---|
comments
We did not receive enough feedback on this tab! Please rate:
1 2 3 4 5
5 comments total. Showing first comments.
0 reply
LostLegion wrote on August 25 2012, 07:28 am

You got this from Total Guitar. Come on, you can at least give credit.

0 reply
剣 斧 血 wrote on April 30 2013, 03:35 pm

I thought I did... Hang on.

0 reply
剣 斧 血 wrote on April 30 2013, 03:37 pm

Ah, I credited another tab but not this one. Once I figure out how to use this bit again I'll edit it.

I want to post or [tab]
guest
You may want to rate the tab now too:
select rating
Please do not post tabs as comments. Select "correction" instead!