Oops, an error
Loading. Please wait.

Asterisk Tab

ver2
ver2

Intro

Whole song

Interactive

More versions @911Tabs.com
8,189 views 6 this week
3 commentsread comments
1 2 3 4 5
accurate
x 4
Autoscroll
+/-
esc
set tempo
stop
Contributor
Difficulty
Tuning
intermediate
D A D G B E
WARNING: You are trying to view
                                    content from Ultimate-Guitar.com
                                    in an unauthorized application,
                                    which is prohibited.

                                    Please use an official Ultimate
                                    Guitar Tabs application for iPhone,
                                    iPad or Android to access legitimate
                                    chords, guitar, bass, and drum tabs
                                    from Ultimate-Guitar.com database.

                                    Type "ultimate guitar tabs" in Apple
                                    App Store's or Android Market's
                                    search to find the application.
This is a video of me playing both guitars using this tab
http://www.youtube.com/watch?v=hS1hNDVfIkg


Guitar 1


toggle switch on 5 neck


E|--------------------------------------------------------------------------|
B|--------------------------------------------------------------------------|
G|--------------------------------------------------------------------------|
D|3----------5----------7---------------------------------------------------|
A|3----------5----------7---------------------------------------------------|
D|3----------5----------7---------------------------------------------------|


E|--------------------------------------------------------------------------|
B|--------------------------------------------------------------------------|
G|--------------------------------------------------------------------------|
D|3----------5----------7---------------------------------------------------|
A|3----------5----------7---------------------------------------------------|
D|3----------5----------7---------------------------------------------------|


E|--------------------------------------------------------------------------|
B|--------------------------------------------------------------------------|
G|14\4/5-5-5--5-5-5-5/7-7\5-5/9-9\4-4/5-5-5--5-5-5-5/12-12\10-10\9-9\-------|
D|-X\X/X-X-X--X-X-X-X/X-X\X-X/X-X\X-X/X-X-X--X-X-X-X/-X--X\-X--X\X-X\-------|
A|12\2/3-3-3--3-3-3-3/5-5\3-3/7-7\2-2/3-3-3--3-3-3-3/10-10\-8--8\7-7\-------|
D|--------------------------------------------------------------------------|


E|--------------------------------------------------------------------------|
B|--------------------------------------------------------------------------|
G|4-4/5-5-5--5-5-5-5/7-7\5-5/9-9\4-4/5-5-5--5-5-5-5-------------------------|
D|X-X/X-X-X--X-X-X-X/X-X\X-X/X-X\X-X/X-X-X--X-X-X-X-------------------------|
A|2-2/3-3-3--3-3-3-3/5-5\3-3/7-7\2-2/3-3-3--3-3-3-3-------------------------|
D|--------------------------------------------------------------------------|


E|--------------------------------------------------------------------------|
B|--------------------------------------------------------------------------|
G|--------------------------------------------------------------------------|
D|--------------------------------------------------------------------------|
A|--------------------------------------------------------------------------|
D|--------------------------------------------------------------------------|


E|--------------------------------------------------------------------------|
B|--------------------------------------------------------------------------|
G|--------------------------------------------------------------------------|
D|--------------------------------------------------------------------------|
A|--------------------------------------------------------------------------|
D|--------------------------------------------------------------------------|


E|--------------------------------------------------------------------------|
B|--------------------------------------------------------------------------|
G|-------------------------7------------------------------------------------|
D|15\3----------2----------7----------5-------------------------------------|
A|15\3----------2----------5----------5-------------------------------------|
D|15\3----------2---------------------5-------------------------------------|


E|--------------------------------------------------------------------------|
B|--------------------------------------------------------------------------|
G|--------------------------------------------------------------------------|
D|--------------------------------------------------------------------------|
A|--------------------------------------------------------------------------|
D|--------------------------------------------------------------------------|


E|--------------------------------------------------------------------------|
B|--------------------------------------------------------------------------|
G|--------------------------------------------------------------------------|
D|3---3-3---3-3-3-5---5-5---5-5-5-7---7-7---7-7-7-7---7-7---7-7-7-----------|
A|3---3-3---3-3-3-5---5-5---5-5-5-7---7-7---7-7-7-7---7-7---7-7-7-----------|
D|3---3-3---3-3-3-5---5-5---5-5-5-7---7-7---7-7-7-7---7-7---7-7-7-----------|


E|--------------------------------------------------------------------------|
B|--------------------------------------------------------------------------|
G|--------------------------------------------------------------------------|
D|3---3-3---3-3-3-5---5-5---5-5-5-7---7-7---7-7-7-7---7-7---7-7-7-----------|
A|3---3-3---3-3-3-5---5-5---5-5-5-7---7-7---7-7-7-7---7-7---7-7-7-----------|
D|3---3-3---3-3-3-5---5-5---5-5-5-7---7-7---7-7-7-7---7-7---7-7-7-----------|


E|--------------------------------------------------------------------------|
B|--------------------------------------------------------------------------|
G|--------------------------------------------------------------------------|
D|3---3-3---3-3-3-5---5-5---5-5-5-7---7-7---7-7-7-7---7-7---7-7-7-----------|
A|3---3-3---3-3-3-5---5-5---5-5-5-7---7-7---7-7-7-7---7-7---7-7-7-----------|
D|3---3-3---3-3-3-5---5-5---5-5-5-7---7-7---7-7-7-7---7-7---7-7-7-----------|


E|--------------------------------------------------------------------------|
B|--------------------------------------------------------------------------|
G|--------------------------------------------------------------------------|
D|3---3-3---3-3-3-5---5-5---5-5-5-7---7-7---7-7-7-7---7-7---7-7-7-----------|
A|3---3-3---3-3-3-5---5-5---5-5-5-7---7-7---7-7-7-7---7-7---7-7-7-----------|
D|3---3-3---3-3-3-5---5-5---5-5-5-7---7-7---7-7-7-7---7-7---7-7-7-----------|


E|--------------------------------------------------------------------------|
B|--------------------------------------------------------------------------|
G|4/5-5-5--5-5-5-5/7-7\5-5/9-9\4-4/5-5-5--5-5-5-5/12-12\10-10\9-9\----------|
D|X/X-X-X--X-X-X-X/X-X\X-X/X-X\X-X/X-X-X--X-X-X-X/-X--X\-X--X\X-X\----------|
A|2/3-3-3--3-3-3-3/5-5\3-3/7-7\2-2/3-3-3--3-3-3-3/10-10\-8--8\7-7\----------|
D|--------------------------------------------------------------------------|


E|--------------------------------------------------------------------------|
B|--------------------------------------------------------------------------|
G|4-4/5-5-5--5-5-5-5/7-7\5-5/9-9\4-4/5-5-5--5-5-5-5-------------------------|
D|X-X/X-X-X--X-X-X-X/X-X\X-X/X-X\X-X/X-X-X--X-X-X-X-------------------------|
A|2-2/3-3-3--3-3-3-3/5-5\3-3/7-7\2-2/3-3-3--3-3-3-3-------------------------|
D|--------------------------------------------------------------------------|


E|--------------------------------------------------------------------------|
B|--------------------------------------------------------------------------|
G|--------------------------------------------------------------------------|
D|--------------------------------------------------------------------------|
A|--------------------------------------------------------------------------|
D|--------------------------------------------------------------------------|


E|--------------------------------------------------------------------------|
B|--------------------------------------------------------------------------|
G|--------------------------------------------------------------------------|
D|--------------------------------------------------------------------------|
A|--------------------------------------------------------------------------|
D|--------------------------------------------------------------------------|


E|--------------------------------------------------------------------------|
B|--------------------------------------------------------------------------|
G|----------------------7---------------------------------------------------|
D|3----------2----------7----------5----------------------------------------|
A|3----------2----------5----------5----------------------------------------|
D|3----------2---------------------5----------------------------------------|


E|--------------------------------------------------------------------------|
B|--------------------------------------------------------------------------|
G|--------------------------------------------------------------------------|
D|--------------------------------------------------------------------------|
A|--------------------------------------------------------------------------|
D|--------------------------------------------------------------------------|


E|--------------------------------------------------------------------------|
B|--------------------------------------------------------------------------|
G|--------------------------------------------------------------------------|
D|3---3-3---3-3-3-5---5-5---5-5-5-7---7-7---7-7-7-7---7-7---7-7-7-----------|
A|3---3-3---3-3-3-5---5-5---5-5-5-7---7-7---7-7-7-7---7-7---7-7-7-----------|
D|3---3-3---3-3-3-5---5-5---5-5-5-7---7-7---7-7-7-7---7-7---7-7-7-----------|


E|--------------------------------------------------------------------------|
B|--------------------------------------------------------------------------|
G|--------------------------------------------------------------------------|
D|3---3-3---3-3-3-5---5-5---5-5-5-7---7-7---7-7-7-7---7-7---7-7-7-----------|
A|3---3-3---3-3-3-5---5-5---5-5-5-7---7-7---7-7-7-7---7-7---7-7-7-----------|
D|3---3-3---3-3-3-5---5-5---5-5-5-7---7-7---7-7-7-7---7-7---7-7-7-----------|


E|--------------------------------------------------------------------------|
B|--------------------------------------------------------------------------|
G|--------------------------------------------------------------------------|
D|3---3-3---3-3-3-5---5-5---5-5-5-7---7-7---7-7-7-7---7-7---7-7-7-----------|
A|3---3-3---3-3-3-5---5-5---5-5-5-7---7-7---7-7-7-7---7-7---7-7-7-----------|
D|3---3-3---3-3-3-5---5-5---5-5-5-7---7-7---7-7-7-7---7-7---7-7-7-----------|


E|--------------------------------------------------------------------------|
B|--------------------------------------------------------------------------|
G|--------------------------------------------------------------------------|
D|3---3-3---3-3-3-5---5-5---5-5-5-7---7-7---7-7-7-7---7-7---7-7-7-----------|
A|3---3-3---3-3-3-5---5-5---5-5-5-7---7-7---7-7-7-7---7-7---7-7-7-----------|
D|3---3-3---3-3-3-5---5-5---5-5-5-7---7-7---7-7-7-7---7-7---7-7-7-----------|


E|--------------------------------------------------------------------------|
B|--------------------------------------------------------------------------|
G|4/5-5-5--5-5-5-5/7-7\5-5/9-9\4-4/5-5-5--5-5-5-5/12-12\10-10\9-9\----------|
D|X/X-X-X--X-X-X-X/X-X\X-X/X-X\X-X/X-X-X--X-X-X-X/-X--X\-X--X\X-X\----------|
A|2/3-3-3--3-3-3-3/5-5\3-3/7-7\2-2/3-3-3--3-3-3-3/10-10\-8--8\7-7\----------|
D|--------------------------------------------------------------------------|


E|--------------------------------------------------------------------------|
B|--------------------------------------------------------------------------|
G|4-4/5-5-5--5-5-5-5/7-7\5-5/9-9\4-4/5-5-5--5-5-5-5/12-12\10-10\9-9\--------|
D|X-X/X-X-X--X-X-X-X/X-X\X-X/X-X\X-X/X-X-X--X-X-X-X/-X--X\-X--X\X-X\--------|
A|2-2/3-3-3--3-3-3-3/5-5\3-3/7-7\2-2/3-3-3--3-3-3-3/10-10\-8--8\7-7\--------|
D|--------------------------------------------------------------------------|


Guitar 2


toggle switch on 3 middle


E|--------------------------------------------------------------------------|
B|-------6--------------6---------------8--------------8--------------------|
G|---5------5---5---5------5---5----5------5---5---5------5---5-------------|
D|/3---3------3---5---5------5---/7---7------7---7---7------7---------------|
A|--------------------------------------------------------------------------|
D|--------------------------------------------------------------------------|


E|--------------------------------------------------------------------------|
B|-------6--------------6---------------8------------8-----8----------------|
G|---5------5---5---5------5---5----5------5---5---5---5--------------------|
D|/3---3------3---5---5------5---/7---7------7---7-------7------------------|
A|--------------------------------------------------------------------------|
D|--------------------------------------------------------------------------|


E|--------------------------------------------------------------------------|
B|--------------------------------------------------------------------------|
G|--------------------------------------------------------------------------|
D|--------------------------------------------------------------------------|
A|--------------------------------------------------------------------------|
D|--------------------------------------------------------------------------|


E|--------------------------------------------------------------------------|
B|--------------------------------------------------------------------------|
G|--------------------------------------------------------------------------|
D|--------------------------------------------------------------------------|
A|--------------------------------------------------------------------------|
D|--------------------------------------------------------------------------|


E|--------------------------------------------------------------------------|
B|--------------------------------------------------------8-----------------|
G|--5-7-9-5---5-7-9-5---5-7-9-5---5-7-9-5---5-7-9-5---5-7---5---------------|
D|7---------7---------7---------7---------7---------7-----------------------|
A|--------------------------------------------------------------------------|
D|--------------------------------------------------------------------------|


E|--------------------------------------------------------------------------|
B|------------------------------------------------------------8-------------|
G|------5-7-9-5---5-7-9-5---5-7-9-5---5-7-9-5---5-7-9-5---5-7---5-----------|
D|7-7-7---------7---------7---------7---------7---------7-------------------|
A|--------------------------------------------------------------------------|
D|--------------------------------------------------------------------------|


E|--------------------------------------------------------------------------|
B|--------------------------------------------------------------------------|
G|--------------------------------------------------------------------------|
D|--------------------------------------------------------------------------|
A|--------------------------------------------------------------------------|
D|--------------------------------------------------------------------------|


E|--------------------------------------------------------------------------|
B|--------------------------------------------------------------------------|
G|12-------12-------12------------------------------------------------------|
D|---10-------10-------10---------------------------------------------------|
A|------10-------10---------------------------------------------------------|
D|--------------------------------------------------------------------------|


E|--------------------------------------------------------------------------|
B|--------------------------------------------------------------------------|
G|12-12--------------12-12--------------12-12--------------12-12------------|
D|------9-10---------------9-10---------------9-10---------------9-1--------|
A|------------10-----------------10-----------------10----------------10----|
D|--------------------------------------------------------------------------|


E|--------------------------------------------------------------------------|
B|--------------------------------------------------------------------------|
G|12-12--------------12-12--------------12-12--------------12-12------------|
D|------9-10---------------9-10---------------9-10---------------9-1--------|
A|------------10-----------------10-----------------10----------------10----|
D|--------------------------------------------------------------------------|


E|--------------------------------------------------------------------------|
B|--------------------------------------------------------------------------|
G|12-12--------------12-12--------------12-12--------------12-12------------|
D|------9-10---------------9-10---------------9-10---------------9-1--------|
A|------------10-----------------10-----------------10----------------10----|
D|--------------------------------------------------------------------------|


E|--------------------------------------------------------------------------|
B|--------------------------------------------------------------------------|
G|12-12--------------12-12--------------12-12--------------12-12------------|
D|------9-10---------------9-10---------------9-10---------------9-1--------|
A|------------10-----------------10-----------------10----------------10----|
D|--------------------------------------------------------------------------|


E|--------------------------------------------------------------------------|
B|--------------------------------------------------------------------------|
G|--------------------------------------------------------------------------|
D|--------------------------------------------------------------------------|
A|--------------------------------------------------------------------------|
D|--------------------------------------------------------------------------|


E|--------------------------------------------------------------------------|
B|--------------------------------------------------------------------------|
G|--------------------------------------------------------------------------|
D|--------------------------------------------------------------------------|
A|--------------------------------------------------------------------------|
D|--------------------------------------------------------------------------|


E|--------------------------------------------------------------------------|
B|--------------------------------------------------------------------------|
G|--------------------------------------------------------------------------|
D|--------------------------------------------------------------------------|
A|--------------------------------------------------------------------------|
D|--------------------------------------------------------------------------|


E|--------------------------------------------------------------------------|
B|--------------------------------------------------------------------------|
G|------------------------------------12------------------------------------|
D|-----------------------------------------10---12--------------------------|
A|---------------------------------------------------10---------------------|
D|--------------------------------------------------------------------------|


E|--------------------------------------------------------------------------|
B|--------------------------------------------------------------------------|
G|--------------------------------------------------------------------------|
D|--------------------------------------------------------------------------|
A|--------------------------------------------------------------------------|
D|--------------------------------------------------------------------------|


E|--------------------------------------------------------------------------|
B|--------------------------------------------------------------------------|
G|12-------12-------12------------------------------------------------------|
D|---10-------10-------10---------------------------------------------------|
A|------10-------10---------------------------------------------------------|
D|--------------------------------------------------------------------------|


E|--------------------------------------------------------------------------|
B|--------------------------------------------------------------------------|
G|12-12--------------12-12--------------12-12--------------12-12------------|
D|------9-10---------------9-10---------------9-10---------------9-1--------|
A|------------10-----------------10-----------------10----------------10----|
D|--------------------------------------------------------------------------|


E|--------------------------------------------------------------------------|
B|--------------------------------------------------------------------------|
G|12-12--------------12-12--------------12-12--------------12-12------------|
D|------9-10---------------9-10---------------9-10---------------9-1--------|
A|------------10-----------------10-----------------10----------------10----|
D|--------------------------------------------------------------------------|


E|--------------------------------------------------------------------------|
B|--------------------------------------------------------------------------|
G|12-12--------------12-12--------------12-12--------------12-12------------|
D|------9-10---------------9-10---------------9-10---------------9-1--------|
A|------------10-----------------10-----------------10----------------10----|
D|--------------------------------------------------------------------------|


E|--------------------------------------------------------------------------|
B|--------------------------------------------------------------------------|
G|12-12--------------12-12--------------12-12--------------12-12------------|
D|------9-10---------------9-10---------------9-10---------------9-1--------|
A|------------10-----------------10-----------------10----------------10----|
D|--------------------------------------------------------------------------|
comments
print report bad tab
3 comments total.
0 reply
Alexian3007 wrote on September 10 2011, 05:09 pm

I watched your video on youtube well done :)

0 reply
Alexian3007 wrote on September 17 2011, 09:37 am

---15-15-------------------------
---------13-13--15-15------------
-----------------------12-12-----
---------------------------------
---------------------------------
--------------------------------- This is what the bit in the 2nd verse is, Its an octave higher than what you put.

0 reply
Alexian3007 wrote on September 17 2011, 09:39 am

---15-15-------------------------
---------13-13--15-15------------
-----------------------12-12-----
---------------------------------
---------------------------------
--------------------------------- This is what the bit in the 2nd verse is, Its an octave higher than what you put.

I want to post or [tab]
guest
You may want to rate the tab now too:
select rating
Please do not post tabs as comments. Select "correction" instead!