Oops, an error
Loading. Please wait.

Echoes Of Decimation Tab

1,131 views 1 this week
1 commentread comment
1 2 3 4 5
please rate
add to favorites launch autoscroll
font size
0
reset
Autoscroll
+/-
esc
set tempo
stop
Contributor
WARNING: You are trying to view
                                    content from Ultimate-Guitar.com
                                    in an unauthorized application,
                                    which is prohibited.

                                    Please use an official Ultimate
                                    Guitar Tabs application for iPhone,
                                    iPad or Android to access legitimate
                                    chords, guitar, bass, and drum tabs
                                    from Ultimate-Guitar.com database.

                                    Type "ultimate guitar tabs" in Apple
                                    App Store's or Android Market's
                                    search to find the application.
-------------------------------------------------------------------------------
                             Endless Cure - Origin
-------------------------------------------------------------------------------
Tabbed by: Anonymous

Tuning: Drop B

Riff 1a (0:01)
|------------------------------------------------------------------------------|
|------------------------------------------------------------------------------|
|------------------------------------------------------------------------------|
|----3344-----6677---------6-------6-------6666---------6-------6------6-7-9-7-|
|2-1------1-0------6----------------------------6------------------------------|
|2-1------1-0--------7-6-4---7-6-4---7-6-4--------7-6-4---7-6-4---7-6-4--------|
 . .      . .        . . .   . . .   . . .        . . .   . . .   . . .

|-----------------------------------------------------------|
|-----------------------------------------------------------|
|-----------------------------------------------------------|
|6-------6-------6-------6666------3---2-----7---6-----9999-|
|------------------------------2-1-------6-5-------8-7------|
|--7-6-4---7-6-4---7-6-4-------2-1---1---6-5---5---8-7------|
   . . .   . . .   . . .       . .       . .       . .


|--------------------------------------------------------------|
|--------------------------------------------------------------|
|--------------------------------------------------------------|
|---------6-------6-------6666---------6-------6-------6-7-9-6-|
|-6----------------------------6-------------------------------|
|---7-6-4---7-6-4---7-6-4--------7-6-4---7-6-4---7-6-4---------|
    . . .   . . .   . . .        . . .   . . .   . . .


|-------------------------|
|-------------------------|
|-------------------------|
|-6-------6-------6-------|
|-------------------------|
|---7-6-4---7-6-4---7-6-4-|
    . . .   . . .   . . .

Riff 1b (0:17) Guitar 1
|------------------------------------------------------------------------------|
|------------------------------------------------------------------------------|
|------------------------------------------------------------------------------|
|----3344-----6677---------6-------6-------6666---------6-------6------6-7-9-7-|
|2-1------1-0------6----------------------------6------------------------------|
|2-1------1-0--------7-6-4---7-6-4---7-6-4--------7-6-4---7-6-4---7-6-4--------|
 . .      . .        . . .   . . .   . . .        . . .   . . .   . . .
               Guitar 2
|------------------------------------------------------------------------------|
|------------------------------------------------------------------------------|
|-------------4455---------3-------4-------4444---------4-------4------4-5-7-5-|
|----3344----------------------------------------------------------------------|
|2-1------1-0------6----------------------------6------------------------------|
|2-1------1-0--------7-6-4---7-6-4---7-6-4--------7-6-4---7-6-4---7-6-4--------|
 . .      . .        . . .   . . .   . . .        . . .   . . .   . . .


|-----------------------------------------------------------|
|-----------------------------------------------------------|
|-----------------------------------------------------------|
|6-------6-------6-------6666------3---2-----7---6-----9999-| gtr 1
|------------------------------2-1-------6-5-------8-7------|
|--7-6-4---7-6-4---7-6-4-------2-1---1---6-5---5---8-7------|
   . . .   . . .   . . .       . .       . .       . .


|-----------------------------------------------------------|
|-----------------------------------------------------------|
|4-------4-------4------------------------------------------|
|------------------------6666------3---2-----7---6-----9999-| gtr 2
|------------------------------2-1-------6-5-------8-7------|
|--7-6-4---7-6-4---7-6-4-------2-1---1---6-5---5---8-7------|
   . . .   . . .   . . .       . .       . .       . .


|--------------------------------------------------------------|
|--------------------------------------------------------------|
|--------------------------------------------------------------|
|---------6-------6-------6666---------6-------6-------6-7-9-6-| gtr 1
|-6----------------------------6-------------------------------|
|---7-6-4---7-6-4---7-6-4--------7-6-4---7-6-4---7-6-4---------|
    . . .   . . .   . . .        . . .   . . .   . . .

|--------------------------------------------------------------|
|--------------------------------------------------------------|
|--------------------------------------------------------------|
|---------6-------6-------6666---------6-------6-------6-7-9-6-| gtr 2
|-6----------------------------6-------------------------------|
|---7-6-4---7-6-4---7-6-4--------7-6-4---7-6-4---7-6-4---------|
    . . .   . . .   . . .        . . .   . . .   . . .


|------------------------------------------------|
|------------------------------------------------|
|------------------------------------------------|
|---------6-------6-------6666-----3344-----6677-| gtr 1
|-6----------------------------2-1------1-0------|
|---7-6-4---7-6-4---7-6-4------2-1------1-0------|
    . . .   . . .   . . .      . .      . .


|------------------------------------------------|
|------------------------------------------------|
|------------------------------------------------|
|---------6-------6-------6666-----3344-----6677-| gtr 2
|-6----------------------------2-1------1-0------|
|---7-6-4---7-6-4---7-6-4------2-1------1-0------|
    . . .   . . .   . . .      . .      . .


Riff 2a (0:34)
|------------------------------------------------------------------|
|--------------------------------------------666666665566----------|
|-7p5p3\1---7p5p3\1--------7p5p3\1---7p5p3h7-------------66666666--|
|---------2---------2--------------2-------------------------------|
|------------------------------------------------------------------|
|---------------------0"-------------------------------------------|


Riff 2b (0:38)
|---------------------------------------------------------------|
|---------------------------------------------------------------|
|-7p5p3\1---7p5p3\1--------7p5p3\1---7p5p3h7--------------------|
|---------2---------2--------------2-------------3344-----6677--|
|--------------------------------------------2-1------1-0-------|
|---------------------0"---------------------2-1------1-0-------|
                                             . .      . .

Riff 2a x 1 (0:43)


Riff 2c (0:46)
|---------------------------------------------------------------|
|---------------------------------------------------------------|
|-7p5p3\1---7p5p3\1--------7p5p3\1---7p5p3h7--------------------|
|---------2---------2--------------2-------------3344-----6677--|
|--------------------------------------------2-1------1-0-------|
|---------------------0"---------------------2-1------1-0-------|
                                             . .      . .

|---------------------------------------------------------------|
|---------------------------------------------------------------|
|-7p5p3\1---7p5p3\1--------7p5p3\1---7p5p3h7--------------4455--|
|---------2---------2--------------2-------------3344-----------|
|--------------------------------------------2-1------1-0-------|
|---------------------0"---------------------2-1------1-0-------|
                                             . .      . .


Riff 4 0:53
|-------------------------------|--------------------------6666-|
|-------------------------------|---------------------6666------|
|--7777------7777------77777777-|-6666-3333---------------------|
|-------4444------4444----------|-----------7777-4444-----------|
|-------------------------------|-------------------------------|
|-------------------------------|-------------------------------|


Riff 5 1:08
|----------------------------------15h19p15---------|
|--------------------------------15--------15-------|
|-7777------7777------7777-----16------------16-----|
|------4444------4444--------16----------------16---|
|--------------------------17--------------------17-|
|---------------------------------------------------|


|--------------------------6666-|
|---------------------6666------|
|-6666-3333---------------------|
|-----------7777-4444-----------|
|-------------------------------|
|-------------------------------|


Riff 6                    Ending 1                Ending 2
|----------------------|----------------------|--------------------------|
|----------------------|----------------------|--------------------------|
|----------------------|----------------------|--------------------------|
|-------3333-------3333|--------3333-66-77-99-|--------------------------|
|-2-1-2------2-1-2-----|-2-1-2----------------|-4-3-2-1-2-3--3-2-1-0-1-2-|
|-2-1-2------2-1-2-----|-2-1-2----------------|-4-3-2-1-2-3--3-2-1-0-1-2-|
      .          . .         .                  . . . . . .  . . . . . .

Riff 7a (1:45)
|--------------------------------------------------------|
|--------------------------------------------------------|
|----------------------------------------7777----777777--|
|--------------------------------------------0000--------|
|-0-1-2-3-2-1--4-3-2-1-1-2--0-1-2-3-2-1------------------|
|-0-1-2-3-2-1--4-3-2-1-1-2--0-1-2-3-2-1------------------|
  . . . . . .  . . . . . .  . . . . . .


Riff 7b (1:48)
|--------------------------------------------------------|
|--------------------------------------------------------|
|----------------------------------------7777----777766--|
|--------------------------------------------0000--------|
|-0-1-2-3-2-1--4-3-2-1-1-2--0-1-2-3-2-1------------------|
|-0-1-2-3-2-1--4-3-2-1-1-2--0-1-2-3-2-1------------------|
  . . . . . .  . . . . . .  . . . . . .

Riff 7c (1:51)
|--------------------------------------------------------|
|--------------------------------------------------------|
|----------------------------------------7777----777777--|
|--------------------------------------------0000--------| gtr 1
|-0-1-2-3-2-1--4-3-2-1-1-2--0-1-2-3-2-1------------------|
|-0-1-2-3-2-1--4-3-2-1-1-2--0-1-2-3-2-1------------------|
  . . . . . .  . . . . . .  . . . . . .

|--------------------------------------------------------|
|----------------------------------------6666----666666--|
|--------------------------------------------------------|
|--------------------------------------------0000--------| gtr 2
|-0-1-2-3-2-1--4-3-2-1-1-2--0-1-2-3-2-1------------------|
|-0-1-2-3-2-1--4-3-2-1-1-2--0-1-2-3-2-1------------------|
  . . . . . .  . . . . . .  . . . . . .

Riff 7d (1:54)
|--------------------------------------------------------|
|--------------------------------------------------------|
|----------------------------------------7777----777766--|
|--------------------------------------------0000--------| gtr 1
|-0-1-2-3-2-1--4-3-2-1-1-2--0-1-2-3-2-1------------------|
|-0-1-2-3-2-1--4-3-2-1-1-2--0-1-2-3-2-1------------------|
  . . . . . .  . . . . . .  . . . . . .

|--------------------------------------------------------|
|----------------------------------------6666----666655--|
|--------------------------------------------------------|
|--------------------------------------------0000--------| gtr 2
|-0-1-2-3-2-1--4-3-2-1-1-2--0-1-2-3-2-1------------------|
|-0-1-2-3-2-1--4-3-2-1-1-2--0-1-2-3-2-1------------------|
  . . . . . .  . . . . . .  . . . . . .

Riff 6 x 1 (1:57)

Riff 8 (2:08)             Ending 1                Ending 2
|------------------------|----------------------|--------------------------------|
|------------------------|----------------------|--------------------------------|
|------------------------|----------------------|--------------------------------|
|-------3333---------3333|--------3333-66-77-99-|--------------------------gtr 1-|
|-2-1-2------2-1-2-------|-2-1-2----------------|-4-3-2-1-2-3--3-2-1-0-1-2-------|
|-2-1-2------2-1-2-------|-2-1-2----------------|-4-3-2-1-2-3--3-2-1-0-1-2-------|
      .          .             .                  . . . . . .  . . . . . .

|-----------------------|----------------------|--------------------------|
|-----------------------|----------------------|--------------------------|
|-----------------------|----------------55-77-|--------------------------|
|-------6666--------6666|--------6666-99-------|--------------------------|gtr 2
|-2-1-2------2-1-2------|-2-1-2----------------|-4-3-2-1-2-3--3-2-1-0-1-2-|
|-2-1-2------2-1-2------|-2-1-2----------------|-4-3-2-1-2-3--3-2-1-0-1-2-|
      .          .            .                  . . . . . .  . . . . . .

Riff 6 x 1 (2:13)
End (2:19)


.  - palm mute           /  - slide up to
\  - slide down to       ~  - vibrato
h  - hammer on           b  - Bend
p  - pull off            Suffixes for bend
t  - tap                 f  - full bend    h - half bend
ph - pinched harmonic    q  - quarter bend t - tap bend
*  - see comment         ^  - Hold bend    r release bend
x  - Stuccatto           ~  - vibrato bend
,  - slight palm mute    () - ghost note, sustained note
"  - tremolo note        <> - Trill

===============================================================================
comments
We did not receive enough feedback on this tab! Please rate:
1 2 3 4 5
1 comment total.
0 reply
cptazad wrote on September 9 2011, 12:08 am

this is endless cure, not echoes of decimation

I want to post or [tab]
guest
You may want to rate the tab now too:
select rating
Please do not post tabs as comments. Select "correction" instead!