Oops, an error
Loading. Please wait.

Larvae Of The Lie Tab

ver1
ver1

Whole song

Interactive

More versions @911Tabs.com
655 views 1 this week
no commentswrite comment
1 2 3 4 5
please rate
Autoscroll
+/-
esc
set tempo
stop
Contributor
Hey! There's an official Ultimate Guitar app which is ideal
for learning songs when you're away from computer. Get the app
WARNING: You are trying to view
                                    content from Ultimate-Guitar.com
                                    in an unauthorized application,
                                    which is prohibited.

                                    Please use an official Ultimate
                                    Guitar Tabs application for iPhone,
                                    iPad or Android to access legitimate
                                    chords, guitar, bass, and drum tabs
                                    from Ultimate-Guitar.com database.

                                    Type "ultimate guitar tabs" in Apple
                                    App Store's or Android Market's
                                    search to find the application.
-------------------------------------------------------------------------------
                             Larvae of the Lie - Origin
-------------------------------------------------------------------------------
Tabbed by: Anonymous

Tuning: Dropped B (B, F#, B, e, g#, c#)

[Riff 1]
||---------------------------------------------[x3]-||---------------------|
||o------------------------------------------------o||---------------------|
||--11"-------11"-------11"-12"-8"------------------||-11"-------11"-------|
||------8"-7"-----8"-7"------------10"--------------||-----8"-7"-----8"-7"-|
||o------------------------------------10"---------o||---------------------|
||-----------------------------------------13"-10"--||---------------------|
|                                                    |
||---------------------------------------------[x3]-||---------------------|
||o------------------------------------------------o||---------------------|
||--11"-------11"-------11"-12"-8"------------------||---------------------|
||------8"-7"-----8"-7"------------10"--------------||-12"-------12"-------|
||o------------------------------------10"---------o||-----9"-8"-----9"-8"-|
||-----------------------------------------13"-10"--||---------------------|

----------------------------|
----------------------------|
-11"-12"-8"-----------------|
------------10"-------------|
----------------10"---------|
--------------------13"-10"-|
                            |
----------------------------|
----------------------------|
-11"-12"-8"-----------------|
------------10"-------------|
----------------10"---------|
--------------------13"-10"-|

[Riff 2] /very fast picking!!!/
||-----------------------------------------------------|
||o----------------------------------------------------|
||-----------------------------------------------------|
||--------------------------------------------4"-5"-7"-|
||o----------------------------------------------------|
||--11-1-1-1-22-2-11-1-1-1-11-1-11-1-1-1-11-1----------|
    .. . . . .. . .. . . . .. . .. . . . .. .

-------------------------------------------------[x3]-||
-----------------------------------------------------o||
------------------------------------------------------||
-----------------------------3"----------2"-----------||
-----------------------------------------------------o||
-11-1-1-1-22-2-11-1-1-1-11-1----2-1-11-1----2-1-11-1--||
 .. . . . .. . .. . . . .. .    . . .. .    . . .. .

|----------------------------------------------------|
|----------------------------------------------------|
|----------------------------------------------------|
|-------------------------------------------4"-5"-7"-|
|----------------------------------------------------|
|-11-1-1-1-22-2-11-1-1-1-11-1-11-1-1-1-11-1----------|
    .. . . . .. . .. . . . .. . .. . . . .. .

-----------------------------|-----------------------------------------------|
-----------------------------|-3"--------------------------------------------|
-----------------------------|-------------2"----------3"---------2"---------|
-----------------------------|-----------------------------------------------|
-----------------------------|-----------------------------------------------|
-11-1-1-1-22-2-11-1-1-1-11-1-|----2-1-11-1----2-1-11-1---2-1-11-1---2-1-11-1-|
 .. . . . .. . .. . . . .. .      . . .. .    . . .. .   . . .. .   . . .. .

-|-----------------------------------------------|------------------[x2]-|
-|-----------------------------------------------|-----------------------|
-|-7"----------6"----------7"---------6"---------|-3"---------2"---------|
-|-----------------------------------------------|-----------------------|
-|-----------------------------------------------|-----------------------|
-|----2-1-11-1----2-1-11-1---2-1-11-1---2-1-11-1-|---2-1-11-1---2-1-11-1-|
      . . .. .    . . .. .   . . .. .   . . .. .     . . .. .   . . .. .

|----------------------------|-----------------------------|
|----------------------------|-----------------------------|
|-77-----66-------66---------|-77-----66-------66----------|
|----------------------------|-----------------------------|
|----9-9------8-8----8---8-8-|----9-9------8-8----8---8-8--|
|----9-9----0-8-8----8-0-8-8-|----9-9----0-8-8----8-0-8-8--|
     . .    . . .    . . . .      . .    . . .    . . . .

-|------------------------------------------------|
-|------------------------------------------------|
-|-3"----------2"----------3"---------2"----------|
-|------------------------------------------------|
-|------------------------------------------------|
-|----2-1-11-1----2-1-11-1---2-1-11-1---2-1-11-1--|
 |    . . .. .    . . .. .   . . .. .   . . .. . |
-|------------------------------------------------|
-|-3"---------------------------------------------|
-|-------------2"----------3"---------2"----------|
-|------------------------------------------------|
-|------------------------------------------------|
-|----2-1-11-1----2-1-11-1---2-1-11-1---2-1-11-1--|
      . . .. .    . . .. .   . . .. .   . . .. .

-|---------------------------|---------------------------|
-|---------------------------|---------------------------|
-|---------------------------|---------------------------|
-|---------------------------|---------------------------|
-|-8/9-9-9-99-9-88-8-8-8-8-8-|-8/9-9-9-99-9-88-8-8-8-8-8-|
-|-8/9-9-9-99-9-88-8-8-8-8-8-|-8/9-9-9-99-9-88-8-8-8-8-8-|
 |     . . .. . .. . . . . . |     . . .. . .. . . . . . |
-|---------------------------|---------------------------|
-|---------------------------|---------------------------|
-|---------------------------|---------------------------|
-|---------------------------|---------------------------|
-|-8/9-9-9-99-9-88-8-8-8-8-8-|-8/9-9-9-99-9-88-8-8-8-8-8-|
-|-8/9-9-9-99-9-88-8-8-8-8-8-|-8/9-9-9-99-9-88-8-8-8-8-8-|
       . . .. . .. . . . . .       . . .. . .. . . . . .

||-------------------------------------------------|
||o------------------------------------------------|
||--3"----------2"----------3"---------2"----------|
||-------------------------------------------------|
||o------------------------------------------------|
||-----2-1-11-1----2-1-11-1---2-1-11-1---2-1-11-1--|
 |     . . .. .    . . .. .   . . .. .   . . .. . |
||-------------------------------------------------|
||o-3"---------------------------------------------|
||--------------2"----------7"---------6"----------|
||-------------------------------------------------|
||o------------------------------------------------|
||-----2-1-11-1----2-1-11-1---2-1-11-1---2-1-11-1--|
       . . .. .    . . .. .   . . .. .   . . .. .

-|---------------------------|----------------------------||
-|---------------------------|---------------------------o||
-|---------------------------|----------------------------||
-|---------------------------|----------------------------||
-|-8/9-9-9-99-9-88-8-8-8-8-8-|-8/9-9-9-99-9-88-8-8-8-8-8-o||
-|-8/9-9-9-99-9-88-8-8-8-8-8-|-8/9-9-9-99-9-88-8-8-8-8-8--||
 |     . . .. . .. . . . . . |     . . .. . .. . . . . .   |
-|---------------------------|----------------------------||
-|---------------------------|---------------------------o||
-|---------------------------|----------------------------||
-|---------------------------|----------------------------||
-|-8/9-9-9-99-9-88-8-8-8-8-8-|-8/9-9-9-99-9-88-8-8-8-8-8-o||
-|-8/9-9-9-99-9-88-8-8-8-8-8-|-8/9-9-9-99-9-88-8-8-8-8-8--||
       . . .. . .. . . . . .       . . .. . .. . . . . .

|---------------------------|---------------------------|
|---------------------------|---------------------------|
|---------------------------|---------------------------|
|-77-7-7-7-7-7-66-6-6-6-6-6-|-77-7-7-7-7-7-66-6-6-6-6-6-|
|-55-5-5-5-5-5-44-4-4-4-4-4-|-55-5-5-5-5-5-44-4-4-4-4-4-|
|---------------------------|---------------------------|
| .. . . . . . .. . . . . . | .. . . . . . .. . . . . . |
|---------------------------|---------------------------|
|---------------------------|---------------------------|
|---------------------------|---------------------------|
|-77-7-7-7-7-7-66-6-6-6-6-6-|-77-7-7-7-7-7-66-6-6-6-6-6-|
|-55-5-5-5-5-5-44-4-4-4-4-4-|-55-5-5-5-5-5-44-4-4-4-4-4-|
|---------------------------|---------------------------|
  .. . . . . . .. . . . . .   .. . . . . . .. . . . . .

[Outro]
|-------------------------|--------------------------|
|----------------------6"-|-------------5"..------6"-|
|-------------------------|-------7"-6"------6"-7"---|
|-------------------------|--------------------------|
|----------------4"-4"----|-5"-4"--------------------|
|-------------------------|--------------------------|
|                         |                          |
|-------------------------|--------------------------|
|-------------5"-------6"-|-------------5"..------6"-|
|-------7"-6"-------------|-------7"-6"------6"-7"---|
|-------------------------|--------------------------|
|-5"-4"----------4"-4"----|-5"-4"--------------------|
|-------------------------|--------------------------|

[Riff 3 (x3)]
||--------------------------|---------------------------||
||o-------------5"-------6"-|-------------5"..------6"-o||
||--------7"-6"-------------|-------7"-6"------6"-7"----||
||--------------------------|---------------------------||
||o-5"-4"----------4"-4"----|-5"-4"--------------------o||
||--------------------------|---------------------------||
 |                          |                            |
||--------------------------|---------------------------||
||o-------------5"-------6"-|-------------5"..------6"-o||
||--------7"-6"-------------|-------7"-6"------6"-7"----||
||--------------------------|---------------------------||
||o-5"-4"----------4"-4"----|-5"-4"--------------------o||
||--------------------------|---------------------------||

[Riff 4 (x4)]
||---------------------------------------------------||
||o-------------------------------------------------o||
||-----------------------------------3"--------------||
||-----------5"----------------------------7"----4"--||
||o-5"-4"-5"----5"-4"-5"-6"-5"-4"-5"----5"----5"----o||
||--5"-4"-5"----5"-4"-5"----------------5"----5"-----||

[Outro 2]
|-----------------------------------|
|-----------------------------------|
|-----------------------------------|
|-----444-----444-----444-----------|
|-----333-----333-----333-----------|
|-0-0-----0-0-----0-0-----22-0-3-4--|
| . . ... . . ... . . ... .. . . . |
|-----------------------------------|
|-----------------------------------|
|-----------------------------------|
|-----------------------------------|
|-----------------------------------|
|-------------------------22-0-3-4--|
                          .. . . .

-|-------------------------|----------------------------|
-|-------------------------|----------------------------|
-|-------------------------|----------------------------|
-|-----444-----444-----444-|----------------------------|
-|-----333-----333-----333-|-----------------------33-3-|
-|-0-0-----0-0-----0-0-----|-22-0-3-4-55-5-3-3-5-6------|
 | . . ... . . ... . . ... | .. . . . .. . . . . . .. . |
-|-------------------------|----------------------------|
-|-------------------------|----------------------------|
-|-------------------------|----------------------------|
-|-------------------------|----------------------------|
-|-------------------------|-----------------------33-3-|
-|-------------------------|-22-0-3-4-55-5-3-3-5-6------|
                             .. . . . .. . . . . . .. .

[Riff 5 (x2)]
||-----------------------------------|--------------------------|
||o----------------------------------|--------------------------|
||-----------------------------------|--------------------------|
||------444-----444-----444----------|-----444-----444-----444--|
||o-----333-----333-----333----------|-----333-----333-----333--|
||--0-0-----0-0-----0-0-----22-0-3-4-|-0-0-----0-0-----0-0------|
|   . . ... . . ... . . ... .. . . . | . . ... . . ... . . ... |
||-----------------------------------|--------------------------|
||o----------------------------------|--------------------------|
||-----------------------------------|--------------------------|
||------444-----444-----444----------|-----444-----444-----444--|
||o-----333-----333-----333----------|-----333-----333-----333--|
||--0-0-----0-0-----0-0-----22-0-3-4-|-0-0-----0-0-----0-0------|
    . . ... . . ... . . ... .. . . .   . . ... . . ... . . ...

-|----------------------------|-----------------------------------|
-|----------------------------|-----------------------------------|
-|----------------------------|-----------------------------------|
-|----------------------------|-----444-----444-----444-----------|
-|-----------------------33-3-|-----333-----333-----333-----------|
-|-22-0-3-4-55-5-3-3-5-6------|-0-0-----0-0-----0-0-----22-0-3-4--|
 | .. . . . .. . . . . . .. . | . . ... . . ... . . ... .. . . . |
-|----------------------------|-----------------------------------|
-|----------------------------|-----------------------------------|
-|----------------------------|-----------------------------------|
-|----------------------------|-----444-----444-----444-----------|
-|-----------------------33-3-|-----333-----333-----333-----------|
-|-22-0-3-4-55-5-3-3-5-6------|-0-0-----0-0-----0-0-----22-0-3-4--|
   .. . . . .. . . . . . .. .   . . ... . . ... . . ... .. . . .

-|--------------------------------------------------------------||
-|-------------------------------------------------------------o||
-|--------------------------------------------------------------||
-|-----444-----444-----444--------------------------------------||
-|-----333-----333-----333-----------------------33-3-----44-4-o||
-|-0-0-----0-0-----0-0-----22-0-3-4-55-5-4-4-5-6------6-7-------||
 | . . ... . . ... . . ... .. . . . .. . . . . . .. . . . .. .   |
-|--------------------------------------------------------------||
-|-------------------------------------------------------------o||
-|--------------------------------------------------------------||
-|-----444-----444-----444--------------------------------------||
-|-----333-----333-----333-----------------------33-3-----44-4-o||
-|-0-0-----0-0-----0-0-----22-0-3-4-55-5-4-4-5-6------6-7-------||
   . . ... . . ... . . ... .. . . . .. . . . . . .. . . . .. .

[Outro 3]
|---------------------------------------------|-----------------------|
|---------------------------------------------|-----------------------|
|---------------------------------------------|-----------------------|
|---------------------------------------------|-----------------------|
|-12"...-----12"...-----13"...-----11"...-----|-12"...-----12"...-----|
|--------777--------777--------777--------666-|--------777--------777-|
|        ...        ...        ...        ... |        ...        ...
|---------------------------------------------|-----------------------|
|---------------------------------------------|-----------------------|
|---------------------------------------------|-----------------------|
|---------------------------------------------|-----------------------|
|---------------------------------------------|-12"...-----12"...-----|
|---------------------------------------------|--------777--------777-|
                                                       ...        ...

----------------------------|
----------------------------|
----------------------------|
----------------------------|
-13"...-----15"...----------|
--------888--------10-10-10-|
        ...        .  .  .  |
----------------------------|
----------------------------|
----------------------------|
----------------------------|
-13"...-----15"...----------|
--------888--------10-10-10-|
        ...        .  .  .

[Riff 6 (x3)]
||----------------------------------------------|-----------------------|
||o---------------------------------------------|-----------------------|
||----------------------------------------------|-----------------------|
||----------------------------------------------|-----------------------|
||o-12"...-----12"...-----13"...-----11"...-----|-12"...-----12"...-----|
||---------777--------777--------777--------666-|--------777--------777-|
           ...        ...        ...        ...         ...        ...

-----------------------------||
----------------------------o||
-----------------------------||
-----------------------------||
-13"...-----15"...----------o||
--------888--------10-10-10--||
        ...        .  .  .

|-------------------------|
|-------------------------|
|-888888888888...........-|
|-------------------------|
|-------------------------|
|-------------------------|

[RIFF 1]

END OF SONG

" - tremolo             h - hammer on
~ - vibrato             \ - slide down
p - pull off            / - slide down
tr - trill               ^ - pinch harmonics
(),= - sustained note      b - bend string
p.m. - palm muting         t - tapping
===============================================================================
comments
We did not receive enough feedback on this tab! Please rate:
print report bad tab
1 2 3 4 5
I want to post or [tab]
guest
You may want to rate the tab now too:
select rating
Please do not post tabs as comments. Select "correction" instead!