Oops, an error
Loading. Please wait.

Reciprocal Tab

ver1
ver1

Whole song

Interactive

More versions @911Tabs.com
2,176 views 1 this week
1 commentread comment
1 2 3 4 5
excellent!
x 1
Autoscroll
+/-
esc
set tempo
stop
Contributor
Hey! There's an official Ultimate Guitar app which is ideal
for learning songs when you're away from computer. Get the app
WARNING: You are trying to view
                                    content from Ultimate-Guitar.com
                                    in an unauthorized application,
                                    which is prohibited.

                                    Please use an official Ultimate
                                    Guitar Tabs application for iPhone,
                                    iPad or Android to access legitimate
                                    chords, guitar, bass, and drum tabs
                                    from Ultimate-Guitar.com database.

                                    Type "ultimate guitar tabs" in Apple
                                    App Store's or Android Market's
                                    search to find the application.
-------------------------------------------------------------------------------
                             Reciprocal - Origin
-------------------------------------------------------------------------------
Tabbed by:Anonymous

Tuning:B-F#-B-E-G#-C#

guitar one =  left channel
 guitar two = right channel

 RIFF 1 both guitars

            3 times
|-------------------------------|-----------------------------------|
|-------------------------------|-----------------------------------|
|-------------------------------|-----------------------------------|
|-------------15-13-12----------|-15-13-12-15-13-12-14-12-11-10-8-7-|
|-2--2--2--0-----------14-12-11-|-----------------------------------|
|-2--2--2--0--------------------|-----------------------------------|
  .  .  .  .

            3 times
|-------------------------------|-------------------------------------|
|-------------------------------|-------------------------------------|
|-------------------------------|-------------------------------------|
|-------------15-13-12----------|-15-13-12-15-13-12-14-12-11-18-16-15-|
|-2--2--2--0-----------14-12-11-|-------------------------------------|
|-2--2--2--0--------------------|-------------------------------------|
  .  .  .  .

            3 times
|-------------------------------|-----------------------------------|
|-------------------------------|-----------------------------------|
|-------------------------------|-----------------------------------|
|-------------15-13-12----------|-15-13-12-15-13-12-14-12-11-10-8-7-|
|-2--2--2--0-----------14-12-11-|-----------------------------------|
|-2--2--2--0--------------------|-----------------------------------|
  .  .  .  .

            3 times
|-------------------------------|-------------------------------------||
|-------------------------------|-------------------------------------||
|-------------------------------|-------------------------------------||
|-------------15-13-12----------|-15-13-12-15-13-12-14-12-11-18-16-15-||
|-2--2--2--0-----------14-12-11-|-------------------------------------||
|-2--2--2--0--------------------|-------------------------------------||
  .  .  .  .

 RIFF 2 (0:16) both guitars = 4 times
|-----------------------------------------------------------------||
|-----------------------------------------------------------------||
|-----------------------------------------------------------------||
|-----------------------------------------------------------------||
|--------------------------------------------------2-2-2-2-4-3-1--||
|-222233332222111122223333222266662222333322221111-2-2-2-2-4-3-1--||
                                                     . . . . .

 RIFF 3 (0:31) both guitars
|------------------------------------------------------------------|
|------------------------------------------------------------------|
|------------------------------------------------------------------|
|------------------------------------------------------------------|
|------------------------------------------------------------------|
|-1414141415151515141414141313131314141414151515151414141418181818-

 ----------------------------------|
 ----------------------------------|
 ----------------------------------|
 ----------------------------------|
 ----------------------------------|
 -14141414151515151414141413131313-

 -------------------------------------|
 -------------------------------------|
 -------------------------------------|
 -------------------19-17-16----------|
 ----------15-16-18----------18-16-15-|
 -14-15-17----------------------------|

 ------------------------------------------------------------------|
 ------------------------------------------------------------------|
 ------------------------------------------------------------------|
 ------------------------------------------------------------------|
 ------------------------------------------------------------------|
 -1414141415151515141414141313131314141414151515151414141418181818-

 ----------------------------------|
 ----------------------------------|
 ----------------------------------|
 ----------------------------------|
 ----------------------------------|
 -14141414151515151414141413131313-

 3 times both guitars
|-------------------------------------|-------------------------------------|
|-------------------------------------|-------------------------------------|
|-------------------------------------|-------------------------------------|
|-------------------19-17-16----------|-19-17-16-19-17-16-20-18-17-21-19-18-|
|----------15-16-18----------18-16-15-|-------------------------------------|
|-14-15-17----------------------------|-------------------------------------|

 3 times both guitars
|-------------------------------------|-------------------------------------|
|-------------------------------------|-------------------------------------|
|-------------------------------------|-------------------------------------|
|-------------------19-17-16----------|-19-17-16-19-17-16-20-18-17-21-19-18-|
|----------15-16-18----------18-16-15-|-------------------------------------|
|-14-15-17----------------------------|-------------------------------------|

 3 times guitar one only
|-------------------------------------|-------------------------------------|
|-------------------------------------|-------------------------------------|
|-------------------------------------|-------------------------------------|
|-------------------22-20-19----------|-22-20-19-22-20-19-23-21-20-24-22-21-|
|----------18-19-21----------21-19-18-|-------------------------------------|
|-17-18-20----------------------------|-------------------------------------|

 3 times guitar two only
|-------------------------------------|-------------------------------------|
|-------------------------------------|-------------------------------------|
|-------------------------------------|-------------------------------------|
|-------------------19-17-16----------|-19-17-16-19-17-16-20-18-17-21-19-18-|
|----------15-16-18----------18-16-15-|-------------------------------------|
|-14-15-17----------------------------|-------------------------------------|

 3 times both guitars
|-------------------------------------|-------------------------------||
|-------------------------------------|-------------------------------||
|-------------------------------------|-------------------------------||
|-------------------19-17-16----------|-19-17-16-19-17-16-20-18-17-21-||
|----------15-16-18----------18-16-15-|-------------------------------||
|-14-15-17----------------------------|-------------------------------||

 RIFF 4 (0:54) both guitars
|-----------------------------------------------------|
|-----------------------------------------------------|
|-10-8-7-------10-8-7-10-8-7-------10-8-7-9-7-6-------|
|-----------------------------------------------------|
|--------8p6p5---------------8p6p5--------------7p5p4-|
|-----------------------------------------------------|

 -------------------------------------------------|
 -------------------------------------------------|
 -10-8-7-------10-8-7-10-8-7-------10--9h11-------|
 -------------------------------------------------|
 --------8p6p5---------------8p6p5----------6h7h9-|
 -------------------------------------------------|

 -----------------------------------------------------|
 -----------------------------------------------------|
 -10-8-7-------10-8-7-10-8-7-------10-8-7-9-7-6-------|
 -----------------------------------------------------|
 --------8p6p5---------------8p6p5--------------7p5p4-|
 -----------------------------------------------------|

 ----------------------------|
 ----------------------------|
 -10-8-7-------10-8-7-10-8-7-|
 ----------------------------|
 --------8p6p5---------------|
 ----------------------------|

 --------------------------------------------------|
 --------------------------------------------------|
 -11111111------------10101010------------99999999-|
 --------------------------------------------------|
 ---------888811111111--------777710101010---------|
 --------------------------------------------------|

|-----------------------------------------------------|
|-----------------------------------------------------|
|-10-8-7-------10-8-7-10-8-7-------10-8-7-9-7-6-------|
|-----------------------------------------------------|
|--------8p6p5---------------8p6p5--------------7p5p4-|
|-----------------------------------------------------|

 -------------------------------------------------|
 -------------------------------------------------|
 -10-8-7-------10-8-7-10-8-7-------10--9h11-------|
 -------------------------------------------------|
 --------8p6p5---------------8p6p5----------6h7h9-|
 -------------------------------------------------|

 -----------------------------------------------------|
 -----------------------------------------------------|
 -10-8-7-------10-8-7-10-8-7-------10-8-7-9-7-6-------|
 -----------------------------------------------------|
 --------8p6p5---------------8p6p5--------------7p5p4-|
 -----------------------------------------------------|

 ----------------------------|
 ----------------------------|
 -10-8-7-------10-8-7-10-8-7-|
 ----------------------------|
 --------8p6p5---------------|
 ----------------------------|

 guitar one
 ----------------------------------------------------------||
 -------------------------------------------------ph-------||
 -14141414----------------13131313----------------12-------||
 ----------------------------------------------------------||
 ---------1111111114141414--------1010101013131313---------||
 ----------------------------------------------------------||

 guitar two
 --------------------------------------------------||
 -----------------------------------------ph-------||
 -11111111------------10101010------------9--------||
 --------------------------------------------------||
 ---------888811111111--------777710101010---------||
 --------------------------------------------------||

 RIFF 5 (1:11) both guitars
|--------------------------------------------------------------------------|
|--------------------------------------------------------------------------|
|-------------------------------8-6-5-------------------------------8-9-11-|
|--------------------------------------------------------------------------|
|-3-2-2-2-3-2-3---2-2-3---8-6-5-------3-2-2-2-3-2-3---2-2-3---6-7-9--------|
|-3-2-2-2-3-2-3---2-2-3---------------3-2-2-2-3-2-3---2-2-3----------------|
    . . .   .     . .                   . . .   .     . .

 -----------------------------------------------------|
 -----------------------------------------------------|
 -------------------------------9-7-6-----------------|
 -----------------------------------------------------|
 -3-2-2-2-3-2-3---2-2-3---8-6-5-------3-2-2-2-3-2-3---|
 -3-2-2-2-3-2-3---2-2-3---------------3-2-2-2-3-2-3---|
    . . .   .     . .                   . . .   .

 ----------------------------------|
 ----------------------------------|
 ----------------------------------|
 -3333--------2222--------11111111-|
 ----------------------------------|
 -----33336666----22225555---------|

 --------------------------------------------------------------------------|
 --------------------------------------------------------------------------|
 -------------------------------8-6-5-------------------------------8-9-11-|
 --------------------------------------------------------------------------|
 -3-2-2-2-3-2-3---2-2-3---8-6-5-------3-2-2-2-3-2-3---2-2-3---6-7-9--------|
 -3-2-2-2-3-2-3---2-2-3---------------3-2-2-2-3-2-3---2-2-3----------------|
    . . .   .     . .                   . . .   .     . .

 -----------------------------------------------------|
 -----------------------------------------------------|
 -------------------------------9-7-6-----------------|
 -----------------------------------------------------|
 -3-2-2-2-3-2-3---2-2-3---8-6-5-------3-2-2-2-3-2-3---|
 -3-2-2-2-3-2-3---2-2-3---------------3-2-2-2-3-2-3---|
    . . .   .     . .                   . . .   .

 ------------------------------------------------------------------|
 ------------------------------------------------------------------|
 ------------------------------------------------------------------|
 -3333--------2222--------111111113333--------2222-----------------|
 ---------------------------------------------------------6666-----|
 -----33336666----22225555------------33336666----22225555----2222-|

 guitar one
 ----------------------------------------------------------------||
 ----------------------------------------------------------------||
 ----------------------------------------------------------------||
 -6666--------5555--------444444446666--------5555---------------||
 ---------------------------------------------------------9999---||
 -----66669999----55558888------------66669999----55558888----44-||

 guitar two
 ----------------------------------------------------------------||
 ----------------------------------------------------------------||
 ----------------------------------------------------------------||
 -3333--------2222--------111111113333--------2222---------------||
 ---------------------------------------------------------6666---||
 -----33336666----22225555------------33336666----22225555----11-||


 RIFF 6 (1:34) both guitars = 4 times

|----------------17h22p17----------------18h23p18-|
|--------------19----------------------20---------|
|------------19----------------------20-----------|
|----------19----------------------20-------------|
|-171717-20---------------181818-21---------------|
|-------------------------------------------------|

 ----------------16h21p16---------16h21p16---------16h21p16-||
 --------------18---------------18---------------18---------||
 ------------18---------------18---------------18-----------||
 ----------18---------------18---------------18-------------||
 -161616-19---------------19---------------19---------------||
 -----------------------------------------------------------||

 RIFF 7 (1:45) both guitars
|---------------------------------------------------|
|---------------------------------------------------|
|---------------------------------------------------|
|---------------------------------------------------|
|-555555-1-2-1-666666-2-3-2-4-0-1-2-1-2-1-2-1-0-1-2-|
|--------1-2-1--------2-3-2---0-1-2-1-2-1-2-1-0-1-2-|
         . . .        . . .   . . . . .   . .   . .

 ----------------------------------------------------|
 ----------------------------------------------------|
 ----------------------------------------------------|
 -----------------------------------------------4444-|
 -555555-1-2-1-666666-2-3-2-0---2---4---5---3--------|
 --------1-2-1--------2-3-2-0---2---4---5---3--------|
         . . .        . . . .   .   .   .   .

 ---------------------------------------------------|
 ---------------------------------------------------|
 ---------------------------------------------------|
 ---------------------------------------------------|
 -555555-1-2-1-666666-2-3-2-4-0-1-2-1-2-1-2-1-0-1-2-|
 --------1-2-1--------2-3-2---0-1-2-1-2-1-2-1-0-1-2-|
         . . .        . . .   . . . . .   . .   . .

 ---------------------------------------------------|
 ---------------------------------------------------|
 ---------------------------------------------------|
 ---------------------------------------------------|
 -555555-1-2-1-666666-2-3-2-0---2---4---5---4---2---|
 --------1-2-1--------2-3-2-0---2---4---5---4---2---|
         . . .        . . . .   .   .   .   .   .

 ---------------------------------------------------|
 ---------------------------------------------------|
 ---------------------------------------------------|
 ---------------------------------------------------|
 -555555-1-2-1-666666-2-3-2-4-0-1-2-1-2-1-2-1-0-1-2-|
 --------1-2-1--------2-3-2---0-1-2-1-2-1-2-1-0-1-2-|
         . . .        . . .   . . . . .   . .   . .

 ----------------------------------------------------|
 ----------------------------------------------------|
 ----------------------------------------------------|
 -----------------------------------------------4444-|
 -555555-1-2-1-666666-2-3-2-0---2---4---5---3--------|
 --------1-2-1--------2-3-2-0---2---4---5---3--------|
         . . .        . . . .   .   .   .   .

 ---------------------------------------------------|
 ---------------------------------------------------|
 ---------------------------------------------------|
 ---------------------------------------------------|
 -555555-1-2-1-666666-2-3-2-4-0-1-2-1-2-1-2-1-0-1-2-|
 --------1-2-1--------2-3-2---0-1-2-1-2-1-2-1-0-1-2-|
         . . .        . . .   . . . . .   . .   . .

 ---------------------------------------------------|
 ---------------------------------------------------|
 ---------------------------------------------------|
 ---------------------------------------------------|
 -555555-1-2-1-666666-2-3-2-0---2---4---4---3---2---|
 --------1-2-1--------2-3-2-0---2---4---4---3---2---|
         . . .        . . . .   .   .   .   .   .

 ----------------------------------------------||
 ----------------------------------------------||
 ----------------------------------------------||
 ----------------------------------------------||
 -0----4-----2------2-------1--------1---------||
 -0----6-----4------4-------3--------3---------||
  .    .     .      .       .        .


RIFF 6 (2:13) both guitars = 4 times

|----------------17h22p17----------------18h23p18-|
|--------------19----------------------20---------|
|------------19----------------------20-----------|
|----------19----------------------20-------------|
|-171717-20---------------181818-21---------------|
|-------------------------------------------------|

 ----------------16h21p16---------16h21p16---------16h21p16-||
 --------------18---------------18---------------18---------||
 ------------18---------------18---------------18-----------||
 ----------18---------------18---------------18-------------||
 -161616-19---------------19---------------19---------------||
 -----------------------------------------------------------||


END


 .  - palm mute           /  - slide up to
 \  - slide down to       ~  - vibrato
 h  - hammer on           b  - Bend
 p  - pull off            Suffixes for bend
 t  - tap                 f  - full bend    h - half bend
 ph - pinched harmonic    q  - quarter bend t - tap bend
 *  - see comment         ^  - Hold bend    r release bend
 x  - Stuccatto           ~  - vibrato bend
 ,  - slight palm mute    () - ghost note, sustained note
 "  - tremolo note        <> - Trill
===============================================================================
comments
We did not receive enough feedback on this tab! Please rate:
print report bad tab
1 2 3 4 5
1 comment total.
0 reply
JigsoreQuandary wrote on March 3 2012, 12:02 am

Awesome job again! This song is ****ing epic.

I want to post or [tab]
guest
You may want to rate the tab now too:
select rating
Please do not post tabs as comments. Select "correction" instead!