Oops, an error
Loading. Please wait.

Staring From The Abyss Tab

ver1
ver1

Whole song

Interactive

More versions @911Tabs.com
1,633 views 1 this week
1 commentread comment
1 2 3 4 5
excellent!
x 1
Autoscroll
+/-
esc
set tempo
stop
Contributor
Hey! There's an official Ultimate Guitar app which is ideal
for learning songs when you're away from computer. Get the app
WARNING: You are trying to view
                                    content from Ultimate-Guitar.com
                                    in an unauthorized application,
                                    which is prohibited.

                                    Please use an official Ultimate
                                    Guitar Tabs application for iPhone,
                                    iPad or Android to access legitimate
                                    chords, guitar, bass, and drum tabs
                                    from Ultimate-Guitar.com database.

                                    Type "ultimate guitar tabs" in Apple
                                    App Store's or Android Market's
                                    search to find the application.
-------------------------------------------------------------------------------
                             Staring From the Abyss - Origin
-------------------------------------------------------------------------------
Tabbed by: Anonymous

Drop B Tuning: B-F#-B-E-G#-C#

guitar one =  left channel
guitar two = right channel

RIFF 1 (0:00) both guitars = 4 times
|-----------------------------------------------------------------||
|-----------------------------------------------------------------||
|-----------------------------------------------------------------||
|-----------------------------------------------------------------||
|(66)---------------------8888----------------5---7-6-5-4-6-5-4-3-||
|-666655667777665566665566----66556666556677775---7-6-5-4-6-5-4-3-||
                                                    . . .   . . .

RIFF 2 (break) (0:16) gtr. two
|--------------------------------||
|--------------------------------||
|-----555566----887788----101099-||
|--------------------------------||
|-4444------6666------8888-------||
|--------------------------------||

RIFF 2 (break) (0:16) gtr. one
|--------------------------------||
|--------------------------------||
|-----555566----887788----101099-||
|-4------------------------------||
|-4---------6666------8888-------||
|-4------------------------------||

again RIFF 1 (0:18) = 4 times

RIFF 3 (0:34) both gtr. = 2 times
|---------------------------------------------------------------------||
|---------------------------------------------------------------------||
|-----4-4-----4-4-----5-5-----3-3-----4-4-----4-4-------8--8------7-7-||
|-6-6-6-6-6-6-6-6-7-7-7-7-5-5-5-5-6-6-6-6-6-6-6-6-10-10-10-10-9-9-9-9-||
|-6-6-6-6-6-6-6-6-7-7-7-7-5-5-5-5-6-6-6-6-6-6-6-6-10-10-10-10-9-9-9-9-||
|---------------------------------------------------------------------||


RIFF 4 (0:42) both gtr. = 2 times

|-----------11h16p11----------11h16p11---------12h17p12----------10h15p10-|
|---------13----------------13---------------14----------------12---------|
|-------13----------------13---------------14----------------12-----------|
|-----13----------------13---------------14----------------12-------------|
|-1114--------------1114-------------1215--------------1013---------------|
|-------------------------------------------------------------------------|

-----------11h16p11----------11h16p11---------15h20p15----------14h19p14-||
---------13----------------13---------------17----------------16---------||
-------13----------------13---------------17----------------16-----------||
-----13----------------13---------------17----------------16-------------||
-1114--------------1114-------------1518--------------1417---------------||
-------------------------------------------------------------------------||

RIFF 5 (0:50) both gtr. = 2 times
|----------------------------------------------------------------|
|----------------------------------------------------------------|
|----------------------------------------------------------------|
|----------------------------------------------------------------|
|-----11111111----11111111------------------12121212----12121212-|
|-6666--------6666--------666666-/-18-\-7777--------7777---------|

 ---------------------------------------------------------|
 ---------------------------------------------------------|
 ---------------------------------------------------------|
 -------------7777----------------------------------------|
 -----9999------------11111111----11111111----------------|
 -4444----4444----6666--------6666--------666666-/-18-\-7-|

 ----------------------------------------------------------------------||
 ----------------------------------------------------------------------||
 ----------------------------------------------------------------------||
 ----------------------------------------------------------------------||
 ---------1515151514141414----1414141412121212----12121212111111119999-||
 -10101010----------------9999----------------7777---------------------||


again RIFF 3 (1:07) = 2 times
again RIFF 4 (1:15) = 2 times
again RIFF 5 (1:23) = 2 times


RIFF 6 (1:40) gtr. one / intro
|----------------------------------------------------------------|
|----------------------------------------------------------------|
|----------------------------------------------------------------|
|------------666666-----------666666-----666666777777-----444444-|
|-6p3---6p3--------6p3---6p3--------6p3--------------6p3---------|
|-6p3-3-6p3-3------6p3-3-6p3-3------6p3-3------------6p3-3-------|
      .     .          .     .          .                .

RIFF 6 (1:40) gtr. two / intro
|----------------------------------------------------------------|
|----------------------------------------------------------------|
|----------------------------------------------------------------|
|-6p3---6p3--------6p3---6p3--------6p3--------------6p3---------|
|-6p3-3-6p3-3------6p3-3-6p3-3------6p3-3------------6p3-3-------|
|----------------------------------------------------------------|
      .     .          .     .          .                .


RIFF 6 continue gtr. one
|---------------------|
|---------------------|
|------444444-5-4-2-4-|
|---------------------|
|-6p3-----------------|
|-6p3-3---------------|
      .

RIFF 6 continue gtr. two
|---------------------|
|---------------------|
|------444444-5-4-2-4-|
|-6p3-----------------|
|-6p3-3---------------|
|---------------------|
      .

RIFF 6 continue (1:46) gtr. one
|----------------------------------------------------------------------|
|----------------------------------------------------------------------|
|----------------------------------------------------------------------|
|-666666-----------666666-----------666666-----666666777777-----444444-|
|-------6p3---6p3--------6p3---6p3--------6p3--------------6p3---------|
|-------6p3-3-6p3-3------6p3-3-6p3-3------6p3-3------------6p3-3-------|
            .     .          .     .          .                .

RIFF 6 continue (1:46) gtr. two
|----------------------------------------------------------------------|
|----------------------------------------------------------------------|
|-666666-----------666666-----------666666-----666666777777-----444444-|
|-------6p3---6p3--------6p3---6p3--------6p3--------------6p3---------|
|-------6p3-3-6p3-3------6p3-3-6p3-3------6p3-3------------6p3-3-------|
|----------------------------------------------------------------------|
            .     .          .     .          .                .

RIFF 6 continue gtr. one
|-------------------777777-|
|-------------444444-------|
|-444444555555-------------|
|--------------------------|
|--------------------------|
|--------------------------|

RIFF 6 continue gtr. two
|-------------------777777-|
|-------------444444-------|
|-444444555555-------------|
|--------------------------|
|--------------------------|
|--------------------------|

RIFF 6 continue gtr. one
|----------------------------------------------------------------------|
|----------------------------------------------------------------------|
|----------------------------------------------------------------------|
|-666666-----------666666-----------666666-----666666777777-----444444-|
|-------6p3---6p3--------6p3---6p3--------6p3--------------6p3---------|
|-------6p3-3-6p3-3------6p3-3-6p3-3------6p3-3------------6p3-3-------|
            .     .          .     .          .                .


RIFF 6 continue gtr. two
|----------------------------------------------------------------------|
|----------------------------------------------------------------------|
|-666666-----------666666-----------666666-----666666777777-----444444-|
|-------6p3---6p3--------6p3---6p3--------6p3--------------6p3---------|
|-------6p3-3-6p3-3------6p3-3-6p3-3------6p3-3------------6p3-3-------|
|----------------------------------------------------------------------|
            .     .          .     .          .                .

RIFF 6 continue gtr. one
|---------------------|
|---------------------|
|------444444-5-4-2-4-|
|---------------------|
|-6p3-----------------|
|-6p3-3---------------|
      .

RIFF 6 continue gtr. two
|---------------------|
|---------------------|
|------444444-5-4-2-4-|
|-6p3-----------------|
|-6p3-3---------------|
|---------------------|
      .

RIFF 6 continue gtr. one
|----------------------------------------------------------------------|
|----------------------------------------------------------------------|
|----------------------------------------------------------------------|
|-666666-----------666666-----------666666-----666666777777-----444444-|
|-------6p3---6p3--------6p3---6p3--------6p3--------------6p3---------|
|-------6p3-3-6p3-3------6p3-3-6p3-3------6p3-3------------6p3-3-------|
            .     .          .     .          .                .

RIFF 6 continue gtr. two
|----------------------------------------------------------------------|
|----------------------------------------------------------------------|
|-666666-----------666666-----------666666-----666666777777-----444444-|
|-------6p3---6p3--------6p3---6p3--------6p3--------------6p3---------|
|-------6p3-3-6p3-3------6p3-3-6p3-3------6p3-3------------6p3-3-------|
|----------------------------------------------------------------------|
            .     .          .     .          .                .

RIFF 6 continue gtr. one
|-------------------777777-|
|-------------444444-------|
|-444444555555-------------|
|--------------------------|
|--------------------------|
|--------------------------|

RIFF 6 continue gtr. two
|-------------------777777-|
|-------------444444-------|
|-444444555555-------------|
|--------------------------|
|--------------------------|
|--------------------------|

RIFF 6 continue (2:03) gtr. one
|---------------------------------------------------------------------------|
|---------------------------------------------------------------------------|
|---------------------------------------------------------------------------|
|999999-----------999999-----------999999-----999999101010101010-----999999-|
|------9p6---9p6--------9p6---9p6--------9p6--------------------9p6---------|
|------9p6-6-9p6-6------9p6-6-9p6-6------9p6-6------------------9p6-6-------|
           .     .          .     .          .                      .

RIFF 6 continue (2:03) gtr. two
|----------------------------------------------------------------------|
|----------------------------------------------------------------------|
|-666666-----------666666-----------666666-----666666777777-----444444-|
|-------6p3---6p3--------6p3---6p3--------6p3--------------6p3---------|
|-------6p3-3-6p3-3------6p3-3-6p3-3------6p3-3------------6p3-3-------|
|----------------------------------------------------------------------|
            .     .          .     .          .                .

RIFF 6 continue gtr. one
|---------------------|
|---------------------|
|------777777-8-7-5-7-|
|---------------------|
|-9p6-----------------|
|-9p6-6---------------|
      .

RIFF 6 continue gtr. two
|---------------------|
|---------------------|
|------444444-5-4-2-4-|
|-6p3-----------------|
|-6p3-3---------------|
|---------------------|
      .

RIFF 6 continue gtr. one
|---------------------------------------------------------------------------|
|---------------------------------------------------------------------------|
|---------------------------------------------------------------------------|
|999999-----------999999-----------999999-----999999101010101010-----999999-|
|------9p6---9p6--------9p6---9p6--------9p6--------------------9p6---------|
|------9p6-6-9p6-6------9p6-6-9p6-6------9p6-6------------------9p6-6-------|
           .     .          .     .          .                      .

RIFF 6 continue gtr. two
|----------------------------------------------------------------------|
|----------------------------------------------------------------------|
|-666666-----------666666-----------666666-----666666777777-----444444-|
|-------6p3---6p3--------6p3---6p3--------6p3--------------6p3---------|
|-------6p3-3-6p3-3------6p3-3-6p3-3------6p3-3------------6p3-3-------|
|----------------------------------------------------------------------|
            .     .          .     .          .                .

RIFF 6 continue gtr. one
|-------------------101010101010-||
|-------------777777-------------||
|-777777888888-------------------||
|--------------------------------||
|--------------------------------||
|--------------------------------||


RIFF 6 continue gtr. two
|-------------------777777-|
|-------------444444-------|
|-444444555555-------------|
|--------------------------|
|--------------------------|
|--------------------------|

RIFF 6 continue (2:15) gtr. one
|----------------------------------------------------------------------|
|----------------------------------------------------------------------|
|----------------------------------------------------------------------|
|-666666-----------666666-----------666666-----666666777777-----444444-|
|-------6p3---6p3--------6p3---6p3--------6p3--------------6p3---------|
|-------6p3-3-6p3-3------6p3-3-6p3-3------6p3-3------------6p3-3-------|
            .     .          .     .          .                .

RIFF 6 continue (2:15) gtr. two
|----------------------------------------------------------------------|
|----------------------------------------------------------------------|
|-666666-----------666666-----------666666-----666666777777-----444444-|
|-------6p3---6p3--------6p3---6p3--------6p3--------------6p3---------|
|-------6p3-3-6p3-3------6p3-3-6p3-3------6p3-3------------6p3-3-------|
|----------------------------------------------------------------------|
            .     .          .     .          .                .

RIFF 6 continue gtr. one
|---------------------|
|---------------------|
|------444444-5-4-2-4-|
|---------------------|
|-6p3-----------------|
|-6p3-3---------------|
      .

RIFF 6 continue gtr. two
|---------------------|
|---------------------|
|------444444-5-4-2-4-|
|-6p3-----------------|
|-6p3-3---------------|
|---------------------|
      .

RIFF 6 continue gtr. one
|----------------------------------------------------------------------|
|----------------------------------------------------------------------|
|----------------------------------------------------------------------|
|-666666-----------666666-----------666666-----666666777777-----444444-|
|-------6p3---6p3--------6p3---6p3--------6p3--------------6p3---------|
|-------6p3-3-6p3-3------6p3-3-6p3-3------6p3-3------------6p3-3-------|
            .     .          .     .          .                .

RIFF 6 continue gtr. two
|----------------------------------------------------------------------|
|----------------------------------------------------------------------|
|-666666-----------666666-----------666666-----666666777777-----444444-|
|-------6p3---6p3--------6p3---6p3--------6p3--------------6p3---------|
|-------6p3-3-6p3-3------6p3-3-6p3-3------6p3-3------------6p3-3-------|
|----------------------------------------------------------------------|
            .     .          .     .          .                .

RIFF 6 continue gtr. one
|-------------------777777-|
|-------------444444-------|
|-444444555555-------------|
|--------------------------|
|--------------------------|
|--------------------------|

RIFF 6 continue gtr. two
|-------------------777777-|
|-------------444444-------|
|-444444555555-------------|
|--------------------------|
|--------------------------|
|--------------------------|

RIFF 7 (2:26) gtr. one / intro
|---------------------------------------------------||
|---------------------------------------------------||
|---------------------------------------------------||
|---------------------------------------------------||
|-6p3-4-3-3-4-7p4-5-4-4-5-8-5-6-5-5-6-9-6-7-10-7-11-||
|-6p3-4-3-3-4-7p4-5-4-4-5---5-6-5-5-6---6-7----7----||
      . . . .     . . . .   . . . . .   . .    .

RIFF 7 (2:26) gtr. two / intro
|---------------------------------------------------||
|---------------------------------------------------||
|---------------------------------------------------||
|---------------------------------------------------||
|-------------------------------------9-----10---11-||
|---------------------------------------6-7----7----||
                                        . .    .

RIFF 7 continue (2:29) gtr. one = 5 times
|---------------------------------------------------||
|---------------------------------------------------||
|---------------------------------------------------||
|---------------------------------------------------||
|-6p3-4-3-3-4-7p4-5-4-4-5-8-5-6-5-5-6-9-6-7-10-7-11-||
|-6p3-4-3-3-4-7p4-5-4-4-5---5-6-5-5-6---6-7----7----||
      . . . .     . . . .   . . . . .   . .    .

RIFF 7 continue (2:29) gtr. two = 5 times
|---------------------------------------------------||
|---------------------------------------------------||
|---------------------------------------------------||
|---------------------------------------------------||
|-6-----------7-----------8-----------9-----10---11-||
|---3-4-3-3-4---4-5-4-4-5---5-6-5-5-6---6-7----7----||
    . . . . .   . . . . .   . . . . .   . .    .


RIFF 8 (2:44) gtr. one = 2 times / gtr. two = repeat RIFF 7
|--------------------------------------------------------------------|
|-1612--------12h16p12-1713----------13h17p13-1814----------14h18p14-|
|-----12----12-------------13------13-------------14------14---------|
|-------1414-----------------15--15-----------------16--16-----------|
|------------------------------17---------------------18-------------|
|--------------------------------------------------------------------|


 --------------------------||
 -19191919----2020----2121-||
 ---------1616----1616-----||
 --------------------------||
 --------------------------||
 --------------------------||

again RIFF 6 = 3 times

RIFF 6 last (fourth) time (3:25) gtr. one
|----------------------------------------------------------------------|
|----------------------------------------------------------------------|
|----------------------------------------------------------------------|
|-666666-----------666666-----------666666-----666666777777-----444444-|
|-------6p3---6p3--------6p3---6p3--------6p3--------------6p3---------|
|-------6p3-3-6p3-3------6p3-3-6p3-3------6p3-3------------6p3-3-------|
            .     .          .     .          .                .

RIFF 6 last (fourth) time (3:25) gtr. two
|----------------------------------------------------------------------|
|----------------------------------------------------------------------|
|-666666-----------666666-----------666666-----666666777777-----444444-|
|-------6p3---6p3--------6p3---6p3--------6p3--------------6p3---------|
|-------6p3-3-6p3-3------6p3-3-6p3-3------6p3-3------------6p3-3-------|
|----------------------------------------------------------------------|
            .     .          .     .          .                .

RIFF 6 continue gtr. one
|---------------------|
|---------------------|
|------444444-5-4-2-4-|
|---------------------|
|-6p3-----------------|
|-6p3-3---------------|
      .

RIFF 6 continue gtr. two
|---------------------|
|---------------------|
|------444444-5-4-2-4-|
|-6p3-----------------|
|-6p3-3---------------|
|---------------------|
      .

RIFF 6 continue gtr. one
|----------------------------------------------------------------------|
|----------------------------------------------------------------------|
|----------------------------------------------------------------------|
|-666666-----------666666-----------666666-----666666777777-----444444-|
|-------6p3---6p3--------6p3---6p3--------6p3--------------6p3---------|
|-------6p3-3-6p3-3------6p3-3-6p3-3------6p3-3------------6p3-3-------|
            .     .          .     .          .                .

RIFF 6 continue gtr. two
|----------------------------------------------------------------------|
|----------------------------------------------------------------------|
|-666666-----------666666-----------666666-----666666777777-----444444-|
|-------6p3---6p3--------6p3---6p3--------6p3--------------6p3---------|
|-------6p3-3-6p3-3------6p3-3-6p3-3------6p3-3------------6p3-3-------|
|----------------------------------------------------------------------|
            .     .          .     .          .                .

RIFF 9 (break) (3:35) gtr. one

(not sure about that one, but it sounds different
 to what guitar two plays)
|--------------------------------------------------||
|--------------------------------------------------||
|--------------------------------------------------||
|---------------------5-7---------5-7-9--------7-7-||
|-6-----------6-------5-7-6-------5-7-9--------7-7-||
|-6-2-3-5-3-2-6-4-5-7-----6-6-7-9-------8-9-11-----||
    . . . . .   . . .       . . .       . . .

RIFF 9 (break) (3:35) gtr. two
|--------------------------------------------------||
|--------------------------------------------------||
|--------------------------------------------------||
|-------------------------6-----------9------------||
|-6-----------6-----------6-----------9------------||
|-6-2-3-5-3-2-6-4-5-7-5-4-6-6-7-9-7-6-9-8-9-11-9-8-||
    . . . . .   . . . . .   . . . . .   . . .  . .

again RIFF 1 (3:39) = 3 times

ending gtr. one
|------------------------------------------------------------------||
|------------------------------------------------------------------||
|------------------------------------------------------------------||
|---------------------------------------------------------------10-||
|-------------------------8888----------------5---7-6-5-4-6-5-4-10-||
|-666655667777665566665566----66556666556677775---7-6-5-4-6-5-4----||
                                                    . . .   . .

ending gtr. two
|------------------------------------------------------------------||
|------------------------------------------------------------------||
|------------------------------------------------------------------||
|------------------------------------------------------------------||
|-------------------------8888----------------5---7-6-5-4-6-5-4-10-||
|-666655667777665566665566----66556666556677775---7-6-5-4-6-5-4-10-||
                                                    . . .   . .


.  - palm mute           /  - slide up to
\  - slide down to       ~  - vibrato
h  - hammer on           b  - Bend
p  - pull off            Suffixes for bend
t  - tap                 f  - full bend    h - half bend
ph - pinched harmonic    q  - quarter bend t - tap bend
*  - see comment         ^  - Hold bend    r release bend
x  - Stuccatto           ~  - vibrato bend
,  - slight palm mute    () - ghost note, sustained note
"  - tremolo note        <> - Trill
===============================================================================
comments
We did not receive enough feedback on this tab! Please rate:
print report bad tab
1 2 3 4 5
1 comment total.
0 reply
JigsoreQuandary wrote on March 3 2012, 12:01 am

Awesome job with this! Sounds perfect! It's too bad that moderator banned you.

I want to post or [tab]
guest
You may want to rate the tab now too:
select rating
Please do not post tabs as comments. Select "correction" instead!