Oops, an error
Loading. Please wait.

Classical Soul Tab

ver1
ver1

Whole song

More versions @911Tabs.com
26,926 views 54 this week
8 commentsread comments
1 2 3 4 5
excellent!
x 17
add to favorites launch autoscroll
font size
0
reset
Autoscroll
+/-
esc
set tempo
stop
Contributor
WARNING: You are trying to view
                                    content from Ultimate-Guitar.com
                                    in an unauthorized application,
                                    which is prohibited.

                                    Please use an official Ultimate
                                    Guitar Tabs application for iPhone,
                                    iPad or Android to access legitimate
                                    chords, guitar, bass, and drum tabs
                                    from Ultimate-Guitar.com database.

                                    Type "ultimate guitar tabs" in Apple
                                    App Store's or Android Market's
                                    search to find the application.
    CLASSICAL SOUL tab by oscar lopez


 Capo 3   E B G D A D

       |       |       |        |       |       |       |        
|--------------0-------0-------0-|------0-------0-------0---------|
|------------1-------1-------1---|----1-------1---1---1-----------|
|----------4-------4-------4-----|--4-------4-------4-------------|
|--------2-------2-------2-------|2-------------------------------|
|0-------------------------------|--------------------------------|
|--------------------------------|--------------------------------|
 
 |       |       |       |        |       |       |       |        
|--------------0-------0-------0-|------0-----------0-------------|
|------------1-------1-------1---|----1---------1-------1---------|
|----------4-------4-------4-----|--4-------4---------------------|
|--------2-------2-------2-------|2-------------------------------|
|--------------------------------|--------------------------------|
|3-------------------------------|--------------------------------|
 
 |       |       |       |        |       |       |       |        
|--------3---1-0-----------------|------------------------5h--4---|
|------1-------------3-----------|1h3h1h0-1/--3-------3-----------|
|----2---------------2-----------|----------------4---------------|
|3---------------3---------------|3-------------------------------|
|--------------------------------|--------------------------------|
|--------------------------------|------------0-------------------|
 
 |       |       |       |        |       |       |       |        
|----4---------------8-----------|----7h8h7-----------------------|
|3-------3---------6-------------|--6-----------------------------|
|4---------------7---------------|7-------------------------------|
|--------------------------------|--------------------------------|
|--------------------------------|--------------------------------|
|--------------------------------|--------------------------------|
 
 |       |       |       |        |       |       |       |        
|--------------------------------|--------------------------------|
|1-----------0-------------------|3-----------1h3h1---------------|
|----2---------------2-----------|----2---------------2-----------|
|--------2---------------2-------|2-------2---------------2-------|
|0-----------0---------------0---|------------0---------------0---|
|--------------------------------|--------------------------------|
 
 |       |       |       |        |       |       |       |        
|--------------------------------|----------------0---------------|
|1-----------0-------------------|3-----------1h3h1---------------|
|----2---------------2-----------|----2---------------2-----------|
|2-------2---------------2-------|2-------2---------------2-------|
|------------0---------------0---|------------0---------------0---|
|--------------------------------|--------------------------------|
 
 |       |       |       |        |       |       |       |        
|--------------------------------|--------------------------------|
|1-----------0-------------------|3-----------1h3h1---------------|
|----2---------------2-----------|----2---------------2-----------|
|2-------2---------------2-------|2-------2---------------2-------|
|------------0---------------0---|------------0---------------0---|
|--------------------------------|--------------------------------|
 
 |       |       |       |        |       |       |       |        
|--------------------------------|----------------0---------------|
|1-----------0-------------------|3-----------1h3h1-------1-------|
|----2---------------2-----------|----2---------------2-----------|
|2-------2---------------2-------|2-------2---------------2-------|
|------------0---------------0---|------------0---------------0---|
|--------------------------------|--------------------------------|
 
 |       |       |       |        |       |       |       |        
|0-----------0-------------------|--------------------------------|
|--------1-------3-------3---1---|------------1h--0-------0h--1---|
|----2---------------2-----------|----2---------------2-----------|
|2-------------------------------|--------2-----------------------|
|------------0---------------0---|--------0---0-------------------|
|--------------------------------|--------------------------------|
 
 |       |       |       |        |       |       |       |        
|0-----------0-------------------|------------0---0---------------|
|--------1-------3-------3---1---|------------1---1-------1-------|
|----2---------------2-----------|----2---------------2-----------|
|------------3-------------------|--------3-------------------0---|
|3---------------------------3---|------------3---3---------------|
|--------------------------------|--------------------------------|
 
 |       |       |       |        |       |       |       |        
|1-----------3---0---1-----------|--------------------------------|
|--------3-----------3-------3---|--------3---1h--0-------0h--1---|
|2---2-------------------2-------|----2---------------2-----------|
|------------0---------------3---|------------3-------------------|
|--------------------------------|--------------------------------|
|--------------------------------|--------------------------------|
 
 |       |       |       |        |       |       |       |        
|1-----------0-------------------|------------0---0-------0-------|
|----------------3---1-------0---|------------0---0-------0-------|
|----1---------------1-----------|----1---------------1-----------|
|--------3---------------3-------|--------------------------------|
|--------------------------------|--------2-------------------0---|
|0-----------0---------------0---|------------0-----------0-------|
 
 |       |       |       |        |       |       |       |        
|0-----------0-------------------|--------------------------------|
|--------1-------3-------3---1---|------------1h--0-------0h--1---|
|----2---------------2-----------|----2---------------2-----------|
|2-----------------------2-------|--------------------------------|
|----------------0-----------0---|--------0---0-------------------|
|--------------------------------|--------------------------------|
 
 |       |       |       |        |       |       |       |        
|0-----------0---------------0---|------------0---0-------0-------|
|--------1-------3-------3---1---|--------1---1---1-------1-------|
|----2---------------2-----------|----2---------------2-----------|
|------------3-------------------|----------------------------0---|
|3---------------------------3---|------------3---3---------------|
|--------------------------------|--------------------------------|
 
 |       |       |       |        |       |       |       |        
|1-------1---3---0---1-----------|--------------------------------|
|--------3-------3---3-------3---|--------3---1h--0-------0h--1---|
|2---2-------------------2-------|----2---------------2-----------|
|------------0---------------3---|------------3-------------------|
|--------------------------------|--------------------------------|
|--------------------------------|--------------------------------|
 
 |       |       |       |        |       |       |       |        
|1-----------0---0-----------0---|--------0---0---2-------4-------|
|----------------0---3-------0---|----0---0-----------------------|
|----1-----------1---1-------1---|--------1---1---2-------4-------|
|--------3-----------------------|--------------------------------|
|--------------------------------|--------------------------------|
|0-----------0---------------0---|--------------------------------|
 
 |       |       |       |        |       |       |       |        
|8-----------8---7-------7---5---|------------0-------------------|
|--------5-----------5-----------|----5---------------1-----------|
|----5---------------------------|----5-------------------0-------|
|------------------------5---7---|----------------------------0---|
|0-------------------------------|------------0-------------------|
|--------------------------------|--------------------------------|
 
 |       |       |       |        |       |       |       |        
|8-----------8---7-------0---1---|--------1---1---0-------0---1---|
|--------6-----------6---0-------|----3---3-----------3-------3---|
|----7---------------------------|--------2-----------------------|
|----------------0-----------3---|------------3-------------------|
|--------------------------------|--------------------------------|
|--------------------------------|--------------------------------|
 
 |       |       |       |        |       |       |       |        
|--------7-------0---5-------4---|------------1h3h1---0---1h--3---|
|--------5-------0-------0-------|--------0-----------------------|
|------------4-------5-------4---|----4-------2-------------------|
|--------------------------------|--------------------------------|
|--------------------------------|--------------------------------|
|0-------------------------------|--------------------------------|
 
 |       |       |       |        |       |       |       |        
|0-----------0-----------0-------|0-----------0-------------------|
|--------1-----------1---0-------|--------0-----------0-----------|
|----2-----------2---------------|----1---------------1-----------|
|--------------------------------|--------------------------------|
|0-----------3-----------2---0---|------------------------2-------|
|--------------------------------|4-----------0---------------5---|
 
 |       |       |       |        |       |       |       |        
|8-----------8---7-------7---5---|------------0-------------------|
|--------5-----------5-----------|----5---------------1-----------|
|----5-------------------5-------|------------------------0-------|
|7---------------7-----------7---|----------------------------0---|
|--------------------------------|------------0-------------------|
|--------------------------------|--------------------------------|
 
 |       |       |       |        |       |       |       |        
|8-----------8---7-------0---1---|------------1h--0-------0h--1---|
|----6-----------6-------0-------|--------3-----------3-------3---|
|7-------------------7-----------|----2---------------------------|
|--------0-------0-----------3---|----3-------3-------------------|
|--------------------------------|--------------------------------|
|--------------------------------|--------------------------------|
 
 |       |       |       |        |       |       |       |        
|0-----------0-------------------|--------------------------------|
|----------------3-----------1---|------------0---------------1---|
|----1---------------1-----------|----1---------------1-------1---|
|--------3---------------3-------|--------------------------------|
|--------------------------------|--------2---------------2-------|
|0-----------0---------------0---|------------0-------------------|
 
 |       |       |       |        |       |       |       |        
|--------0-------------------0---|--------------------------------|
|--------1-----------1-----------|--------3-------1-------0-------|
|----------------2---------------|----1-----------1-------1-------|
|--------------------------------|--------------------------------|
|0-------------------------------|--------------------------------|
|----------------------------0---|--------------------------------|
 
 |       |       |       |        |       |       |       |        
|0-----------0-------------------|--------------------------------|
|--------1-------3-------3---1---|------------1h--0-------0h--1---|
|----2---------------2-----------|----2---------------2-----------|
|--------------------------------|--------2-----------------------|
|0---------------0-----------0---|--------0---0-------------------|
|--------------------------------|--------------------------------|
 
 |       |       |       |        |       |       |       |        
|0-----------0-------------------|------------0---0-------0-------|
|--------1-------3-----------1---|--------1---1-----------1-------|
|----2-------------------2-------|----2---------------2-----------|
|3---------------3---3-----------|----------------------------0---|
|----------------------------3---|------------3---3---------------|
|--------------------------------|--------------------------------|
 
 |       |       |       |        |       |       |       |        
|1-----------3---0---1---1-------|--------------------------------|
|3-------------------3-------3---|--------3---1h--0-------0h--1---|
|2---2-------------------2-------|----2---2-----------2-----------|
|0-------0---0---------------3---|------------3-------------------|
|--------------------------------|--------------------------------|
|--------------------------------|--------------------------------|
 
 |       |       |       |        |       |       |       |        
|1-----------0-------------------|----------------3-------1-------|
|----------------3---1-------0---|--------0---------------1-------|
|----1---------------1-----------|----1---------------------------|
|--------3---------------3-------|--------3-----------------------|
|--------------------------------|--------------------------------|
|0-----------0---------------0---|------------0-----------0-------|
 
 |       |       |       |        |       |       |       |        
|0-----------0-------------------|--------------------------------|
|--------1-------3-----------1h3h|1-----------1h--0-------0h--1---|
|----2---------------2-----------|----2---------------2-----------|
|--------------------------------|--------2-----------------------|
|0---------------0-------0---0---|------------0-------------------|
|--------------------------------|--------------------------------|
 
 |       |       |       |        |       |       |       |        
|0-----------0---------------0---|------------0---0-------0-------|
|--------1-------3-------1---1---|--------1---1---1-------1-------|
|----2---------------2-----------|----2---------------2-----------|
|------------3-------------------|----------------------------0---|
|3---------------------------3---|------------3---3---------------|
|--------------------------------|--------------------------------|
 
 |       |       |       |        |       |       |       |        
|1-----------1---3-----------5---|------------5---4-------5-------|
|----3---------------5-----------|----6---------------------------|
|2-------2---------------0-------|--------------------------------|
|------------0---0-----------0---|--------0---0---0-------0-------|
|--------------------------------|--------------------------------|
|--------------------------------|--------------------------------|
 
 |       |       |       |        |       |       |       |        
|7-----------4---0---------------|------------0---2-------4-------|
|--------------------4-------3---|--------3-----------------------|
|----7-------4-------1-----------|----1-------1---2-------4-------|
|--------------------------------|--------------------------------|
|----------------2---------------|--------------------------------|
|0---------------------------0---|--------------------------------|
 
 |       |       |       |        |       |       |       |        
|8-----------8---7-------0---5---|------------0-------------------|
|--------5-----------5-----------|----5---------------1-----------|
|----5---------------------------|------------------------0-------|
|----------------------------7---|----------------------------0---|
|0-------------------------------|------------0-------------------|
|--------------------------------|--------------------------------|
 
 |       |       |       |        |       |       |       |        
|8-----------8---7-------0---1---|--------1---1h--0-------0h--1---|
|--------6-----------6---0-------|--------------------3-----------|
|----7-------------------0-------|----2---2-----------------------|
|----------------0-----------3---|------------3-------------------|
|--------------------------------|--------------------------------|
|--------------------------------|--------------------------------|
 
 |       |       |       |        |       |       |       |        
|--------7-------0---5-------4---|------------1h3h1---0---1h--3---|
|--------5-------0---------------|--------0-----------------------|
|------------4-------5-------4---|----4-------2-------------------|
|--------------------------------|--------------------------------|
|--------------------------------|--------------------------------|
|0-------------------------------|--------------------------------|
 
 |       |       |       |        |       |       |       |        
|0-----------0---------------0---|0-----------0-------------------|
|1---1-------1-------1---0-------|--------0---0-------------------|
|--------2-------2---------------|----1---1-----------1-----------|
|--------------------------------|------------------------2-------|
|0-----------3-----------2---0---|------------------------2-------|
|--------------------------------|4-----------0---------------5---|
 
 |       |       |       |        |       |       |       |        
|8-----------8---7-------7---5---|------------0-------------------|
|----5---------------5-----------|----5---------------1-----------|
|--------5---------------5-------|------------------------0-------|
|7---------------7-----------7---|----------------------------0---|
|--------------------------------|------------0-------------------|
|--------------------------------|--------------------------------|
 
 |       |       |       |        |       |       |       |        
|8-----------8---7-------0---1---|--------1---1h--0-------0h--1---|
|--------6---------------0-------|--------3-----------3-----------|
|----7---------------7-----------|----2---------------------------|
|----------------0-----------3---|------------3-------------------|
|--------------------------------|--------------------------------|
|--------------------------------|--------------------------------|
 
 |       |       |       |        |       |       |       |        
|0-------0---4-----------0---7---|------------7---8-----------7---|
|--------0-----------3---0-------|----0---------------0-------0---|
|----1-------4-------------------|----------------------------7---|
|--------------------------------|--------6---------------6-------|
|----------------------------7---|------------7-----------7-------|
|0-------------------------------|--------------------------------|
 
 |       |       |       |        |       |       |       |        
|--------5-----------6-------5---|----0h--5---0-------1-------3---|
|------------5---5---------------|----2---------------2-----------|
|--------------------6---6-------|--------------------------------|
|----------------------------2---|----------------------------2---|
|0---------------4---------------|------------0-------------------|
|--------------------------------|--------------------------------|
 
 |       |       |       |        |       |       |       |        
|1-----------1---0-------0---1---|------------1---0-------0---1---|
|--------3---3-------2-----------|----3---------------3-------0---|
|--------------------------------|--------2-----------------------|
|0---------------------------3---|------------3-------------------|
|----------------0---------------|--------------------------------|
|--------------------------------|--------------------------------|
 
 |       |       |       |        |       |       |       |        
|3-------------------5-------3---|--------------------0---1-------|
|0-------0-----------3-------0---|----0-------3---3-------0-------|
|------------0-------------------|--------------------------------|
|----------------0---------------|--------0-----------------------|
|--------------------------------|--------------------------------|
|3-------------------3-------3---|------------3-------------------|
 
 |       |       |       |        |       |       |       |        
|0---------------3-----------0---|--------0---0---0-------0-------|
|------------1-------1-----------|----0---0-----------------------|
|--------0-----------------------|--------------------------------|
|--------------------------------|--------------------------------|
|3---------------3-------3-------|--------------------------------|
|----------------------------0---|------------0---4-------7/--6---|
 
 |       |       |       |        |       |       |       |        
|--------5-----------3-------1---|------------0-------1-------3---|
|------------2-------2-------2---|----2-------2-------2-------5---|
|----------------2---------------|--------------------0-----------|
|--------2-----------------------|--------2-----------------------|
|0-------------------0-------0---|--------------------------------|
|--------------------------------|------------0-------------------|
 
 |       |       |       |        |       |       |       |        
|1-----------1---0-------0---1---|------------1---0-------0---1---|
|--------3---3---2---2-----------|----3---3-----------3-------3---|
|--------------------0-----------|----2---------------------------|
|0---------------------------3---|--------3---3-------------------|
|--------------------------------|--------------------------------|
|--------------------------------|--------------------------------|
 
 |       |       |       |        |       |       |       |        
|0-----------0-------------------|--------------------------------|
|----0-----------3-----------1---|------------0---------------1---|
|--------1-----------1-----------|----1---------------1-------1---|
|------------------------3-------|--------3-----------------------|
|--------------------------------|------------------------2-------|
|0-----------0---------------0---|------------0-------------------|
 
 |       |       |       |        |       |       |       |        
|--------0-------------------1---|--------1---0-----------0-------|
|--------------------1-----------|----1---------------1-----------|
|--------2---2---------------2---|--------------------------------|
|--------------------------------|--------------------------------|
|0---------------------------0---|------------0---------------2---|
|--------------------------------|--------------------------------|
 
 |       |       |       |        |       |       |       |        
|--------0-------------------1---|------------0-------------------|
|--------0-----------0-------1---|----1-------------------0---3---|
|------------1-------------------|--------1-----------1-------1---|
|--------------------------------|--------------------------------|
|--------2-----------------------|--------------------------------|
|0---------------------------0---|------------0-------------------|
 
 |       |       |       |        |       |       |       |        
|--------0-------------------1---|------------0-----------0-------|
|--------0-----------0-------1---|----1---------------0---0-------|
|------------1-------------------|--------1-----------------------|
|--------------------------------|--------------------------------|
|--------2-----------------------|--------------------------------|
|0---------------------------0---|------------0-----------0---4---|
 
 |       |       |       |        |       |       |       |        
|--------0-------------------1---|------------0-----------0-------|
|--------------------1-------1---|--------1---1-----------1-------|
|------------2-------------------|----2---------------2-----------|
|--------2-----------------------|--------------------------------|
|0---------------------------0---|------------0-------------------|
|--------------------------------|----------------------------0---|
 
 |       |       |       |        |       |       |       |        
|--------0-------------------1---|------------0-------------------|
|--------------------1-------1---|--------1---1-------1-----------|
|------------2-------------------|----2-------------------2-------|
|--------2-----------------------|----------------------------2---|
|0---------------------------0---|------------0-------------------|
|--------------------------------|--------------------------------|
 
 |       |       |       |        |       |       |       |        
|--------0-------------------1---|------------0-------------------|
|--------0-----------0-------0---|--------0---0-----------0-------|
|------------1-------1-----------|----1---------------1-----------|
|--------------------------------|--------0-----------------------|
|--------2-----------------------|----------------------------2---|
|4---------------------------0---|------------0-------------------|
 
 |       |       |       |        |       |       |       |        
|--------0-------------------1---|------------0-----------0-------|
|--------0-----------0-------0---|--------0---0-------0---0-------|
|------------1-------1-----------|----1---------------------------|
|--------------------------------|--------------------------------|
|--------2-----------------------|----------------------------0---|
|4---------------------------0---|------------0-----------0-------|
 
 |       |       |       |        |       |       |       |        
|--------------------------------|--------------------------------|
|1-----------0-------------------|3-----------1h3h1---------------|
|----2---------------2-----------|----2---------------2-----------|
|2-------2---------------2-------|2-------2---------------2-------|
|------------0---------------0---|------------0---------------0---|
|--------------------------------|--------------------------------|
 
 |       |       |       |        |       |       |       |        
|--------------------------------|----------------0---------------|
|1-----------0-------------------|3-----------1h3h1---------------|
|----2---------------2-----------|----2---------------2-----------|
|2-------2---------------2-------|2-------2---------------2-------|
|------------0---------------0---|------------0---------------0---|
|--------------------------------|--------------------------------|
 
 |       |       |       |        |       |       |       |        
|--------------------------------|--------------------------------|
|1-----------0-------------------|3-----------1-------------------|
|----2---------------2-----------|----2---------------2-----------|
|2-------2---------------2-------|2-------2---------------2-------|
|------------0---------------0---|------------0---------------0---|
|--------------------------------|--------------------------------|
 
 |       |       |       |        |       |       |       |        
|--------------------------------|--------------------------------|
|1-----------0-------------------|3-----------1-----------0-------|
|----2---------------2-----------|----2---------------2-----------|
|2-------2---------------2-------|2-------2-----------------------|
|------------0---------------0---|------------0-----------0---0---|
|--------------------------------|--------------------------------|
 
 |       |       |       |        |       |       |       |        
|--------------------------------|--------------------------------|
|1-------1-------1-------1-------|--------1-----------------------|
|--4-------4-------4-------4-----|------4-------------------------|
|----2-------2-------2-------2---|----2---------------------------|
|------0-------0-------0-------0-|--0-----------------------------|
|--------------------------------|0-------------------------------|
 
 |       |       |       |        |       |       |       Fin      
|----------------0---------------|0-0-0-0-------------------------|
|------------1-------1-----------|1-1-1-1-------------------------|
|--------4---------------4-------|4-4-4-4-------------------------|
|----2---------------------------|2-2-2-2-------------------------|
|0-------------------------------|0-0-0-0-------------------------|
|--------------------------------|0-0-0-0-------------------------|
 
sheilasteve@videotron.ca
 
comments
print report bad tab
8 comments total. Showing first comments.
+1 reply
chanmatthewchan wrote on February 7 2006, 07:33 pm

This is a good song. This is a really good tab. Very accurate.
Good job.

+1 reply
b1tsat62 wrote on February 7 2006, 09:59 pm

thanks you, pompom020366@hotmail.com

+1 reply
gangster-dolly wrote on May 29 2006, 07:36 am

very good tab.

I want to post or [tab]
guest
You may want to rate the tab now too:
select rating
Please do not post tabs as comments. Select "correction" instead!