Oops, an error
Loading. Please wait.

I Have Fought A Measureless Battle Tab

2,934 views 6 this week
5 commentsread comments
1 2 3 4 5
excellent!
x 2
Autoscroll
+/-
esc
set tempo
stop
Contributor
Hey! There's an official Ultimate Guitar app which is ideal
for learning songs when you're away from computer. Get the app
WARNING: You are trying to view
                                    content from Ultimate-Guitar.com
                                    in an unauthorized application,
                                    which is prohibited.

                                    Please use an official Ultimate
                                    Guitar Tabs application for iPhone,
                                    iPad or Android to access legitimate
                                    chords, guitar, bass, and drum tabs
                                    from Ultimate-Guitar.com database.

                                    Type "ultimate guitar tabs" in Apple
                                    App Store's or Android Market's
                                    search to find the application.
SONG: I Have Fought A Measureless Battle
BAND: Our Last Night
ALBUM: The Ghost Among Us
TUNING: Db Ab Db Gb Bb Eb
metalminded07 commented on my last tab (Symptoms Of A
Failing System) and asked for this song so here it is!!!
I'm sorry my tabs are so long, but I try to be very through
get as much detail as i can. ENJOY PEEPS!!!!

.	=	Palm mute
x	=	Mute
h	=	Hammer on
p	=	Pull off
/\	=	Slide
^	=	Harmonic
*	=	Pinch Harmonic
-----------------------------------------------------------------------
Gtr 1 (Right Speaker)
|--------------------------------------------------S--|
|------------------------------------------------P-L--|
|---------------------------14-14-14--9-9-10-----I-I--|
|--7*-0-0-5*-----------0-----x--x--x--x-x--x--0--C-D--|
|-----0-0-----5--3--0--0----12-12-12--7-7--8--0--K-E--|
|-----0-0--------------0----------------------0-------|
pm    . .

|--------------------------------------------------|
|--------------------------------------------------|
|------------14-14-14-14-14/15--14-14-14-14-14-14--|
|--(GTR 2)----x--x--x--x--x--x---x--x--x--x--x--x--|
|------------12-12-12-12-12/13--12-12-12-12-12-12--|
|--------------------------------------------------|

|----------------------------------------------|
|----------------------------------------------|
|--7-7-7-7-7-7-7-7-7-7-7-7--12/14\12--9/10--9--|
|--x-x-x-x-x-x-x-x-x-x-x-x---x--x--x--x--x--x--|
|--5-5-5-5-5-5-5-5-5-5-5-5--10/12\10--7/-8--7--|
|----------------------------------------------|

|----------------------------|
|----------------------------|
|--7-7-7-7-7-7--9-9-9-9-9-9--|
|--x-x-x-x-x-x--x-x-x-x-x-x--|
|--5-5-5-5-5-5--7-7-7-7-7-7--|
|----------------------------|

|----------------------------------------|
|----------------------------------------|
|--14-14-14-14-14/15--14-14-14-14-14-14--|
|---x--x--x--x--x--x---x--x--x--x--x--x--|
|--12-12-12-12-12/13--12-12-12-12-12-12--|
|----------------------------------------|

|----------------------------------------------|
|----------------------------------------------|
|--7-7-7-7-7-7-7-7-7-7-7-7--12/14\12--9/10--9--|
|--x-x-x-x-x-x-x-x-x-x-x-x---x--x--x--x--x--x--|
|--5-5-5-5-5-5-5-5-5-5-5-5--10/12\10--7/-8--7--|
|----------------------------------------------|

|-----------------------------|
|-----------------------------|
|-----------------------------|
|-----------------------------|
|--8------------3------5------|
|-----------------------------|

|-----------------------------------------|
|-----------------------------------------|
|-----------------------------------------|
|--0----10----7-------0----10----7--------|
|--0-----8----5-------0-----8----5--------|
|--0-----8----5-------0-----8----5--5/12--|

|-----------------------------------|
|-----------------------------------|
|-----------------------------------|
|-----------------------------------|
|--5-5-5-5-5-5-5-5-5-5-5-5-5-5-5-5--|
|-----------------------------------|

|-----------------------------------|
|-----------------------------------|
|-----------------------------------|
|-----------------------------------|
|--5-5-5-5-5-5-5-5-5-5-5-5-5-5-5-5--|
|-----------------------------------|

|------------------------------|
|------------------------------|
|------------------------------|
|------------------------------|
|--3/-7-7-7--8-8-8-8--5-5-5-5--|
|------------------------------|

|---------------------------------------|
|---------------------------------------|
|---------------------------------------|
|----------------------7-7-7-7-7-7-7-7--|
|--3/-5-5-5-5-5-5-5-5-------------------|
|---------------------------------------|

|-----------------------------------|
|-----------------------------------|
|-----------------------------------|
|-----------------------------------|
|--5-5-5-5-5-5-5-5-5-5-5-5-5-5-5-5--|
|-----------------------------------|

|-----------------------------------|
|-----------------------------------|
|-----------------------------------|
|-----------------------------------|
|--5-5-5-5-5-5-5-5-5-5-5-5-5-5-5-5--|
|-----------------------------------|

|------------------------------|
|------------------------------|
|------------------------------|
|------------------------------|
|--3/-7-7-7--8-8-8-8--5-5-5-5--|
|------------------------------|

|---------------------------------------|
|---------------------------------------|
|---------------------------------------|
|----------------------7-7-7-7-7-7-7-7--|
|--3/-5-5-5-5-5-5-5-5-------------------|
|---------------------------------------|

|---------------------------------------------------------|
|--------------------10101010101010--8--10---------8--10--|
|---------7----------10101010101010---------10--7---------|
|--0-0-0--x--0-0-0-0--8-8-8-8-8-8-8-----------------------|
|--0-0-0--5--0-0-0-0--------------------------------------|
|--0-0-0-----0-0-0-0--------------------------------------|
pm . . .     . . . .

|---------------------------------------------------------|
|--------------------10101010101010--8--10---------8--10--|
|---------7----------10101010101010---------10--7---------|
|--0-0-0--x--0-0-0-0--8-8-8-8-8-8-8-----------------------|
|--0-0-0--5--0-0-0-0--------------------------------------|
|--0-0-0-----0-0-0-0--------------------------------------|
pm . . .     . . . .

|--------------------------------------|
|--8--10---------8--10-----------------|
|---------10--7------------------------|
|-----------------------3--5--7-8--10--|
|-----------------------3--5--7-8--10--|
|-----------------------3--5--7-8--10--|

|------------------------------------------|
|------------------------------------------|
|-----10-10-10-10-10-10-10-10-10-10-10-10--|
|--0---x--x--x--x--x--x--x--x--x--x--x--x--|
|--0---8--8--8--8--8--8--8--8--8--8--8--8--|
|--0---------------------------------------|

|------------------------------------------|
|------------------------------------------|
|-----10-10-10-10-10-10-10-10-10-10-10-10--|
|--0---x--x--x--x--x--x--x--x--x--x--x--x--|
|--0---8--8--8--8--8--8--8--8--8--8--8--8--|
|--0---------------------------------------|

|----------------------------|
|----------------------------|
|----------------------------|
|--8--8--8--8----5--5--5--5--|
|--8--8--8--8----5--5--5--5--|
|--8--8--8--8----5--5--5--5--|

|------------------------------------------|
|------------------------------------------|
|-----10-10-10-10-10-10-10-10-10-10-10-10--|
|--0---x--x--x--x--x--x--x--x--x--x--x--x--|
|--0---8--8--8--8--8--8--8--8--8--8--8--8--|
|--0---------------------------------------|

|------------------------------------------|
|------------------------------------------|
|-----10-10-10-10-10-10-10-10-10-10-10-10--|
|--0---x--x--x--x--x--x--x--x--x--x--x--x--|
|--0---8--8--8--8--8--8--8--8--8--8--8--8--|
|--0---------------------------------------|

|----------------------------|
|----------------------------|
|----------------------------|
|--8--8--8--8----5--5--5--5--|
|--8--8--8--8----5--5--5--5--|
|--8--8--8--8----5--5--5--5--|

|----------------------------------------|
|----------------------------------------|
|----------------------------------------|
|--0-0-----------0-0--5p0-7p0--0-0-------|
|--0-0--5p0-5p0--0-0-----------0-0--5p0--|
|--0-0-----------0-0-----------0-0-------|
pm . .           . .           . .

|--------------------------------------|
|--------------------------------------|
|--------------------------------------|
|--0-0-----------0-0--5p0-7p0-8p7------|
|--0-0--5p0-5p0--0-0--------------7p5--|
|--0-0-----------0-0-------------------|
pm . .           . .

|----------------------------------------|
|----------------------------------------|
|----------------------------------------|
|--0-0-----------0-0--5p0-7p0--0-0-------|
|--0-0--5p0-5p0--0-0-----------0-0--5p0--|
|--0-0-----------0-0-----------0-0-------|
pm . .           . .           . .

|----------------------------0-0--|
|----------------------------6-6--|
|---------------------------------|
|--0-0-----------0-0------0-------|
|--0-0--5p0-5p0--0-0------0-------|
|--0-0-----------0-0--3h2-0-------|
pm . .           . .      .

|----------------------------------------|
|----------------------------------------|
|----------------------------------------|
|--0-0-----------0-0--5p0-7p0--0-0-------|
|--0-0--5p0-5p0--0-0-----------0-0--5p0--|
|--0-0-----------0-0-----------0-0-------|
pm . .           . .           . .

|--------------------------------------|
|--------------------------------------|
|--------------------------------------|
|--0-0-----------0-0--5p0-7p0-8p7------|
|--0-0--5p0-5p0--0-0--------------7p5--|
|--0-0-----------0-0-------------------|
pm . .           . .

|----------------------------------------|
|----------------------------------------|
|----------------------------------------|
|--0-0-----------0-0--5p0-7p0--0-0-------|
|--0-0--5p0-5p0--0-0-----------0-0--5p0--|
|--0-0-----------0-0-----------0-0-------|
pm . .           . .           . .

|-----------------------------------|
|-----------------------------6--6--|
|----------------------------10-10--|
|--0-0-----------0-0------0---------|
|--0-0--5p0-5p0--0-0------0---------|
|--0-0-----------0-0--3h2-0---------|
pm . .           . .      .

|-----------------------------------|
|-----------------------------------|
|-----------------------------------|
|-----------------------------------|
|--8-8-8-8-8-8-8-8-8-8-8-8-8-8-8-8--|
|-----------------------------------|

|------------------------------------|
|------------------------------------|
|------------------------------------|
|------------------------------------|
|--3-3-3-3-3-3-3-3--5-5-5-5-5-5-5-5--|
|------------------------------------|

|-----------------------------6----6----6--------------|
|--------------------------10---10---10-----6---6---6--|
|----------------7------------------------9---9---9----|
|--0-0-0-0--0-0--x--0-0-0------------------------------|
|--0-0-0-0--0-0--5--0-0-0------------------------------|
|--0-0-0-0--0-0-----0-0-0------------------------------|
pm . . . .  . .     . . .

|-----------------------------6----6----6--------------|
|--------------------------10---10---10-----6---6---6--|
|----------------7------------------------9---9---9----|
|--0-0-0-0--0-0--x--0-0-0------------------------------|
|--0-0-0-0--0-0--5--0-0-0------------------------------|
|--0-0-0-0--0-0-----0-0-0------------------------------|
pm . . . .  . .     . . .

|----------------------------------0--|
|----------------------------------0--|
|----------------12----[TRIPLETS]--0--|
|--0-0-0-0--0-0---x--0---0-0-0--------|
|--0-0-0-0--0-0--10--0---0-0-0--------|
|--0-0-0-0--0-0------0---0-0-0--------|
pm . . . .  . .      .   . . .

|-----------------0------0-------|
|-----------------7/11---0--10---|
|----------------10/14---0--12b--|
|--0-0-0-0--0-0------------------|
|--0-0-0-0--0-0------------------|
|--0-0-0-0--0-0------------------|
pm . . . .  . .

|----------------------------------0--|
|----------------------------------0--|
|----------------12----[TRIPLETS]--0--|
|--0-0-0-0--0-0---x--0---0-0-0--------|
|--0-0-0-0--0-0--10--0---0-0-0--------|
|--0-0-0-0--0-0------0---0-0-0--------|
pm . . . .  . .      .   . . .

|-----------------0-----|
|-----------------7/11--|
|----------------10/14--|
|--0-0-0-0--0-0---------|
|--0-0-0-0--0-0---------|
|--0-0-0-0--0-0---------|
pm . . . .  . .

|--0--------0----0--------0-------------------|
|----6--------6----6--------6-----------------|
|------5--3----------5--3---------------------|
|------------------------------3--5--7--8-----|
|------------------------------3--5--7--8--3--|
|------------------------------3--5--7--8-----|

|------------------------------------------|
|------------------------------------------|
|-----10-10-10-10-10-10-10-10-10-10-10-10--|
|--0---x--x--x--x--x--x--x--x--x--x--x--x--|
|--0---8--8--8--8--8--8--8--8--8--8--8--8--|
|--0---------------------------------------|

|------------------------------------------|
|------------------------------------------|
|-----10-10-10-10-10-10-10-10-10-10-10-10--|
|--0---x--x--x--x--x--x--x--x--x--x--x--x--|
|--0---8--8--8--8--8--8--8--8--8--8--8--8--|
|--0---------------------------------------|

|----------------------------|
|----------------------------|
|----------------------------|
|--8--8--8--8----5--5--5--5--|
|--8--8--8--8----5--5--5--5--|
|--8--8--8--8----5--5--5--5--|

|------------------------------------------|
|------------------------------------------|
|-----10-10-10-10-10-10-10-10-10-10-10-10--|
|--0---x--x--x--x--x--x--x--x--x--x--x--x--|
|--0---8--8--8--8--8--8--8--8--8--8--8--8--|
|--0---------------------------------------|

|------------------------------------------|
|------------------------------------------|
|-----10-10-10-10-10-10-10-10-10-10-10-10--|
|--0---x--x--x--x--x--x--x--x--x--x--x--x--|
|--0---8--8--8--8--8--8--8--8--8--8--8--8--|
|--0---------------------------------------|

|----------------------------|
|----------------------------|
|----------------------------|
|--8--8--8--8----5--5--5--5--|
|--8--8--8--8----5--5--5--5--|
|--8--8--8--8----5--5--5--5--|

|---------------------------------|
|---------------------------------|
|---------------------------------|
|--8--8--8--8----3--3--3----5--5--|
|--8--8--8--8----3--3--3----5--5--|
|--8--8--8--8----3--3--3----5--5--|

|--------------|
|--------------|
|--GTR 2 ONLY--|
|--------------|
|--------------|
|--------------|

|----------------------------------|
|----------------------------------|
|----------------------------------|
|--0-------------------------------|
|--0----------------------7/10--7--|
|--0---7-5-7--8-7-8--8-8-----------|

|------------------------------------|
|------------------------------------|
|------------------------------------|
|--0---------------------------------|
|--0----------------------7/8-8-8-8--|
|--0---7-5-7--8-7-8--8-8-------------|

|----------------------------------|
|----------------------------------|
|----------------------------------|
|--0-------------------------------|
|--0----------------------7/10--7--|
|--0---7-5-7--8-7-8--8-8-----------|

|------------------------------------|
|------------------------------------|
|--------------------5-5--5/7-7-7-7--|
|--0---------------------------------|
|--0---------------------------------|
|--0---7-5-7--8-7-8------------------|

|-------------------------------------|
|-------------------------------------|
|-------------------------------------|
|--0--0-0---0--0-0---8--8-8---5--5-5--|
|--0--0-0---0--0-0---8--8-8---5--5-5--|
|--0--0-0---0--0-0---8--8-8---5--5-5--|

|------------------------------------------|
|------------------------------------------|
|-------------------10--10-10---12--12-12--|
|--0--0-0---0--0-0---x---x--x----x---x--x--|
|--0--0-0---0--0-0---8---8--8---10--10-10--|
|--0--0-0---0--0-0-------------------------|

|--------------------------------------|
|--------------------------------------|
|--------------------------------------|
|--0--0-0---0--0-0---8--8-8------------|
|--0--0-0---0--0-0---8--8-8------------|
|--0--0-0---0--0-0---8--8-8---2--2b-2--|

|-------------------------------------|
|-------------------------------------|
|-----------------------------9--9-9--|
|--0--0-0---7--7-7---8--8-8---x--x-x--|
|--0--0-0---7--7-7---8--8-8---7--7-7--|
|--0--0-0---7--7-7---8--8-8-----------|

|----------------------------------------|
|----------------------------------------|
|----------------------------------------|
|--3p0—2p0-------0h3h5/-7--0-0--3p0-2p0--|
|-----------3/5--------------------------|
|----------------------------------------|

|-----------------------------------------|
|------------------------------------D-F--|
|------------------------------------R-I--|
|--3p0—2p0-------0h3h5/-7--0-0--3p0--U-L--|
|-----------3/5----------------------M-L--|
|-----------------------------------------|

|----------------------------------------|\||
|------------------------------------------||
|------------------------------------------||
|--3p0—2p0-------0h3h5/-7--0-0--3p0-2p0----||x8
|-----------3/5----------------------------||
|------------------------------------------||

|----------------------------------------------------|
|---------------------6-6----------------------------|
|-------7-------------9-9----------------------------|
|--0-0--x--0-0---0-0-------0-0--0-0---0-0-------0-0--|
|--0-0--5--0-0---0-0-------0-0--0-0---0-0-------0-0--|
|--0-0-----0-0---0-0-------0-0--0-0---0-0--2-2--0-0--|
pm . .

-----------------------------------------------------------------------
Gtr 2 (Left)
|------------------------------------------S--|
|----------------------------------------P-L--|
|---------------------101010-------------I-I--|
|--3-0-0-2--3-2----0---x-x-x---------0---C-D--|
|----0-0--------3--0---8-8-8------5--0---K-E--|
|----0-0-----------0----------5-8----0--------|
pm   . .

|------------------------------------------------------|
|------------------------------------------------------|
|--7-7-7-7-7-7-7-7-7-7-7-7--101010101010---------------|
|--7-7-7-7-7-7-7-7-7-7-7-7--101010101010--5-5-5-5-5-5--|
|--5-5-5-5-5-5-5-5-5-5-5-5---8-8-8-8-8-8--5-5-5-5-5-5--|
|-----------------------------------------5-5-5-5-5-5--|

|-----------------------------------------------------|
|-----------------------------------------------------|
|--7-7-7-7-7-7-7-7-7-7-7-7----------------------------|
|--7-7-7-7-7-7-7-7-7-7-7-7--8-8-8-8-8-8--5-5-5-5-5-5--|
|--5-5-5-5-5-5-5-5-5-5-5-5--8-8-8-8-8-8--5-5-5-5-5-5--|
|---------------------------8-8-8-8-8-8--5-5-5-5-5-5--|

|-------------------------------|
|-------------------------------|
|-------------------------------|
|--0-0--0--0-0--0--0-0--0--0-0--|
|--0-0--0--0-0--0--0-0--0--0-0--|
|--0-0--0--0-0--0--0-0--0--0-0--|
pm . .  .  . .  .  . .  .  . .

|----------------------------|
|----------------------------|
|----------------------------|
|--3-3-3-3-3-3--5-5-5-5-5-5--|
|--3-3-3-3-3-3--5-5-5-5-5-5--|
|--3-3-3-3-3-3--5-5-5-5-5-5--|

|-----------------------------------------------------|
|-----------------------------------------------------|
|--7-7-7-7-7-7-7-7-7-7-7-7----------------------------|
|--7-7-7-7-7-7-7-7-7-7-7-7--8-8-8-8-8-8--5-5-5-5-5-5--|
|--5-5-5-5-5-5-5-5-5-5-5-5--8-8-8-8-8-8--5-5-5-5-5-5--|
|---------------------------8-8-8-8-8-8--5-5-5-5-5-5--|

|-----------------------------------|
|-----------------------------------|
|-----------------------------------|
|-----------------------------------|
|--5-5-5-5-5-5-5-5-5-5-5-5-5-5-5-5--|
|-----------------------------------|

|------------------------------------|
|------------------------------------|
|------------------------------------|
|------------------------------------|
|------------------------------------|
|--5-5-5-5-5-5-5-5--8-8-8-8-8-8-8-8--|

|-----------------------------------------|
|-----------------------------------------|
|-----------------------------------------|
|--0----10----7-------0----10----7--------|
|--0-----8----5-------0-----8----5--------|
|--0-----8----5-------0-----8----5--5/12--|

|-----------------------------------|
|-----------------------------------|
|-----------------------------------|
|-----------------------------------|
|--0-0-0-0-0-0-0-0-0-0-0-0-0-0-0-0--|
|--0-0-0-0-0-0-0-0-0-0-0-0-0-0-0-0--|
pm . . . . . . . . . . . . . . . .

|------------------------------------|
|------------------------------------|
|------------------------------------|
|------------------------------------|
|--8-8-8-8-8-8-8-8--5-5-5-5-5-5-5-5--|
|--8-8-8-8-8-8-8-8--5-5-5-5-5-5-5-5--|
pm . . . . . . . .  . . . . . . . .

|-----------------------------------|
|-----------------------------------|
|-----------------------------------|
|-----------------------------------|
|--0-0-0-0-0-0-0-0-0-0-0-0-0-0-0-0--|
|--0-0-0-0-0-0-0-0-0-0-0-0-0-0-0-0--|
pm . . . . . . . . . . . . . . . .

|--------------------------------------------|
|--------------------------------------------|
|--------------------------------------------|
|--------------------------------------------|
|--10-10-10-10-10-10-10-10--8-8-8-8-8-8-8-8--|
|--10-10-10-10-10-10-10-10--8-8-8-8-8-8-8-8--|
pm .. .. .. .. .. .. .. ..  . . . . . . . .

|------------------------------------0--------0----|
|--------------------------------------6--------6--|
|---------7-----------5-5-5-5-5-5-5------5--3------|
|--0-0-0--x--0-0-0-0--x-x-x-x-x-x-x----------------|
|--0-0-0--5--0-0-0-0--3-3-3-3-3-3-3----------------|
|--0-0-0-----0-0-0-0-------------------------------|
pm . . .     . . . .

|------------------------------------0--------0----|
|--------------------------------------6--------6--|
|---------7-----------5-5-5-5-5-5-5------5--3------|
|--0-0-0--x--0-0-0-0--x-x-x-x-x-x-x----------------|
|--0-0-0--5--0-0-0-0--3-3-3-3-3-3-3----------------|
|--0-0-0-----0-0-0-0-------------------------------|
pm . . .     . . . .

|--0--------0-----------------------|
|----6--------6---------------------|
|------5--3------7--9--10--12---14--|
|----------------x--x---x---x----x--|
|----------------5--7---8--10---12--|
|-----------------------------------|

|------------------------------|
|-----5-5-5-5-5-5-5-5-5-5-5-5--|
|-----5-5-5-5-5-5-5-5-5-5-5-5--|
|--0--3-3-3-3-3-3-3-3-3-3-3-3--|
|--0---------------------------|
|--0---------------------------|

|------------------------------------------|
|-----10-10-10-10-10-10-10-10-10-10-10-10--|
|------9--9--9--9--9--9--9--9--9--9--9--9--|
|--0---7--7--7--7--7--7--7--7--7--7--7--7--|
|--0---------------------------------------|
|--0---------------------------------------|

|-----------------------------------|
|-----------------------------------|
|--5--7--9--12---10--12--14--9--10--|
|--x--x--x---x----x---x---x--x---x--|
|--3--5--7--10----8--10--12--7---8--|
|-----------------------------------|

|------------------------------|
|-----5-5-5-5-5-5-5-5-5-5-5-5--|
|-----5-5-5-5-5-5-5-5-5-5-5-5--|
|--0--3-3-3-3-3-3-3-3-3-3-3-3--|
|--0---------------------------|
|--0---------------------------|

|------------------------------------------|
|-----10-10-10-10-10-10-10-10-10-10-10-10--|
|------9--9--9--9--9--9--9--9--9--9--9--9--|
|--0---7--7--7--7--7--7--7--7--7--7--7--7--|
|--0---------------------------------------|
|--0---------------------------------------|

|-----------------------------------|
|-----------------------------------|
|--5--7--9--12---10--12--14--9--10--|
|--x--x--x---x----x---x---x--x---x--|
|--3--5--7--10----8--10--12--7---8--|
|-----------------------------------|

|----------------------------------------|
|----------------------------------------|
|---------------------2p0-5p0------------|
|--0-0--3p0-3p0--0-0-----------0-0--3p0--|
|--0-0-----------0-0-----------0-0-------|
|--0-0-----------0-0-----------0-0-------|
pm . .           . .           . .

|--------------------------------------|
|-----------------------------6p5------|
|---------------------2p0-5p0-----5p0--|
|--0-0--3p0-3p0--0-0-------------------|
|--0-0-----------0-0-------------------|
|--0-0-----------0-0-------------------|
pm . .           . .

|----------------------------------------|
|----------------------------------------|
|---------------------2p0-5p0------------|
|--0-0--3p0-3p0--0-0-----------0-0--3p0--|
|--0-0-----------0-0-----------0-0-------|
|--0-0-----------0-0-----------0-0-------|
pm . .           . .           . .

|----------------------------0-0--|
|----------------------------6-6--|
|---------------------------------|
|--0-0--3p0-3p0--0-0------0-------|
|--0-0-----------0-0------0-------|
|--0-0-----------0-0--3h2-0-------|
pm . .           . .      .

|----------------------------------------|
|----------------------------------------|
|---------------------2p0-5p0------------|
|--0-0--3p0-3p0--0-0-----------0-0--3p0--|
|--0-0-----------0-0-----------0-0-------|
|--0-0-----------0-0-----------0-0-------|
pm . .           . .           . .

|--------------------------------------|
|-----------------------------6p5------|
|---------------------2p0-5p0-----5p0--|
|--0-0--3p0-3p0--0-0-------------------|
|--0-0-----------0-0-------------------|
|--0-0-----------0-0-------------------|
pm . .           . .

|----------------------------------------|
|----------------------------------------|
|---------------------2p0-5p0------------|
|--0-0--3p0-3p0--0-0-----------0-0--3p0--|
|--0-0-----------0-0-----------0-0-------|
|--0-0-----------0-0-----------0-0-------|
pm . .           . .           . .

|-----------------------------6--6--|
|----------------------------10-10--|
|-----------------------------------|
|--0-0--3p0-3p0--0-0------0---------|
|--0-0-----------0-0------0---------|
|--0-0-----------0-0--3h2-0---------|
pm . .           . .      .

|-----------------------------------|
|-----------------------------------|
|-----------------------------------|
|-----------------------------------|
|--5-5-5-5-5-5-5-5-5-5-5-5-5-5-5-5--|
|-----------------------------------|

|------------------------------------|
|------------------------------------|
|------------------------------------|
|------------------------------------|
|------------------------------------|
|--5-5-5-5-5-5-5-5--8-8-8-8-8-8-8-8--|

|----------------------------------------|
|----------------------------------------|
|----------------7--------------0-----0--|
|--0-0-0-0--0-0--x--0-0-0-----3-----5----|
|--0-0-0-0--0-0--5--0-0-0---1-----3------|
|--0-0-0-0--0-0-----0-0-0----------------|
pm . . . .  . .     . . .

|-----------------------------------------|
|-----------------------------------------|
|----------------7--------------0---------|
|--0-0-0-0--0-0--x--0-0-0-----3-----5--3--|
|--0-0-0-0--0-0--5--0-0-0---1-----3-------|
|--0-0-0-0--0-0-----0-0-0-----------------|
pm . . . .  . .     . . .

|-------------------------------------------|
|----------------------------------R--------|
|----------------12----[TRIPLETS]--E--------|
|--0-0-0-0--0-0---x--0---0-0-0-----S----5^--|
|--0-0-0-0--0-0--10--0---0-0-0-----T----5^--|
|--0-0-0-0--0-0------0---0-0-0--------------|
pm . . . .  . .      .   . . .

|-------------------------------------------|
|----------------10-10-10-10---R--------6---|
|-----------------x--x--x--x---E---7^---8b--|
|--0-0-0-0--0-0---8--8--8--8---S---7^-------|
|--0-0-0-0--0-0----------------T------------|
|--0-0-0-0--0-0-----------------------------|
pm . . . .  . .

|-------------------------------------------|
|----------------------------------R--------|
|----------------12----|TRIPLETS|--E--------|
|--0-0-0-0--0-0---x--0---0-0-0-----S----5^--|
|--0-0-0-0--0-0--10--0---0-0-0-----T----5^--|
|--0-0-0-0--0-0------0---0-0-0--------------|
pm . . . .  . .      .   . . .

|------------------0 let ring--|
|------------------7/11--------|
|-----------------10/14--------|
|--0-0-0-0--0-0----------------|
|--0-0-0-0--0-0----------------|
|--0-0-0-0--0-0----------------|
pm . . . .  . .

|--0--------0----0--------0-----------------------|
|----6--------6----6--------6---------------------|
|------5--3----------5--3------7--9--10--12---14--|
|------------------------------x--x---x---x----x--|
|------------------------------5--7---8--10---12--|
|-------------------------------------------------|

|------------------------------|
|-----5-5-5-5-5-5-5-5-5-5-5-5--|
|-----5-5-5-5-5-5-5-5-5-5-5-5--|
|--0--3-3-3-3-3-3-3-3-3-3-3-3--|
|--0---------------------------|
|--0---------------------------|

|------------------------------------------|
|-----10-10-10-10-10-10-10-10-10-10-10-10--|
|------9--9--9--9--9--9--9--9--9--9--9--9--|
|--0---7--7--7--7--7--7--7--7--7--7--7--7--|
|--0---------------------------------------|
|--0---------------------------------------|

|-----------------------------------|
|-----------------------------------|
|--5--7--9--12---10--12--14--9--10--|
|--x--x--x---x----x---x---x--x---x--|
|--3--5--7--10----8--10--12--7---8--|
|-----------------------------------|

|------------------------------|
|-----5-5-5-5-5-5-5-5-5-5-5-5--|
|-----5-5-5-5-5-5-5-5-5-5-5-5--|
|--0--3-3-3-3-3-3-3-3-3-3-3-3--|
|--0---------------------------|
|--0---------------------------|

|------------------------------------------|
|-----10-10-10-10-10-10-10-10-10-10-10-10--|
|------9--9--9--9--9--9--9--9--9--9--9--9--|
|--0---7--7--7--7--7--7--7--7--7--7--7--7--|
|--0---------------------------------------|
|--0---------------------------------------|

|-------------------------------|
|-------------------------------|
|--5--7--9--12---10--12--14--9--|
|--x--x--x---x----x---x---x--x--|
|--3--5--7--10----8--10--12--7--|
|-------------------------------|

|------------------------------------|
|------------------------------------|
|--5--7--9--12---10--12--14--17--14--|
|--x--x--x---x----x---x---x---x---x--|
|--3--5--7--10----8--10--12--15--12--|
|------------------------------------|

|----------------------------------------------|
|----------------------------------------------|
|-----------------------------------9-9-9-9-9--|
|--0-0-0-0-0--7-7-7-7-7--8-8-8-8-8--x-x-x-x-x--|
|--0-0-0-0-0--7-7-7-7-7--8-8-8-8-8--7-7-7-7-7--|
|--0-0-0-0-0--7-7-7-7-7--8-8-8-8-8-------------|

|--------------------------------------------------|
|--------------------------------------------------|
|-----------------------------------10-10-10--9-9--|
|--0-0-0-0-0--7-7-7-7-7--8-8-8-8-8---x--x--x--x-x--|
|--0-0-0-0-0--7-7-7-7-7--8-8-8-8-8---8--8--8--7-7--|
|--0-0-0-0-0--7-7-7-7-7--8-8-8-8-8-----------------|

|-------------------------------|
|-------------------------------|
|-------------------------------|
|--3--7-5-7--8-5-7--7-7-7/8--5--|
|-------------------------------|
|-------------------------------|

|------------------------------------------|
|------------------------------------------|
|------------10-8-10--10-10-8h10-10-10-10--|
|--3--7-5-7--------------------------------|
|------------------------------------------|
|------------------------------------------|

|-------------------------------|
|-------------------------------|
|-------------------------------|
|--3--7-5-7--8-5-7--7-7-7/8--5--|
|-------------------------------|
|-------------------------------|

|------------------------------------------|
|------------------------------------------|
|------------10-8-10--10-10-8h10-10-10-10--|
|--3--7-5-7--------------------------------|
|------------------------------------------|
|------------------------------------------|

|-------------------------------------|
|-------------------------------------|
|-------------------------------------|
|--0--0-0---0--0-0---8--8-8---5--5-5--|
|--0--0-0---0--0-0---8--8-8---5--5-5--|
|--0--0-0---0--0-0---8--8-8---5--5-5--|

|----------------------------------------|
|----------------------------------------|
|----------------------------------------|
|--0--0-0---0--0-0---8--8-8---10--10-10--|
|--0--0-0---0--0-0---8--8-8---10--10-10--|
|--0--0-0---0--0-0---8--8-8---10--10-10--|

|--------------------------------------|
|--------------------------------------|
|--------------------------------------|
|--0--0-0---0--0-0---8--8-8---5--5-----|
|--0--0-0---0--0-0---8--8-8---5--5-----|
|--0--0-0---0--0-0---8--8-8---5--5-5b--|

|----------------------------------------|
|----------------------------------------|
|----------------------------------------|
|--0--0-0---7--7-7---8--8-8---10--10-10--|
|--0--0-0---7--7-7---8--8-8---10--10-10--|
|--0--0-0---7--7-7---8--8-8---10--10-10--|

|--------------------------------------|
|-----------------F--------------------|
|-----------------A-I--7--/--10--\--7--|
|--(GTR 1 ONLY)---D-N--x------x-----x--|
|-----------------E----5--/---8--\--5--|
|--------------------------------------|

|-----------------------------------------|
|-----------------------------------------|
|-----------------------------------------|
|--0-0---0-0-----3--0-0---0-0-----3--0-0--|
|--0-0---0-0--7-----0-0---0-0--7-----0-0--|
|--0-0---0-0--------0-0---0-0--------0-0--|

|-----------------------------------------|
|-----------------------------------------|
|-----------------------------------------|
|--0-0---0-0-----3--0-0---0-0-----3--0-0--|
|--0-0---0-0--7-----0-0---0-0--7-----0-0--|
|--0-0---0-0--------0-0---0-0--------0-0--|

|-----------------------------------------|
|-----------------------------------------|
|-----------------------------------------|
|--0-0---0-0-----3--0-0---0-0-----3--0-0--|
|--0-0---0-0--7-----0-0---0-0--7-----0-0--|
|--0-0---0-0--------0-0---0-0--------0-0--|

|--------------------------------------------|
|--------------------------------------------|
|-----------------------------------------7--|
|--0-0---0-0-----3--0-0---0-0-----3--0-0--x--|
|--0-0---0-0--7-----0-0---0-0--7-----0-0--5--|
|--0-0---0-0--------0-0---0-0--------0-0-----|
pm                                   . .

|---------------------------------------------|
|---------------------------------------------|
|---------------------------------------------|
|--0-0---0-0-----3--0-0--0-0---0-0-------0-0--|
|--0-0---0-0--7-----0-0--0-0---0-0-------0-0--|
|--0-0---0-0--------0-0--0-0---0-0--2-2--0-0--|


ENJOY
comments
We did not receive enough feedback on this tab! Please rate:
print report bad tab
1 2 3 4 5
5 comments total. Showing first comments.
0 reply
Co&Ca11 wrote on February 11 2009, 09:38 pm

sounds good!

0 reply
Co&Ca11 wrote on February 20 2009, 07:30 pm

do you think you could try the messenger next? thanks

0 reply
CaraSposa wrote on February 21 2009, 06:24 pm

I'm going to try and tab out messenger next week. I have a week off work and i think I'm going to try and tab out a few songs. stay posted!

I want to post or [tab]
guest
You may want to rate the tab now too:
select rating
Please do not post tabs as comments. Select "correction" instead!