Oops, an error
Loading. Please wait.

Green Grass And High Tides Tab

5,579 views 1 this week
4 commentsread comments
1 2 3 4 5
excellent!
x 4
add to favorites launch autoscroll
font size
0
reset
Autoscroll
+/-
esc
set tempo
stop
Contributor
WARNING: You are trying to view
                                    content from Ultimate-Guitar.com
                                    in an unauthorized application,
                                    which is prohibited.

                                    Please use an official Ultimate
                                    Guitar Tabs application for iPhone,
                                    iPad or Android to access legitimate
                                    chords, guitar, bass, and drum tabs
                                    from Ultimate-Guitar.com database.

                                    Type "ultimate guitar tabs" in Apple
                                    App Store's or Android Market's
                                    search to find the application.
Green Grass and High Tides - by the outlaws (i  realize that i messed up but idk how to change it)

Standard Tuning
(b)= bend
Good luck...


|-----------------------------------------------------------------------------------|
|-----------------------5----------3-----------3-----------5------------------------|
|----------0---------5----------4-----------2-----------2--2------------------------|
|-------2---------5----------5-----------4--------4--2--2--2-------2----------------|
|----2--------/3----------------------5-----------5--0--0--0-------2h3--------------|
|-0-----------------------3---------------------------------------------------------|


|-------------------------------------------------------------3/5-------------------|
|-----------------------5----------3-----------3-----------5--3/5-------------------|
|----------0---------5----------4-----------2-----2--2--2--2------------------------|
|-------2---------5----------5-----------4--------4--2--2--2------------------------|
|----2--------/3----------------------5-----------5--0--0--0--------2h3~------------|
|-0-----------------------3---------------------------------------------------------|


|----------------------------------3------------2--------------5--------------------|
|-------------------5------------3---3--------3---3---3-----2--5--------------------|
|----------0------5---5--------4------------2---------2--2--2--2--------------------|
|-------2-------5-------5----5------------4-----------4--2--2--2--------------------|
|----2--------3-------------------------5-------------5--0--0--0----2h3~------------|
|-0------------------------3--------------------------------------------------------|


|-----------------------------------------------------------------------------------|
|-----------------------5----------3-----------3------------------------------------|
|----------0---------5----------4-----------2-----2-----2--2------------------------|
|-------2---------5----------5-----------4--------4--2--2--2------------------------|
|----2--------/3----------------------5-----------5--0--0--0------0-2-3-------------|
|-0-----------------------3---------------------------------------------------------|


|-------------------3-----------------------2---------------------------------------|
|-------------1-----3-----2--------5--------2--------------2------------------------|
|----0--------0-----4-----4--------5--------2-----5--------2-----5-----4--2---------|
|----2--------2--------5--------------------------5--------2-----5-----4--2---------|
|-------3--3-----------------0--0-----0--0-----0-----0--0-----0-----0--------2------|
|-0--------------3------------------------------------------------------------0h2h3-|


|-------------------3-----2---------------------------------------------------------|
|----0--------1-----3-----3---------------------------------------------------------|
|----0--------0-----4-----2-----------5--------2------------------------------------|
|----2--------2-----5-----4--2--------5--------2------------------------------------|
|-------3--3-----------5-----0--0--0-----0--0---------------------------------------|
|-0--------------3------------------------------------------------------------------|


|-----------------------------------------------------------------------------------|
|-----7-----------------------------------------------------------------------------|
|-----7---7-7h9-9p7-9-7---7---------------------------------------------------------|
|-5/7-7-9---------------9---9p7p5-7--5---7p5---5------------------------------------|
|--------------------------------------7-----7---7-------5-6-7--------5h6h7---------|
|--------------------------------------------------------------5-6-7--------5h6h7---|


|-------------------3-----------------------2---------------------------------------|
|-------------1-----3-----2--------5--------2--------------2------------------------|
|----0--------0-----4-----4--------5--------2-----5--------2-----5-----4--2---------|
|----2--------2--------5--------------------------5--------2-----5-----4--2---------|
|-------3--3-----------------0--0-----0--0-----0-----0--0-----0-----0---------------|
|-0--------------3------------------------------------------------------------------|


|-----------------------------------------------------------------------------------|
|-------0-----------------------------------------------------7---------------------|
|-------0---------------0-----------5------------5------------7---------------------|
|-------2------------------0--------5------------5--7p5-------7--7h9p7--------------|
|----------------0h1h2--------3--3-------3--5h7----------7/9------------------------|
|-0--0-----2--3---------------------------------------------------------------------|


|--------------------3--------------------------------------------------------------|
|-------0------------3--------------------------------------------------------------|
|-------0------------4-----------5------------5--5----------------------------------|
|-------2------------5-----------5------------5--5-------7h9p7----------------------|
|--------------------------3--3-------3--5h7--------7/9-----------------------------|
|-0--0-----2--3---3-----------------------------------------------------------------|


SOLO:

|-3----------3----------------------------------------------------------------------|
|----3----------3-------------------3----------3------------------------------------|
|-------2(b)-------2(r)-0-----0-----2(b)--2p0--2(b)--2p0--0h2p0--0h2p0--------------|
|--------------------------0-----0--------------------------------------------------|
|-----------------------------------------------------------------------------------|
|-----------------------------------------------------------------------------------|


|-----------------------------------3--------------------------------------------3-3|
|-----------------------------3--------------------------------------------------3--|
|-0h2p0-------0-0h2p0---------2(b)----0h2p0-------0---0--0h2p0-------0--------------|
|--------0h2------------0-2-0-----------------0h2---2----------0-0h2---0h2p0--------|
|----------------------------------------------------------------------------0h2----|
|-----------------------------------------------------------------------------------|


|-------------------------0----------------------------------------------------------|
|---------------------------0-------------------3-3----------------------------------|
|-2(b)p0-0---0---0-2(b)-2-----2(b)-0---0---2(b)-----2(r)p0-0h2p0-----0---0-0h2p0-----|
|----------0---0---------------------0---0-----------------------0h2---2---------2---|
|------------------------------------------------------------------------------------|
|------------------------------------------------------------------------------------|


|------------------------------------------------------------------------------------|
|------------------------------------------------------------------------------------|
|-0-----------------------------------------------0----------0-----------------------|
|----2--0-----0--0h2p0---0-0h2p0---0-2-0---------------------------------------------|
|----------2-----------2---------2-------0-0h2h3------0h2h3--------------------------|
|------------------------------------------------------------------------------------|

|---------------------------------7--------------------------------------|
|------7-----7------7-------------7--------------------7-----7-----------|
|------7-----7h9~---7-------------7--------------------7-----7-----------|
|-2/9-----9-----------9p7\5-7hp-----9p7\5-7p5------/9-----9--9-----------|
|---------------------------------------------7~-------------------------|
|------------------------------------------------------------------------|


|-----------------------------------------|
|-7----------7----------------------------|
|-7----------7----------------------------|
|----9p7-9------9p7\5-7p5-----------------|
|-------------------------7(b)~-----------|
|-----------------------------------------|


|---------------------------------------------------------------------------|
|-----7-----7------------------7---------------------7-----7----------------|
|-----7-----7h9~-7-------------7---------------------7-----7h9~-------------|
|-/9-----9---------9p7\5-7h9~-----9p7\5--7p5-----/9-----9-------------------|
|--------------------------------------------7~-----------------------------|
|---------------------------------------------------------------------------|


|-----------------------------------------------------------------------------------|
|-----------------------------------------------------------------------------------|
|-7-----------------5--7(b)-----5--7(b)------5--7(b)--------------------------------|
|----9p7\5-7p5------5--7(b)p5---5--7(b)p5----5--7(b)p5------5-----------------------|
|--------------5h7------------7-----------7------------7-------7--7~----------------|
|-----------------------------------------------------------------------------------|


|-----------------------------------------------------------------------------------|
|------------------------------------------------------------------------7----------|
|-------------------5---5---------5-----------5-5--------7-7---------7---7----------|
|-------------------5---5-5h7p5---5-5h7p5-----5-7p5------7-7-7h9p7---7h9---9--------|
|-----5-5h7p5---5h7---7---------7---------5p7-------/7-9-----------9----------------|
|-5-7---------7---------------------------------------------------------------------|


|----7------7-------------7------7----7------------------------------|
|-7--8------8------8------8------8----8-------8----8-----------------|
|-7--9---7--9---7--9---7--9---7--9----9(b)p7--9p7--9-----------------|
|--------------------------------------------------------------------|
|--------------------------------------------------------------------|
|--------------------------------------------------------------------|


|-10/7-------10/7-------10/7----------------------------------|
|-10/7--8----10/7--8----10/7--8-----8-------------------------|
|-------9--7-------9--7-------9--7--9--7--7-------------------|
|-----------------------------------------7h9-----------------|
|-------------------------------------------------------------|
|-------------------------------------------------------------|


|--------------------------------7--------------------------------------------------|
|-7--8---------7--7--7--7h9-7----7/8------------------------------------------------|
|-7--9p7--7----7--7--7--------9--7/9--9-9-9-7-7-7----7-7-7-7------------------------|
|---------7h9-----9------------------------------7h9---------9\7p5------------------|
|-----------------------------------------------------------------------------------|
|-----------------------------------------------------------------------------------|


|---------------------------------------------------------------|
|---------------------------------------------------------------|
|-------------------5--7--5-------------------------------------|
|-7--5--------5--7-----------7--5----------7--9-----------------|
|-------5--7-----------------------7--7h9-----------------------|
|---------------------------------------------------------------|


|-7----7-----------------------------------------------------------------------------|
|-7h8--8p7-------------8-----------------------5-------------------------------------|
|-7h9--9p7--7-------7----------5--5------------5------------5-------7----------------|
|--------------7h9--------9p7-----5h7p5--------5--7p5-------5-------7--9-------------|
|----------------------------------------5--7----------5h7-----7/9-------------------|
|------------------------------------------------------------------------------------|


|-7----7--------------------------------------------------------------------|
|-7h8--8------------8-------------5-----------------------------------------|
|-7h9--9p7--7-------------7-------5--------------5--------------------------|
|--------------7h9-----9-----7p5-----5h7p5-------5------/7------------------|
|-------------------------------------------5h7--7------/9------------------|
|---------------------------------------------------------------------------|


SOLO pt. 2:

|-----------------------------------------------------------------------------------|
|----------7h8p7---7h8-8--8-8~----7-7-7h8p7----7h8p7----7-7h8p7----7-7h8p7----------|
|-9--9~----------9--------------------------9--------7----------9----------7--------|
|-----------------------------------------------------------------------------------|
|-----------------------------------------------------------------------------------|
|-----------------------------------------------------------------------------------|


|-----------------------------------------------------------------------------------|
|-7h8p7-----------------------------------------------------------------------------|
|----------------------------------------------------------------------7-9--9-9~----|
|-------9----7h9p7-5h7p5-4--4-4h5-4---4-------------------4h5/7-5-7h9---------------|
|-----------------------------------5---5/7--7-7--7-7-5h7---------------------------|
|-----------------------------------------------------------------------------------|


|-----------------------------------------------------------------------------------|
|---------------------------------10--8--------10--8---------9--7--9--7-----7-------|
|-9p7--9(b)p7h9--9--9~---7--9(b)---------9(b)---------9(b)~--------------9----------|
|-----------------------------------------------------------------------------------|
|-----------------------------------------------------------------------------------|
|-----------------------------------------------------------------------------------|


|-----------------------------------------------------------------|
|-----------------------10--8--------10--8------------------------|
|-9--7---------7--9(b)---------9(b)---------9(b)--9--7--9(b)------|
|-------9--9~-----------------------------------------------------|
|-----------------------------------------------------------------|
|-----------------------------------------------------------------|


|---------------------------------------------------------------------------|
|----------------------------------2h3h5-5-5--3h5h7-7~-7--5h7h8-8-8~--------|
|-9\7--7-7\4--4/2-2--2h4-4--4-4p2-------------------------------------------|
|---------------------------------------------------------------------------|
|---------------------------------------------------------------------------|
|---------------------------------------------------------------------------|


|-----------------------------------------------------------------------------------|
|-8--7h8h10--8h10h12--10h12h14--12-14-12-15-15--15p12-15p12-15-15p12-15-15p12-15p12-|
|-----------------------------------------------------------------------------------|
|-----------------------------------------------------------------------------------|
|-----------------------------------------------------------------------------------|
|-----------------------------------------------------------------------------------|


|-----------------------------------------------------------------------------------|
|-15(b)~-(x10)--15p12-15-12-15(b)~-(x10)--15p12-15-12--15(b)~-(x3)-15p12-15-12------|
|-----------------------------------------------------------------------------------|
|-----------------------------------------------------------------------------------|
|-----------------------------------------------------------------------------------|
|-----------------------------------------------------------------------------------|


|--------------------------12-12----------12-------12-12-12-------------------------|
|-15(b)~-(x4)--15p12-------12-12-------12-12-------12-12-12-15-12-------------------|
|--------------------14(b)-------14(b)-------14(b)----------------14(b)p12h14-12(b)-|
|-----------------------------------------------------------------------------------|
|-----------------------------------------------------------------------------------|
|-----------------------------------------------------------------------------------|


|--------------0------------------------------------------|
|----------3p0---3----------------------------------------|
|----0-2h4---------2(b)p0-2-0-----------------------------|
|-14--------------------------2-0-------------------------|
|---------------------------------2p0---------------------|
|-------------------------------------5(b)-3-0------------|


|-7---7-----------------------------------------------------x------------------------|
|-7h8-8p7-8-----------5---------------------------------7h8-------8-------7-----5----|
|-7h9-9p7-------7-----5-----------5---------5-------7---7h9---9/7-------7---9p7------|
|-----------7h9---9p7---5h7p5-----5-7p5-----5-------7---7h9---9/7---7h9--------------|
|-----------------------------5-7-------5-7---0-7h9-----7----------------------------|
|-------------------------------------------------------0----------------------------|


|-------------------------------------------------------------------3----------------|
|---0----------------------5-------------------------------------0--3-----3----------|
|---0-------0--------------5-------------5--5-------7------------0--4-----4----------|
|---0---0---0--------------5--5----------5--5-------7h9p7--------2--5-----5----------|
|------------------3---3---------3--5h7--------7h9------------------5-----5----------|
|---3-------3----------------------------------------------0--0-----3--3--3----------|


|--------------------------------------------------------------------------------12--|
|---------------------10(b)---------------------------------------12-------------12--|
|-----------5-------7---------------------------------------------12---12h14p12------|
|-5h7p5-----5h7p5/9--------------------------------12-12-14p12h14-12-14--------14----|
|-------5h7-------------------------12--10-14p12h14-14-------------------------------|
|---------------------------12h10p12--10---------------------------------------------|


|-15p12----12--------12-------12-------12-------12----------------------------------|
|----------15(b)-----15(b)----15(b)----15(b)----15(b)-------------------------------|
|-----------------------------------------------------------------------------------|
|-----------------------------------------------------------------------------------|
|-----------------------------------------------------------------------------------|
|-----------------------------------------------------------------------------------|


Good luck, and this was my first tab ever so if there are any complaints, suggestions, 
just comments then email me (booooogles@aim.com).  I will
be making an entire tab of the full outro solo so just sit tight and it will
be here soon.  (11/28/08)
4 comments total. Showing first comments.
0 reply
themizzouian wrote on January 13 2009, 01:12 am

i guess i missed when the outsiders got so good...................... :)

0 reply
Mr. Salt wrote on February 3 2009, 05:23 pm

The Outsiders? Perhaps, the [u] Outlaws , would give the band it's credit.

0 reply
Don't Ask wrote on July 24 2010, 11:56 am

I think a lot of people miss this tab because you misspelled the name of the band. That's really too bad. You don't think you can re-post it? Like copy-paste-ish?

I want to post or [tab]
guest
You may want to rate the tab now too:
select rating
Please do not post tabs as comments. Select "correction" instead!