Oops, an error
Loading. Please wait.

Poison Rain Tab

21 views 1 this week
no commentswrite comment
1 2 3 4 5
please rate
add to favorites launch autoscroll
font size
0
reset
Autoscroll
+/-
esc
set tempo
stop
Contributor
Difficulty
intermediate
WARNING: You are trying to view
                                    content from Ultimate-Guitar.com
                                    in an unauthorized application,
                                    which is prohibited.

                                    Please use an official Ultimate
                                    Guitar Tabs application for iPhone,
                                    iPad or Android to access legitimate
                                    chords, guitar, bass, and drum tabs
                                    from Ultimate-Guitar.com database.

                                    Type "ultimate guitar tabs" in Apple
                                    App Store's or Android Market's
                                    search to find the application.
-----------------------------------------------------------------------------
                          Poison Rain - Over Gravity
-----------------------------------------------------------------------------
Tabbed by: Kevin Hellon III
E-mail: kevbillions@yahoo.com
Tuning: Standard
Time: 6/8
http://www.overgravity.com/
                           [RHYTHM GUITAR TAB]

Intro Riff 1:
e|----------------------------------------------------------------------------|
B|----------------------------------------------------------------------------|
G|----------------------------------------------------------------------------|
D|--------------4------------5-------------2----------------------------------|
A|--------------4------------5-------------2----------------------------------|
E|-0h2-2-2-2-2-----2-2-2-2-2----2-2-2-2-2------2-2-2-2-2----------------------|
       . . . .     . . . . .    . . . . .      . . . . .
e|----------------------------------------------------------------------------|
B|----------------------------------------------------------------------------|
G|----------------------------------------------------------------------------|
D|--------------5------------4-------------2*---------------------------------|
A|--------------5------------4-------------2*---------------------------------|
E|-0h2-2-2-2-2-----2-2-2-2-2----2-2-2-2-2------------&----------&-------------|
       . . . .     . . . . .    . . . . .

Verse 1: x2
e|----------------------------------------------------------------------------|
B|----------------------------------------------------------------------------|
G|-----------7----------------------------------------------------------------|
D|-4----6----7----------------------4-----------------------------------------|
A|-2----4----5--5-5-5-5---7----6----4-----------------------------------------|
E|------------------------5----4----2--2-2-2-2--------------------------------|
                . . . .                . . . .
e|----------------------------------------------------------------------------|
B|----------------------------------------------------------------------------|
G|-----------7-----------------------9----------------------------------------|
D|-4----6----7-----------7-----------9----------------------------------------|
A|-2----4----5--5-5-5-5--7-----------7--7-7-7-7-------------------------------|
E|-----------------------5--5-5-5-5-------------------------------------------|
                . . . .     . . . .     . . . .

Pre-Chorus:
e|-----------------------------------------------------------------------------|
B|-----------------------------------------------------------------------------|
G|-----------------------------------------------------------------------------|
D|-7-7-7-7-7-7-7--------------------7-7-7-7-7-7-7------------------------------|
A|-5-5-5-5-5-5-5------&------&------5-5-5-5-5-5-5------&------&----------------|
E|-----------------------------------------------------------------------------|

e|-----------------------------------------------------------------------------|
B|-----------------------------------------------------------------------------|
G|-----------------------------------------------------------------------------|
D|-4-4-4-4-4-4-4--------------------4-4-4-4-4-4-4------------------------------|
A|-2-2-2-2-2-2-2------&------&------2-2-2-2-2-2-2------------------------------|
E|-----------------------------------------------------------------------------|

e|-----------------------------------------------------------------------------|
B|-----------------------------------------------------------------------------|
G|-----------------------------------------------------------------------------|
D|-7-7-7-7-7-7-7--------------------7-7-7-7-7-7-7------------------------------|
A|-5-5-5-5-5-5-5------&------&------5-5-5-5-5-5-5------&------&----------------|
E|-----------------------------------------------------------------------------|

e|----------------------------------------------------------------------------|
B|----------------------------------------------------------------------------|
G|----------------------------------------------------------------------------|
D|-4-4-4-4-4-4-4--------------------------------------------------------------|
A|-2-2-2-2-2-2-2------&------&------4---5---6---7-----------------------------|
E|----------------------------------2---3---4---5\----------------------------|
                                    .   .   .
Chorus 1:
e|----------------------------------------------------------------------------|
B|----------------------------------------------------------------------------|
G|----------------------------------------------------------------------------|
D|----------6/7---7-7-------------7/9---9-9-----------------------------------|
A|-4---4-4--4/5---5-5--6/7---7-7--5/7---7-7-----------------------------------|
E|-2---2-2-------------4/5---5-5----------------------------------------------|

e|----------------------------------------------------------------------------|
B|----------------------------------------------------------------------------|
G|----------------------------------------------------------------------------|
D|----------6/7---7-7---------------------------------------------------------|
A|-4---4-4--4/5---5-5--6/7---7-7-7\6-2--2--2----------------------------------|
E|-2---2-2-------------4/5---5-5-5\4-0--0--0----------------------------------|
                                     .  .  .

e|----------------------------------------------------------------------------|
B|----------------------------------------------------------------------------|
G|----------------------------------------------------------------------------|
D|----------6/7---7-7-------------7/9---9-9\\---------------------------------|
A|-4---4-4--4/5---5-5--6/7---7-7--5/7---7-7\\---------------------------------|
E|-2---2-2-------------4/5---5-5----------------------------------------------|

e|---------------------------------------------------|
B|---------------------------------------------------|
G|-4------------------7------------------------------|
D|-4------4--4--4--6--7------7--7--------------------|
A|-2--2-2-2--2--2--4--5--5-5-5--5--7--6--------------|
E|---------------------------------5--4--------------|
      . .                . .
e|----------------------------------------------------------------------------|
B|----------------------------------------------------------------------------|
G|----------------------------------------------------------------------------|
D|----------6/7---7-7-------------7/9---9-9-----------------------------------|
A|-4---4-4--4/5---5-5--6/7---7-7--5/7---7-7-----------------------------------|
E|-2---2-2-------------4/5---5-5----------------------------------------------|

e|----------------------------------------------------------------------------|
B|----------------------------------------------------------------------------|
G|----------------------------------------------------------------------------|
D|----------6/7---7-7---------------------------------------------------------|
A|-4---4-4--4/5---5-5--6/7---7-7-7\6-2--2--2----------------------------------|
E|-2---2-2-------------4/5---5-5-5\4-0--0--0----------------------------------|
                                     .  .  .
e|----------------------------------------------------------------------------|
B|----------------------------------------------------------------------------|
G|----------------------------------------------------------------------------|
D|----------6/7---7-7-------------7/9---9-9\\---------------------------------|
A|-4---4-4--4/5---5-5--6/7---7-7--5/7---7-7\\---------------------------------|
E|-2---2-2-------------4/5---5-5----------------------------------------------|

e|------------------------------------------------------|
B|------------------------------------------------------|
G|-4------------------7------(7)------------------------|
D|-4------4--4--4--6--7------(7)------------------------|
A|-2--2-2-2--2--2--4--5------(5)------------------------|
E|------------------------------------------------------|
      . .

Intro Riff 2:
e|----------------------------------------------------------------------------|
B|----------------------------------------------------------------------------|
G|----------------------------------------------------------------------------|
D|--------------4------------5-------------2----------------------------------|
A|--------------4------------5-------------2----------------------------------|
E|-0h2-2-2-2-2-----2-2-2-2-2----2-2-2-2-2------2-2-2-2-2----------------------|
       . . . .     . . . . .    . . . . .      . . . . .
e|----------------------------------------------------------------------------|
B|----------------------------------------------------------------------------|
G|----------------------------------------------------------------------------|
D|--------------4------------5-------------2*---------------------------------|
A|--------------4------------5-------------2*---------------------------------|
E|-0h2-2-2-2-2-----2-2-2-2-2----2-2-2-2-2------------&----------&-------------|
       . . . .     . . . . .    . . . . .

Verse 2: x2
e|----------------------------------------------------------------------------|
B|----------------------------------------------------------------------------|
G|-----------7----------------------------------------------------------------|
D|-4----6----7----------------------4-----------------------------------------|
A|-2----4----5--5-5-5-5---7----6----4-----------------------------------------|
E|------------------------5----4----2--2-2-2-2--------------------------------|
                . . . .                . . . .
e|----------------------------------------------------------------------------|
B|----------------------------------------------------------------------------|
G|-----------7-------------------------9--------------------------------------|
D|-4----6----7-----------7-------------9--------------------------------------|
A|-2----4----5--5-5-5-5--7-------------7--7-7-7-7-----------------------------|
E|-----------------------5--5-5-5-5-------------------------------------------|
                . . . .     . . . .       . . . .

Pre-Chorus:
e|----------------------------------------------------------------------------|
B|----------------------------------------------------------------------------|
G|----------------------------------------------------------------------------|
D|-7-7-7-7-7-7-7--------------------7-7-7-7-7-7-7-----------------------------|
A|-5-5-5-5-5-5-5------&------&------5-5-5-5-5-5-5------&------&---------------|
E|----------------------------------------------------------------------------|

e|----------------------------------------------------------------------------|
B|----------------------------------------------------------------------------|
G|----------------------------------------------------------------------------|
D|-4-4-4-4-4-4-4--------------------4-4-4-4-4-4-4-----------------------------|
A|-2-2-2-2-2-2-2------&------&------2-2-2-2-2-2-2-----------------------------|
E|----------------------------------------------------------------------------|

e|----------------------------------------------------------------------------|
B|----------------------------------------------------------------------------|
G|----------------------------------------------------------------------------|
D|-7-7-7-7-7-7-7--------------------7-7-7-7-7-7-7-----------------------------|
A|-5-5-5-5-5-5-5------&------&------5-5-5-5-5-5-5------&------&---------------|
E|----------------------------------------------------------------------------|

e|----------------------------------------------------------------------------|
B|----------------------------------------------------------------------------|
G|----------------------------------------------------------------------------|
D|-4-4-4-4-4-4-4--------------------------------------------------------------|
A|-2-2-2-2-2-2-2------&------&------4---5---6---7-----------------------------|
E|----------------------------------2---3---4---5\----------------------------|
                                    .   .   .

Chorus 2:
e|----------------------------------------------------------------------------|
B|----------------------------------------------------------------------------|
G|----------------------------------------------------------------------------|
D|----------6/7---7-7-------------7/9---9-9-----------------------------------|
A|-4---4-4--4/5---5-5--6/7---7-7--5/7---7-7-----------------------------------|
E|-2---2-2-------------4/5---5-5----------------------------------------------|

e|----------------------------------------------------------------------------|
B|----------------------------------------------------------------------------|
G|----------------------------------------------------------------------------|
D|----------6/7---7-7---------------------------------------------------------|
A|-4---4-4--4/5---5-5--6/7---7-7-7\6-2--2--2----------------------------------|
E|-2---2-2-------------4/5---5-5-5\4-0--0--0----------------------------------|
                                     .  .  .

e|----------------------------------------------------------------------------|
B|----------------------------------------------------------------------------|
G|----------------------------------------------------------------------------|
D|----------6/7---7-7-------------7/9---9-9\\---------------------------------|
A|-4---4-4--4/5---5-5--6/7---7-7--5/7---7-7\\---------------------------------|
E|-2---2-2-------------4/5---5-5----------------------------------------------|

e|---------------------------------------------------|
B|---------------------------------------------------|
G|-4------------------7------------------------------|
D|-4------4--4--4--6--7------7--7--------------------|
A|-2--2-2-2--2--2--4--5--5-5-5--5--7--6--------------|
E|---------------------------------5--4--------------|
      . .                          .  .
e|----------------------------------------------------------------------------|
B|----------------------------------------------------------------------------|
G|----------------------------------------------------------------------------|
D|----------6/7---7-7-------------7/9---9-9-----------------------------------|
A|-4---4-4--4/5---5-5--6/7---7-7--5/7---7-7-----------------------------------|
E|-2---2-2-------------4/5---5-5----------------------------------------------|

e|----------------------------------------------------------------------------|
B|----------------------------------------------------------------------------|
G|----------------------------------------------------------------------------|
D|----------6/7---7-7---------------------------------------------------------|
A|-4---4-4--4/5---5-5--6/7---7-7-7\6-2--2--2----------------------------------|
E|-2---2-2-------------4/5---5-5-5\4-0--0--0----------------------------------|
                                     .  .  .
e|----------------------------------------------------------------------------|
B|----------------------------------------------------------------------------|
G|----------------------------------------------------------------------------|
D|----------6/7---7-7-------------7/9---9-9\\---------------------------------|
A|-4---4-4--4/5---5-5--6/7---7-7--5/7---7-7\\---------------------------------|
E|-2---2-2-------------4/5---5-5----------------------------------------------|

e|------------------------------------------------------|
B|------------------------------------------------------|
G|-4------------------7------(7)------------------------|
D|-4------4--4--4--6--7------(7)------------------------|
A|-2--2-2-2--2--2--4--5------(5)------------------------|
E|------------------------------------------------------|
              .   .

Breakdown Part 1:
Time: 11/8
e|----------------------------------------------------------------------------|
B|----------------------------------------------------------------------------|
G|----------------------------------------------------------------------------|
D|----------------------------------------------------------------------------|
A|----------------------------------------------------------------------------|
E|------&------&------&------&------&------&----------------------------------|

e|----------------------------------------------------------------------------|
B|----------------------------------------------------------------------------|
G|----------------------------------------------------------------------------|
D|----------------------------------------------------------------------------|
A|----------------------------------------------------------------------------|
E|------&------&------&------&------&-----------------------------------------|

e|----------------------------------------------------------------------------|
B|----------------------------------------------------------------------------|
G|----------------------------------------------------------------------------|
D|----------------------------------------------------------------------------|
A|----------------------------------------------------------------------------|
E|------&------&------&------&------&------&----------------------------------|

e|----------------------------------------------------------------------------|
B|----------------------------------------------------------------------------|
G|----------------------------------------------------------------------------|
D|----------------------------------------------------------------------------|
A|----------------------------------------------------------------------------|
E|------&------&------&------&------&-----------------------------------------|

e|----------------------------------------------------------------------------|
B|----------------------------------------------------------------------------|
G|----------------------------------------------------------------------------|
D|----------------------------------------------------------------------------|
A|----------------------------------------------------------------------------|
E|------&------&------&------&------&------&----------------------------------|

e|----------------------------------------------------------------------------|
B|----------------------------------------------------------------------------|
G|----------------------------------------------------------------------------|
D|----------------------------------------------------------------------------|
A|----------------------------------------------------------------------------|
E|------&------&------&------&------&-----------------------------------------|

e|----------------------------------------------------------------------------|
B|----------------------------------------------------------------------------|
G|----------------------------------------------------------------------------|
D|----------------------------------------------------------------------------|
A|----------------------------------------------------------------------------|
E|------&------&------&------&------&------&----------------------------------|

e|----------------------------------------------------------------------------|
B|----------------------------------------------------------------------------|
G|----------------------------------------------------------------------------|
D|----------------------------------------------------------------------------|
A|----------------------------------------------------------------------------|
E|------&------&------&------&------&-----------------------------------------|

Breakdown Part 2:
e|----------------------------------------------------------------------------|
B|----------------------------------------------------------------------------|
G|----------------------------------------------------------------------------|
D|---------------------------------4------------------------------------------|
A|---------4-----5----4----5--------------------------------------------------|
E|-0h2-2----2-2----2----2----2------------------------------------------------|

e|----------------------------------------------------------------------------|
B|----------------------------------------------------------------------------|
G|----------------------------------------------------------------------------|
D|------------------------5---------------------------------------------------|
A|------4-----5----4----------------------------------------------------------|
E|-2-2----2-2----2----2-------------------------------------------------------|

e|----------------------------------------------------------------------------|
B|----------------------------------------------------------------------------|
G|----------------------------------------------------------------------------|
D|-----------------------------4----------------------------------------------|
A|-----4------5----4----5-----------------------------------------------------|
E|-2-2----2-2----2----2----2--------------------------------------------------|

e|----------------------------------------------------------------------------|
B|----------------------------------------------------------------------------|
G|----------------------------------------------------------------------------|
D|------------------------5---------------------------------------------------|
A|------4-----5----4----------------------------------------------------------|
E|-2-2----2-2----2----2-------------------------------------------------------|

e|----------------------------------------------------------------------------|
B|----------------------------------------------------------------------------|
G|----------------------------------------------------------------------------|
D|------------------------------4---------------------------------------------|
A|-----4------5----4----5-----------------------------------------------------|
E|-2-2----2-2----2----2----2--------------------------------------------------|

e|----------------------------------------------------------------------------|
B|----------------------------------------------------------------------------|
G|----------------------------------------------------------------------------|
D|------------------------5---------------------------------------------------|
A|------4-----5----4----------------------------------------------------------|
E|-2-2----2-2----2----2-------------------------------------------------------|

e|----------------------------------------------------------------------------|
B|----------------------------------------------------------------------------|
G|----------------------------------------------------------------------------|
D|------------------------------4---------------------------------------------|
A|-----4-------5----4----5----------------------------------------------------|
E|-2-2----2-2----2----2----2--------------------------------------------------|

e|----------------------------------------------------------------------------|
B|----------------------------------------------------------------------------|
G|----------------------------------------------------------------------------|
D|----------------------------------------------------------------------------|
A|------4-----5------4-(4)----------------------------------------------------|
E|-2-2----2-2----2-2---(2)----------------------------------------------------|

Chorus 3 (Bass Solo):
e|----------------------------------------------------------------------------|
B|----------------------------------------------------------------------------|
G|----------------------------------------------------------------------------|
D|----------------------------------------------------------------------------|
A|----------------------------------------------------------------------------|
E|------&------&------&------&------&------&----------------------------------|

e|----------------------------------------------------------------------------|
B|----------------------------------------------------------------------------|
G|----------------------------------------------------------------------------|
D|----------------------------------------------------------------------------|
A|----------------------------------------------------------------------------|
E|------&------&------&------&------&------&----------------------------------|

e|----------------------------------------------------------------------------|
B|----------------------------------------------------------------------------|
G|----------------------------------------------------------------------------|
D|----------------------------------------------------------------------------|
A|----------------------------------------------------------------------------|
E|------&------&------&------&------&------&----------------------------------|

e|----------------------------------------------------------------------------|
B|----------------------------------------------------------------------------|
G|----------------------------------------------------------------------------|
D|----------------------------------------------------------------------------|
A|----------------------------------------------------------------------------|
E|------&------&------&------&------&------&----------------------------------|

(Clean Guitar In)
e|----------------------------------------------------------------------------|
B|----------------------------------------------------------------------------|
G|----------------------------------------------------------------------------|
D|----------------------------------------------------------------------------|
A|----------------------------------------------------------------------------|
E|------&------&------&------&------&------&----------------------------------|

e|----------------------------------------------------------------------------|
B|----------------------------------------------------------------------------|
G|----------------------------------------------------------------------------|
D|----------------------------------------------------------------------------|
A|----------------------------------------------------------------------------|
E|------&------&------&------&------&------&----------------------------------|

e|----------------------------------------------------------------------------|
B|----------------------------------------------------------------------------|
G|-4--------------------------------------------------------------------------|
D|-4--------------------7-6---------------------------------------------------|
A|-2--2-2-2-2-4-5-5-5-5-7-6---------------------------------------------------|
E|----------------------5-4---------------------------------------------------|
      . . . . . . . . .

e|----------------------------------------------------------------------------|
B|----------------------------------------------------------------------------|
G|----------------------------------------------------------------------------|
D|----------6/7---7-7-------------7/9---9-9-----------------------------------|
A|-4---4-4--4/5---5-5--6/7---7-7--5/7---7-7-----------------------------------|
E|-2---2-2-------------4/5---5-5----------------------------------------------|

e|----------------------------------------------------------------------------|
B|----------------------------------------------------------------------------|
G|----------------------------------------------------------------------------|
D|----------6/7---7-7---------------------------------------------------------|
A|-4---4-4--4/5---5-5--6/7---7-7-7\6-2--2--2----------------------------------|
E|-2---2-2-------------4/5---5-5-5\4-0--0--0----------------------------------|
                                     .  .  .

e|----------------------------------------------------------------------------|
B|----------------------------------------------------------------------------|
G|----------------------------------------------------------------------------|
D|----------6/7---7-7-------------7/9---9-9\\---------------------------------|
A|-4---4-4--4/5---5-5--6/7---7-7--5/7---7-7\\---------------------------------|
E|-2---2-2-------------4/5---5-5----------------------------------------------|

e|---------------------------------------------------|
B|---------------------------------------------------|
G|-4------------------7------------------------------|
D|-4------4--4--4--6--7------7--7--------------------|
A|-2--2-2-2--2--2--4--5--5-5-5--5--7--6--------------|
E|---------------------------------5--4--------------|
      . .                          .  .
e|----------------------------------------------------------------------------|
B|----------------------------------------------------------------------------|
G|----------------------------------------------------------------------------|
D|----------6/7---7-7-------------7/9---9-9-----------------------------------|
A|-4---4-4--4/5---5-5--6/7---7-7--5/7---7-7-----------------------------------|
E|-2---2-2-------------4/5---5-5----------------------------------------------|

e|----------------------------------------------------------------------------|
B|----------------------------------------------------------------------------|
G|----------------------------------------------------------------------------|
D|----------6/7---7-7---------------------------------------------------------|
A|-4---4-4--4/5---5-5--6/7---7-7-7\6-2--2--2----------------------------------|
E|-2---2-2-------------4/5---5-5-5\4-0--0--0----------------------------------|
                                     .  .  .
e|----------------------------------------------------------------------------|
B|----------------------------------------------------------------------------|
G|----------------------------------------------------------------------------|
D|----------6/7---7-7-------------7/9---9-9\\---------------------------------|
A|-4---4-4--4/5---5-5--6/7---7-7--5/7---7-7\\---------------------------------|
E|-2---2-2-------------4/5---5-5----------------------------------------------|

e|----------------------------------------------------------------------------|
B|----------------------------------------------------------------------------|
G|----------------------------------------------------------------------------|
D|----------6/7---7-7-------------7/9---9-9-----------------------------------|
A|-4---4-4--4/5---5-5--6/7---7-7--5/7---7-7-----------------------------------|
E|-2---2-2-------------4/5---5-5----------------------------------------------|

e|----------------------------------------------------------------------------|
B|----------------------------------------------------------------------------|
G|----------------------------------------------------------------------------|
D|----------6/7---7-7---------------------------------------------------------|
A|-4---4-4--4/5---5-5--6/7---7-7-7\6-2--2--2----------------------------------|
E|-2---2-2-------------4/5---5-5-5\4-0--0--0----------------------------------|
                                     .  .  .
e|----------------------------------------------------------------------------|
B|----------------------------------------------------------------------------|
G|----------------------------------------------------------------------------|
D|----------6/7---7-7-------------7/9---9-9\\---------------------------------|
A|-4---4-4--4/5---5-5--6/7---7-7--5/7---7-7\\---------------------------------|
E|-2---2-2-------------4/5---5-5----------------------------------------------|

e|------------------------------------------------------|
B|------------------------------------------------------|
G|-4------------------7------(7)------------------------|
D|-4------4--4--4--6--7------(7)------------------------|
A|-2--2-2-2--2--2--4--5------(5)------------------------|
E|------------------------------------------------------|
      . .

Outro Riff:
e|----------------------------------------------------------------------------|
B|----------------------------------------------------------------------------|
G|----------------------------------------------------------------------------|
D|--------------4-------------5-------------2---------------------------------|
A|--------------4-------------5-------------2---------------------------------|
E|-0h2-2-2-2-2-----2-2-2-2-2----2-2-2-2-2------2-2-2-2-2----------------------|
       . . . .     . . . . .    . . . . .      . . . . .
e|----------------------------------------------------------------------------|
B|----------------------------------------------------------------------------|
G|----------------------------------------------------------------------------|
D|--------------4-------------5-------------2---------------------------------|
A|--------------4-------------5-------------2---------------------------------|
E|-0h2-2-2-2-2-----2-2-2-2-2----2-2-2-2-2------2-2-2-2-2----------------------|
       . . . .     . . . . .    . . . . .      . . . . .
e|----------------------------------------------------------------------------|
B|----------------------------------------------------------------------------|
G|----------------------------------------------------------------------------|
D|--------------4-------------5-------------2---------------------------------|
A|--------------4-------------5-------------2---------------------------------|
E|-0h2-2-2-2-2-----2-2-2-2-2----2-2-2-2-2------2-2-2-2-2----------------------|
       . . . .     . . . . .    . . . . .      . . . . .
e|----------------------------------------------------------------------------|
B|----------------------------------------------------------------------------|
G|----------------------------------------------------------------------------|
D|--------------5-------------4-------------2*--------------------------------|
A|--------------5-------------4-------------2*--------------------------------|
E|-0h2-2-2-2-2-----2-2-2-2-2----2-2-2-2-2------------&----------&-------------|
       . . . .     . . . . .    . . . . .
************************************

| /   slide up
| \   slide down
| h   hammer-on
| p   pull-off
| ~   vibrato
| +   harmonic
| x   Mute note
| b   Bend
| pb  Pre-bend
| br  Bend release
| pbr Pre-bend release
| brb Bend release bend
| . Palm Mute
| * Staccato
|& Rest

************************************
comments
We did not receive enough feedback on this tab! Please rate:
print report bad tab
1 2 3 4 5
I want to post or [tab]
guest
You may want to rate the tab now too:
select rating
Please do not post tabs as comments. Select "correction" instead!