Oops, an error
Loading. Please wait.

Soulitude Tab

2,405 views 6 this week
no commentswrite comment
1 2 3 4 5
excellent!
x 4
Autoscroll
+/-
esc
set tempo
stop
WARNING: You are trying to view
                                    content from Ultimate-Guitar.com
                                    in an unauthorized application,
                                    which is prohibited.

                                    Please use an official Ultimate
                                    Guitar Tabs application for iPhone,
                                    iPad or Android to access legitimate
                                    chords, guitar, bass, and drum tabs
                                    from Ultimate-Guitar.com database.

                                    Type "ultimate guitar tabs" in Apple
                                    App Store's or Android Market's
                                    search to find the application.
Song: Soulitude
Band: Overkill
Album: Horrorscope (1991)

-----------------------------------------
     http:\\members.xoom.com\h_msd
-----------------------------------------
  Tabbed by: Hugo_MSD (aka Mr.Crowley) 
     e-mail: h_msd@hotmail.com         
-----------------------------------------


tune down 1/2 step


  clean
||--------------------------------|---------------------------------||
||-------1_---1-----3-----0-----1-|-----------------0---0_--(1)/3-1-||
||.----2----2---2-4---4-----0-2---|------2_---2-------0----0-------.||
||.-------------------------------|----3----3---3------------------.||
||--0_------------2---------------|-0_------------------------------||
||----------------------3---------|---------------3-----------------||



 dist
|-------------------------------|------10-7-8--7------------------|
|----------------8--------------|------------10-8-10-7-8-7--------|
|-7/9___-----7h9------9----7---7h9__--------------------9-7-9--7--|
|-------------------------------|----------------------------10-9-|
|-------------------------------|---------------------------------|
|-------------------------------|---------------------------------|
|
|clean
|-------------------------------|---------------------------------|
|------1_---1-----3-----0-----1-|-----------------0---0_--(1)/3-1-|
|----2----2---2-4---4-----0-2---|------2_---2-------0----0--------|
|-------------------------------|----3----3---3-------------------|
|-0_------------2---------------|-0_------------------------------|
|---------------------3---------|---------------3-----------------|


|-------------------------------|------------12-15_--12-------------|--------|
|------10_-----------------12b13r12__------12----------12-----------|--------|
|-----------9-(9)/12_-9_--------|--------14--------------12----14b16r14__----|
|-7_----------------------------|--------------------------14_------|--------|
|-------------------------------|-----------------------------------|--------|
|-------------------------------|-----------------------------------|--------|
|
|-------------------------------|-----------------------------------|-0------|
|------1_---1-----3-----0-----1-|-----------------0---0_---0/1------|-1------|
|----2----2---2-4---4-----0-2---|------2_---2-------0----0----------|-2------|
|-------------------------------|----3----3---3---------------------|-2------|
|-0_------------2---------------|-0_--------------------------------|-0------|
|---------------------3---------|---------------3-------------------|--------|



||--------------------------------|-----------------------0--------||
||-------1_---1-----3-----0-----1-|-----------------0---0---0---0--||
||.----2----2---2-4---4-----0-2---|------2_---2-------0-------0---.||
||.-------------------------------|----3----3---3-----------------.||
||--0_------------2---------------|-0_-----------------------------||
||----------------------3---------|---------------3----------------||


 dist.
|-------------------------|----------------------|--------------------------|
|-------------------------|----------------------|--------------------------|
|-7___---7/10-10___---10\5|-5___---5\4-4___---4/5|-5___---5/x---------------|
|-7___---7/10-10___---10\5|-5___---5\4-4___---4/5|-5___---5/x---9----7---6--|
|-5___---5/8---8___----8\3|-3___---3\2-2___---2/3|-3___---3/x--10----8---7--|
|-------------------------|----------------------|--------------------------|
|
|clean
|-------------------------|----------------------|--------------------------|
|-------------------------|----------------------|--------------------------|
|-----7_--7------10_--10--|-----0_-0-------4_-4--|-----0_--0----------------|
|----7---7-7---10---10--10|----2--2-2-----4--4-4-|----2---2-2----9----7-----|
|-5_----------8_----------|-3_---------2_--------|-3_--------x/10-10-8-8-7--|
|-------------------------|----------------------|--------------------------|

        know!                                              I don't know



 dist
|-----------------------------------------|
|-----------8-10-10b12r10_--8--10_-(10)r8-|
|-7/9___-7h9------------------------------|
|-----------------------------------------|
|-----------------------------------------|
|-----------------------------------------|
|
|clean
|-----------------------------------------|
|--------1_-----1--------3--------0-----1-|
|-----2------2-----2--4-----4-------0-2---|
|-----------------------------------------|
|-0_------------------2-------------------|
|------------------------------3----------|



 dist
|----------12-15_-----10-13p12p10-----------------------|
|--------12---------12-----------13p12p10---------------|
|-9__--14---------12---------------------12p10p9--------|
|-----------------------------------------------12p10p9-|
|-------------------------------------------------------|
|-------------------------------------------------------|
|
|clean
|-------------------------------------------------------|
|------------------------------0-------0_-----(1)/3--1--|
|---------2_-------2---------------0--------0-----------|
|-----3--------3-------3--------------------------------|
|-0_----------------------------------------------------|
|--------------------------3----------------------------|



||------------------------------------------------------0--------||
||-------1_---1-----3-----0-----1-----------------0---0---0---0--||
||.----2----2---2-4---4-----0-2--------2_---2-------0-------0---.||
||.----------------------------------3----3---3-----------------.||
||--0_------------2---------------0_-----------------------------||
||----------------------3-----------------------3----------------||


 dist
|--------------------------|----------------------|-------------------------|
|--------------------------|----------------------|-------------------------|
|-7___---7/10-10___----10\5|-5___---5\4-12__------|-7___--7/10-10___----10\5|
|-7___---7/10-10___----10\5|-5___---5\4-10__-10-9-|-7___--7/10-10___----10\5|
|-5___---5/8---8___-----8\3|-3___---3\2-10__--8-7-|-5___--5/8---8___-----8\3|
|--------------------------|----------------------|-------------------------|
|                                            p.m.
|
|--------------------------|----------------------|-------------------------|
|--------------------------|----------------------|-------------------------|
|-----7_--7-------10_--10--|-----0_--0----2-2-/5-4|-----7_--7------10_--10--|
|----7---7-7----10---10--10|----2---2-2----3-3----|----7---7-7---10---10--10|
|-5_----------8_-----------|-3_---------5_--------|-5_---------8_-----------|
|--------------------------|----------------------|-------------------------|

Alone                                           Alone



|--------------------|--------------------|-------------------------------|
|--------------------|--------------------|-------------------------------|
|-5___--5\4-4___--4/5|-5___--5\4-4___--4/5|-------------------------------|
|-5___--5\4-4___--4/5|-5___--5\4-4___--4/5|--------------------9----7---6-|
|-3___--3\2-2___--2/3|-3___--3\2-2___--2/3|-3-3-3-3-3-3-3-3-/10-10-8-8-7--|
|--------------------|--------------------|-------------------------------|
|                                           p.m............
|
|--------------------|--------------------|-------------------------------|
|--------------------|--------------------|-------------------------------|
|-----0_-0------4_-4-|-----0_-0------4_-4-|-------------------------------|
|----2--2-2----4--4-4|----2--2-0----4--4-4|--------------------9----7---6-|
|-3_--------2_-------|-3_--------2_-------|-----------------/10-10-8-8-7--|
|--------------------|--------------------|-------------------------------|



|------------|------------------|------------|-----------------------------|
|------------|------------------|------------|-----------------------------|
|-2----------|------------------|-2----------|-----------------------------|
|-2----------|------------------|-2-------x\-|-----------------------------|
|-0----------|-3----0-----/3-2--|-0-------x\-|-3-3-3-3-3-3-3-3-0-----/3-2--|
|------------|-1----2--(2)----3-|---------x\-|-1-1-1-1-1-1-1-1-2--(2)----3-|
                                               p.m............

||----------------------------------------------||
||----------------------------------------------||
||.--------------------------------------------.||
||.-2_---------4_---------5_-----2-/3-3-2-2----.||
||--0_--0-2-3--2_--2-3-5--3_--3-5----5---3-5-2--||
||----------------------------------------------||


|-------------------------------------------------------------------------|
|-------------------------------------------------------------------------|
|-------------------------------------------------------------------------|
|-2----2----2---4----4----4---5----5----5---------------------------------|
|-0000000000000-2222222222222-3333333333333-------------------------/3-2--|
|-------------------------------------------1-1-1-1-1-1-1-1-1-1-1-1-----3-|
   p.m. p.m. pm  p.m. p.m. pm  p.m. p.m. pm pm.....................


                              solo:
                              (Cannavino)
|----------------------------------------|-----------------------------------|
|---------------------------------------8/10__-10-10-10\8-8\6-6\5-5\3-3\1----|
|---------------------------------7h9h10-|---------------9---7---5---4---2p0-|
|---------------------------7h9h10-------|-----------------------------------|
|----------------------------------------|-----------------------------------|
|----------------------------------------|-----------------------------------|
|
|                                         clean
|----------------------------------------|-----------------------------------|
|----------------------------------------|----1_-1------------0---(1)/3--1---|
|-2_________________________________-----|---2--2-2----2--------0------------|
|-2_________________________________-----|---------------3-------------------|
|-0_________________________________-----|-0---------------------------------|
|----------------------------------------|-----------1------3----------------|


|------------------------------|
|----------3-5-5b6r5-3-5_---15-|
|-0h2__-2h5--------------------|
|------------------------------|
|------------------------------|
|------------------------------|
|
|------------------------------|
|------1_--1-----------0----1--|
|----2----2-2---2--------0-----|
|-----------------3------------|
|-0----------------------------|
|-------------1-----3----------|


|--------------15-17-19-19b20-19b20r19--15-------------------|
|-15h17__-17-18---------------------------18-17-17b18r17-----|
|--------------------------------------------------------/17-|
|------------------------------------------------------------|
|------------------------------------------------------------|
|------------------------------------------------------------|
|
|------------------------------------------------------------|
|----------1_-----1-----------------------0------(1)/3---1---|
|------2--------2---2--------2----------------0--------------|
|--------------------------------3---------------------------|
|-0----------------------------------------------------------|
|------------------------1------------3----------------------|


|-----------12-13p12p10---------------------------|
|---------13-----------13p12p10-------------------|
|-14__--14---------------------12p10p9------------|
|-------------------------------------12p10p9-----|
|--------------------------------------------12__-|
|-------------------------------------------------|
|
|-------------------------------------------------|
|----------1_-----1---------------------0------0--|
|------2--------2---2-------2---------------0-----|
|-------------------------------3-----------------|
|-0-----------------------------------------------|
|-----------------------1-----------3-------------|



|----------------------------|----------------7-8---7----------|
|-------10b12_-(12)r10_-8-10-|-10b12r10p8----8-x---8-x-10--8~--|
|-7h9__----------------------|-----------9_-9-----9----------9-|
|----------------------------|---------------------------------|
|----------------------------|---------------------------------|
|----------------------------|---------------------------------|
|
|----------------------------|---------------------------------|
|----------------------------|---------------------------------|
|-----0_-0-------------------|-----0_--0-----------------------|
|----2--2-2---2------4---/7-5|----2---2-2-----2-------4----/7_-|
|-----------3---3--5---5-----|--------------3---3---5---5------|
|-0--------------------------|-0-------------------------------|



|----------------------------|----------|
|-------7-7-7b8~~r7b8~~r7-7--|----------|
|9_--7-9-------------------7-|7/9~~~--x\|
|---9------------------------|--------x\|
|----------------------------|----------|
|----------------------------|----------|
|
|----------------------------|----------|
|----------------------------|----------|
|----0_-0--------------------|----0_-0--|
|---2--2-2---2------4---/7-5-|---2--2-2-|
|----------3---3--5---5------|----------|
|-0--------------------------|-0--------|


|--12-15--12-15--12-15--12-15--12-15--12-15--12-15--12-13-15p13p12-----------|
|13-----13-----13-----13-----13-----13-----13-----13--------------15p13p12---|
|-------------------------------------------------------------------------14-|
|----------------------------------------------------------------------------|
|----------------------------------------------------------------------------|
|----------------------------------------------------------------------------|
|
|----------------------------------------------------------------------------|
|----------------------------------------------------------------------------|
|------------0-------------0-----------------------0--------------0----------|
|-------2-------------2---------2-------------2--------------2---------2-----|
|-3-----------------------------------3--------------------------------------|
|----------------------------------------------------------------------------|



|--14-17--14-17--14-17--14-17--14-17--14-17--14-17--14-17-17p15p14-----------|
|15-----15-----15-----15-----15-----15-----15-----15--------------17p15p14---|
|-------------------------------------------------------------------------16-|
|----------------------------------------------------------------------------|
|----------------------------------------------------------------------------|
|----------------------------------------------------------------------------|
|
|----------------------------------------------------------------------------|
|----------------------------------------------------------------------------|
|------------0-------------0-----------------------0--------------0----------|
|-------4-------------4---------4-------------4--------------4---------4-----|
|-5-----------------------------------5--------------------------------------|
|----------------------------------------------------------------------------|


|--12-15--12-15--12-15--12-15--12-15---15---13---12--------------------------|
|13-----13-----13-----13-----13------13---13---13---13-15--13-13b15_r13p12---|
|-------------------------------------------------------------------------14-|
|----------------------------------------------------------------------------|
|----------------------------------------------------------------------------|
|----------------------------------------------------------------------------|
|
|----------------------------------------------------------------------------|
|----------------------------------------------------------------------------|
|------------0-------------0-----------------------0--------------0----------|
|-------2-------------2---------2-------------2--------------2---------2-----|
|-3-----------------------------------3--------------------------------------|
|----------------------------------------------------------------------------|



|--14-17--14-17--14-17--14-17--14-17-----17-20--17-20--------------17h18h20_-|
|15-----15-----15-----15-----15-----15-18-----18-----18-17-17h18h20----------|
|----------------------------------------------------------------------------|
|----------------------------------------------------------------------------|
|----------------------------------------------------------------------------|
|----------------------------------------------------------------------------|
|
|                                    dist.
|----------------------------------------------------------------------------|
|----------------------------------------------------------------------------|
|----------------------------------------------------------------------------|
|----------------------------------------------------------5-----4-----------|
|-5---5----5---5----5---5----5---5----8----8----8----8-----3-----2-----5-----|
|----------------------------------------------------------------------3-----|
  p.m..................................................


|--------------|------------------|------------|-----------------------------|
|--------------|------------------|------------|-----------------------------|
|-2__----------|------------------|-2----------|-----------------------------|
|-2__-2-4-5_---|------------------|-2-------x\-|-----------------------------|
|-0__-0-2-3_-5-|-3----0-----/3-2--|-0-------x\-|-3-3-3-3-3-3-3-3-0-----/3-2--|
|------------3-|-1----2--(2)----3-|---------x\-|-1-1-1-1-1-1-1-1-2--(2)----3-|
      p.m.                                       p.m............


||----------------------------------------------||
||----------------------------------------------||
||.--------------------------------------------.||
||.-2_---------4_---------5_-----2-/3-3-2-2----.||
||--0_--0-2-3--2_--2-3-5--3_--3-5----5---3-5-2--||
||----------------------------------------------||
                                     (4 times)

||---------------------------------------------------------||---------|
||---------------------------------------------------------||---------|
||.-------------------------------------------------------.||---------|
||.-2----2----2---4----4----4---5----5----5---/3-3-2-2----.||-2-------|
||--0000000000000-2222222222222-3333333333333---5---3-5-2--||-0-------|
||---------------------------------------------------------||---------|
     p.m. p.m. pm  p.m. p.m. pm  p.m. p.m. pm     (6 times)
comments
print report bad tab
I want to post or [tab]
guest
You may want to rate the tab now too:
select rating
Please do not post tabs as comments. Select "correction" instead!