Oops, an error
Loading. Please wait.

The Green And Black Tab

745 views 6 this week
no commentswrite comment
1 2 3 4 5
accurate
x 1
Autoscroll
+/-
esc
set tempo
stop
Contributor
Difficulty
advanced
Hey! There's an official Ultimate Guitar app which is ideal
for learning songs when you're away from computer. Get the app
WARNING: You are trying to view
                                    content from Ultimate-Guitar.com
                                    in an unauthorized application,
                                    which is prohibited.

                                    Please use an official Ultimate
                                    Guitar Tabs application for iPhone,
                                    iPad or Android to access legitimate
                                    chords, guitar, bass, and drum tabs
                                    from Ultimate-Guitar.com database.

                                    Type "ultimate guitar tabs" in Apple
                                    App Store's or Android Market's
                                    search to find the application.
----------------------------------------------------------------------------
                             The Green and Black - Overkill
----------------------------------------------------------------------------
Tabbed by: Gaetano Tagliarini   
E-mail: gaetano_tag@yahoo.com

Tuning: Standard

************************************

| /   slide up
| \   slide down
| .   palm mute
| h   hammer-on
| p   pull-off
| ~   vibrato
| +   harmonic
| .   Mute note
| b   Bend
| pb  Pre-bend
| br  Bend release
| pbr Pre-bend release
| brb Bend release bend

************************************

Intro (after bass part, distorted guitars kick in) 

e|----------------------------------------------------|
B|-----------12---11-------------11---11-12-11--------|
G|--9--9--------9--------------9----9----------9--9---|
D|----------------------------------------------------|Gtr1
A|----------------------------------------------------|
E|----------------------------------------------------|

e|----------------------------------------------------|
B|----------------------------------------------------|
G|----------------------------------------------------|
D|-----------9-----------------9----------------------|Gtr2
A|-----2-----7-----------2-----7----2-----7-5-----2---|
E|-0-0-0-0-0---------0-0-0-0-0--0-0-0-0-0-----7-6-0---|
   . .   . .         . .   . .  . .   . . . . . .  



e|---------------------------------------------|
B|-----12---11-------------11---11-12-11-------|
G|--------9--------------9----9----------9--9--|
D|---------------------------------------------|Gtr1
A|---------------------------------------------|
E|---------------------------------------------|

e|---------------------------------------------|
B|---------------------------------------------|
G|---------------------------------------------|
D|-----9-----------------9---------------------|Gtr2
A|-----7-----------2-----7----2-----7-5-----2--|
E|-0-0---------0-0-0-0-0--0-0-0-0-0-----7-6-0--|
   . .         . .   . .  . .   . . . . . .


e|------------------------------------------------|
B|-----12---/15---------------11---11-12-11-------|
G|--------9----------------9-----9----------9--9--|
D|------------------------------------------------|Gtr1
A|------------------------------------------------|
E|------------------------------------------------|

e|------------------------------------------------|
B|------------------------------------------------|
G|------------------------------------------------|
D|-----12----------------12-----------------------|Gtr2
A|-----10----------2-----10-----2-----10-7------2-|
E|-0-0---------0-0-0-0-0----0-0-0-0-0------10-9-0-|
   . .         . .   . .    . .   . . .  . .  .


e|------------------------------------------------|
B|-----12---/15---------------11---11-12-11-9-----|
G|--------9----------------9-----9----------------|
D|------------------------------------------------|Gtr1
A|------------------------------------------------|
E|------------------------------------------------|

e|------------------------------------------------|
B|------------------------------------------------|
G|------------------------------------------------|
D|-----12----------------12---------4/5---6/7-----|Gtr2
A|-----10----------2-----10-----2-2-2/3---4/5-----|
E|-0-0---------0-0-0-0-0----0-0-0-0-----0---------|
   . .         . .   . .    . . . .     .

e|--------------------------------------------------|
B|-(9)--let-ring------------------------------------|
G|---------------------------------------------9--9-|
D|--------------------------------------------------|Gtr1
A|--------------------------------------------------|
E|--------------------------------------------------|

e|--------------------------------------------------|
B|--------------------------------------------------|
G|--------------------------------------------------|
D|--------------------------------------------------|Gtr2
A|---------------8-----7---------------5-----3-2----|
E|-0-0-0-0-0-0-0-6-0-0-5-0-0-0-0-0-0-0-3-0-0-1-0----|
   . . . . . . .   . .   . . . . . . .   . .

e|---------------------------------------------|
B|--12---11-----11-----11------11-12-11--------|
G|-----9------9------9------9------------9--9--|
D|---------------------------------------------|Gtr1
A|---------------------------------------------|
E|---------------------------------------------|

e|---------------------------------------------|
B|---------------------------------------------|
G|---------------------------------------------|
D|-----9-----------------9---------------------|Gtr2
A|-----7-----------2-----7----2-----7-5-----2--|
E|-0-0---------0-0-0-0-0--0-0-0-0-0-----7-6-0--|
   . .         . .   . .  . .   . . . . . .

e|---------------------------------------------|
B|--12---11-----11-----11------11-12-11--------|
G|-----9------9------9------9------------9--9--|
D|---------------------------------------------|Gtr1
A|---------------------------------------------|
E|---------------------------------------------|

e|---------------------------------------------|
B|---------------------------------------------|
G|---------------------------------------------|
D|-----9-----------------9---------------------|Gtr2
A|-----7-----------2-----7----2-----7-5-----2--|
E|-0-0---------0-0-0-0-0--0-0-0-0-0-----7-6-0--|
   . .         . .   . .  . .   . . . . . .

e|-------------------------------------------------|
B|--12---/15-----11-----12--------/15--------------|
G|-----9------9------9------9--------------------9-|
D|-------------------------------------------------|Gtr1
A|-------------------------------------------------|
E|-------------------------------------------------|

e|-------------------------------------------------|
B|-------------------------------------------------|
G|-------------------------------------------------|
D|-----12----------------12------------------------|Gtr2
A|-----10----------2-----10-----2-----10-7------2--|
E|-0-0---------0-0-0-0-0----0-0-0-0-0------10-9-0--|
   . .         . .   . .    . .   . . .  . . .

e|---------------------------------------------|
B|--12---/15-----11-----11------11-12-11-9-----|
G|-----9------9------9------9------------------|
D|---------------------------------------------|Gtr1
A|---------------------------------------------|
E|---------------------------------------------|

e|------------------------------------------------|
B|------------------------------------------------|
G|------------------------------------------------|
D|-----12----------------12---------4/5---6/7-----|Gtr2
A|-----10----------2-----10-----2-2-2/3---4/5-----|
E|-0-0---------0-0-0-0-0----0-0-0-0-----0---------|
   . .         . .   . .    . . . .     .

e|--------------------------------------------------|
B|-(9)--let-ring-------------------------------15/17|
G|--------------------------------------------------|
D|--------------------------------------------------|Gtr1
A|--------------------------------------------------|
E|--------------------------------------------------|

e|----------------------------------------------|
B|----------------------------------------------|
G|----------------------------------------------|
D|----------------------------------------------|Gtr2
A|-------------8-----7-------------5-----3-2----|
E|-0-0-0-0-0-0-6-0-0-5-0-0-0-0-0-0-3-0-0-1-0----|
   . . . . . .   . .   . . . . . .   . .

e|--------------------------------------------|
B|-(17)--let-ring-----------------------------|
G|--------------------------------------------|
D|--------------------------------------------|Gtr1
A|--------------------------------------------|
E|--------------------------------------------|

e|--------------------------------------------|
B|--------------------------------------------|
G|--------------------------------------------|
D|--------------------------------------------|Gtr2
A|----------------------------------7p5-7/8---|
E|-0--0-0-0-0-0--0-0-0-0-0--0-0-0-0-----------|
   .  . . . . .  . . . . .  . . . .

e|--------------------------------------------|
B|--------------------------------------------|
G|--------------------------------------------|
D|--------------------------------------------|Gtr1
A|--------------------------------------------|
E|--------------------------------------------|

e|--------------------------------------------|
B|--------------------------------------------|
G|--------------------------------------------|
D|--------------------------------------------|Gtr2
A|----------------------------------7p5-7/8---|
E|-0--0-0-0-0-0--0-0-0-0-0--0-0-0-0-----------|
   .  . . . . .  . . . . .  . . . .

e|--------------------------------------------|
B|--------------------------------------------|
G|--------------------------------------------|
D|--------------------------------------------|Gtr1
A|-2---------------(2)------------------------|
E|-0---------------(0)---------let-ring-------|

e|--------------------------------------------|
B|--------------------------------------------|
G|--------------------------------------------|
D|--------------------------------------------|Gtr2
A|----------------------------------7p5-7/8---|
E|-0--0-0-0-0-0--0-0-0-0-0--0-0-0-0-----------|
   .  . . . . .  . . . . .  . . . .

e|--------------------------------------------|
B|--------------------------------------------|
G|--------------------------------------------|
D|--------------------------------------------|Gtr1
A|----------------(2)-------------------------|
E|----------------(0)-------------------------|

e|--------------------------------------------|
B|--------------------------------------------|
G|--------------------------------------------|
D|--------------------------------------------|Gtr2
A|----------------------------------7p5-7/8---|
E|-0--0-0-0-0-0--0-0-0-0-0--0-0-0-0-----------|
   .  . . . . .  . . . . .  . . . .

Both Guitars

e|--------------------------------------------|
B|--------------------------------------------|
G|--------------------------------------------|
D|--------------------------------------------|x2
A|----------------------------------7p5-7/8---|
E|-0--0-0-0-0-0--0-0-0-0-0--0-0-0-0-----------|
   .  . . . . .  . . . . .  . . . .

e|-------------------------------------------------------------|
B|-------------------------------------------------------------|
G|-------------------------------------------------------------|
D|-------------------------------------------------------------|
A|----------------------------------7p5-7/8--5p3---3--2h3p2----|
E|-0--0-0-0-0-0--0-0-0-0-0--0-0-0-0--------------5----------2--|
   .  . . . . .  . . . . .  . . . .

e|------------------------------------------------|
B|------------------------------------------------|
G|------------------------------------------------|
D|-------------------------------------7p5-7/8----|x2
A|-------------------------------------7p5-7/8----|
E|-0-0-0-0-0-0-0-0-0-0-0-0-0-0-0-0-0-0------------|
   . . . . . . . . . . . . . . . . . .

e|-------------------------------------------------------------------|
B|-------------------------------------------------------------------|
G|-------------------------------------------------------------------|
D|-------------------------------------7p5-7/8-----------------------|
A|-------------------------------------7p5-7/8--5p3---3--2h3p2-4-4-4-|
E|-0-0-0-0-0-0-0-0-0-0-0-0-0-0-0-0-0-0--------------5----------2-2-2-|
   . . . . . . . . . . . . . . . . . .

1st Verse: Mama's revolution...
2nd verse: I do enjoy your company
3rd verse: Filthy little secrets
4th verse: I do enjoy the language

e|--------------------------------|
B|--------------------------------|
G|--------------------------------|
D|-------------------------9\7-10-|x3
A|-------------------------7\5-8--|
E|-0-00000-0-00000-0-00000--------|
   . ..... . ..... . .....

1st verse cont'd: lines up behind your back...
2nd verse cont'd: of the green and black
3rd verse cont'd: keep until your dead
4th verse cont'd: green and black and red

e|------------------------------------|
B|------------------------------------|
G|------------------------------------|
D|--------------------------------3---|
A|-5---------------8------------3-----|
E|-3-33333-3-33333-6-66666-6--3-------|
   . ..... . ..... . ..... .  . .

Pre chorus: You and me............Eternity.

e|----------------------------------------------------------------|
B|----------------------------------------------------------------|
G|----------------------------------------------------------------|
D|-------4p2p0---------------------------4p2p0-------2-4-5--------|x2
A|-4-4-4-------4p2p0-4-4-4--5-5-5--4-4-4-------4p2p0-0-2-3-5-6-7--|
E|-2-2-2-------------2-2-2--3-3-3--2-2-2-------------------3-4-5--|
                                                           . . .

Pre chorus cont'd: Flyyyyyy!

e|----------------------------------| 
B|----------------------------------|
G|----------------------------------|
D|-5-6-7-------7-8-9----------------|
A|-3-4-5-7-8-9-5-6-7-9-10-11--------|
E|-------5-6-7-------7-8--9---------|
         . . .       . .  .

Pre chorus cont'd (2nd time): Flyyyyyy!

e|------------------------------------| 
B|------------------------------------|
G|------------------------------------|
D|-5-6-7-------7-8-9------------------|
A|-3-4-5-7-8-9-5-6-7-9-10-11--2--2-2--|
E|-------5-6-7-------7-8--9---0--0-0--|
         . . .       . .  .



Chorus: Hey maybe you're a minute away....
2nd Chorus: Hey maybe you just don't care...

e|--------------------------------------------------------------------|
B|--------------------------------------------------------------------|
G|--------------------------------------------------------------------|
D|-2------22------22------22------2-4------44------44------44------4--|
A|-2------22------22------22------2-4------44------44------44------4--|
E|-0-0000-00-0000-00-0000-00-0000-0-2-2222-22-2222-22-2222-22-2222-2--|
     ....    ....    ....    ....     ....    ....    ....    ....

Chorus cont'd: And Once you're in...
2nd Chorus cont'd: Once you're gone....................The green and...

e|---------------------------------------------------------------------|
B|---------------------------------------------------------------------|
G|----------------------------------3------33------3-5------5-7------7-|
D|-5------55------55------55------5-3------33------3-5------5-7------7-|
A|-5------55------55------55------5-1-1111-11-1111-1-3-3333-3-5-5555-5-|
E|-3-3333-33-3333-33-3333-33-3333-3------------------------------------|
     ....    ....    ....    ....     ....    ....     ....     ....


End for 2nd chorus: blaaaack!

e|---------------------------|
B|---------------------------|
G|---------------------------|
D|--9-----------7-6-5--3-----|(2nd time, see Extended End for 2nd chorus)
A|--7-8-7-5-7-5-5-4-3--1-----|
E|----6-5-3-5-3--------------|
      . . . . .   .     
e|--------------------------------------------|
B|--------------------------------------------|
G|--------------------------------------------|
D|--------------------------------------------|x2
A|----------------------------------7p5-7/8---|
E|-0--0-0-0-0-0--0-0-0-0-0--0-0-0-0-----------|
   .  . . . . .  . . . . .  . . . .

e|-------------------------------------------------------------|
B|-------------------------------------------------------------|
G|-------------------------------------------------------------|
D|-------------------------------------------------------------|
A|----------------------------------7p5-7/8--5p3---3--2h3p2----|
E|-0--0-0-0-0-0--0-0-0-0-0--0-0-0-0--------------5----------2--|
   .  . . . . .  . . . . .  . . . .

e|------------------------------------------------|
B|------------------------------------------------|
G|------------------------------------------------|
D|-------------------------------------7p5-7/8----|x2
A|-------------------------------------7p5-7/8----|
E|-0-0-0-0-0-0-0-0-0-0-0-0-0-0-0-0-0-0------------|
   . . . . . . . . . . . . . . . . . .

e|----------------------------------------------------------------|
B|----------------------------------------------------------------|
G|----------------------------------------------------------------|
D|-------------------------------------7p5-7/8--------------------|
A|-------------------------------------7p5-7/8--5p3---3--2h3p2----|
E|-0-0-0-0-0-0-0-0-0-0-0-0-0-0-0-0-0-0--------------5----------2--|


Back to verse riff
Then Pre chorus
Then Chorus


Extended End for 2nd chorus:

e|----------------------------------------------|
B|----------------------------------------------|
G|----------------------------------------------|
D|--9----------------------9-----------7-6-5----|
A|--7-8-7-5-7-5-8-7-5-3----7-8-7-5-7-5-5-4-3----|
E|----6-5-3-5-3-6-5-3-1------6-5-3-5-3-5-4-3----|
      . . . . .              . . . . .

Bridge

e|-----------------------------------------------------------------------|
B|-----------------------------------------------------------------------|
G|-----------------------------------------------------------------------|
D|--7/9-------12--11-10--7/9---------------7/9-------12--11-10--10-9-8---|
A|--5/7-------10--9--8---5/7---------------5/7-------10--9--8------------|
E|------000-0-----------------000-000-000------000-0---------------------|
        ... .                 ... ... ...      ... .
e|--------------|
B|--------------|
G|--10-9-8------|
D|--------------|
A|--------------|
E|--------------|

One guitar plays Open E power chord over this measure

e|-----------------------------------------------------------------------|
B|-----------------------------------------------------------------------|
G|-----------------------------------------------------------------------|
D|--7/9-------12--11-10--7/9---------------7/9-------12--11-10--10-9-8---|
A|--5/7-------10--9--8---5/7---------------5/7-------10--9--8------------|
E|------000-0-----------------000-000-000------000-0---------------------|
        ... .                 ... ... ...      ... .
e|--------------|
B|--------------|
G|--10-9-8------|
D|--------------|
A|--------------|
E|--------------|

e|-----------------------------------------|
B|-----------------------------------------|
G|-----------------------------------------|
D|--7/9-------12--11-10--7/9---------------|x3
A|--5/7-------10--9--8---5/7---------------|
E|------000-0-----------------000-000-000--|
        ... .                 ... ... ...

e|--------------------------------------|
B|--------------------------------------|
G|-------------------------------10-9-8-|
D|--7/9-------12--11-10--10-9-8---------|
A|--5/7-------10--9--8------------------|
E|------000-0---------------------------|
        ... .

We get to slipping away....
e|---------------------------------------------------------------------|
B|---------------------------------------------------------------------|
G|---------------------------------------------------------------------|
D|-0-2-------------0-2-------------0-2-------------0-2-----------------|
A|-0-2-2-2-2-5-4-3-0-2-2-2-2-2-2-2-0-2-2-2-2-5-4-3-0-2-2-2-----3-----3-|
E|-----0-0-0-3-2-1-----0-0-0-0-0-0-----0-0-0-3-2-1-----0-0-000-1-000-1-|
       . . .           . . . . . .     . . .           . . ...   ...

We get the joke of the day...
e|---------------------------------------------------------------------|
B|---------------------------------------------------------------------|
G|---------------------------------------------------------10-9-8------|
D|-0-2-------------0-2-------------0-2--------------10-9-8-------------|
A|-0-2-2-2-2-5-4-3-0-2-2-2-2-2-2-2-0-2-2-2-2-5-4-3---------------------|
E|-----0-0-0-3-2-1-----0-0-0-0-0-0-----0-0-0-3-2-1---------------------|
       . . .           . . . . . .     . . .

Shock, blind, run and...
e|---------------------------------------------------------------------|
B|---------------------------------------------------------------------|
G|---------------------------------------------------------------------|
D|---------------------------------------------------------------------|
A|-2-4-4-4-4-5-8-5-2-4-4-4-4-4-4-4-2-4-4-4-4-5-8-5-2-4-4-4-----3-----3-|
E|-0-2-2-2-2-3-6-3-0-2-2-2-2-2-2-2-0-2-2-2-2-3-6-3-0-2-2-2-000-1-000-1-|
       . . .           . . . . . .     . . .           . . ...   ...

We get to slipping away...
e|-----------------------------------------------------------------------|
B|-----------------------------------------------------------------------|
G|-----------------------------------------------------------------------|
D|--7/9-------12--11-10--7/9---------------7/9-------12--11-10--10-9-8---|
A|--5/7-------10--9--8---5/7---------------5/7-------10--9--8------------|
E|------000-0-----------------000-000-000------000-0---------------------|
        ... .                 ... ... ...      ... .
e|--------------|
B|--------------|
G|--10-9-8------|
D|--------------|
A|--------------|
E|--------------|


Come on slipping away...
e|---------------------------------------------------------------------|
B|---------------------------------------------------------------------|
G|---------------------------------------------------------------------|
D|-0-2-------------0-2-------------0-2-------------0-2-----------------|
A|-0-2-2-2-2-5-4-3-0-2-2-2-2-2-2-2-0-2-2-2-2-5-4-3-0-2-2-2-----3-----3-|
E|-----0-0-0-3-2-1-----0-0-0-0-0-0-----0-0-0-3-2-1-----0-0-000-1-000-1-|
       . . .           . . . . . .     . . .           . . ...   ...

Slipping away...
e|---------------------------------------------------------------------|
B|---------------------------------------------------------------------|
G|---------------------------------------------------------10-9-8------|
D|-0-2-------------0-2-------------0-2--------------10-9-8---------9\--|
A|-0-2-2-2-2-5-4-3-0-2-2-2-2-2-2-2-0-2-2-2-2-5-4-3-----------------7\--|
E|-----0-0-0-3-2-1-----0-0-0-0-0-0-----0-0-0-3-2-1---------------------|
       . . .           . . . . . .     . . .

Solo Rhythm part only
e|-----------------------------------------------------------------|
B|-----------------------------------------------------------------|
G|-----------------------------------------------------------------|
D|-----------------------------------------------------------------|
A|-4------44------44------44------44------44------44-------5-2-5-4-|
E|-2-2222-22-2222-22-2222-22-2222-22-2222-22-2222-22-22222-3-0-3-2-|
     ....    ....    ....    ....    ....    ....    .....

e|------------------------------------------------------------|
B|------------------------------------------------------------|
G|------------------------------------------------------------|
D|------------------------------------------------------------|
A|------44------44--------4------44------44------44-------5-2-|
E|-2222-22-2222-22-2222-5-2-2222-22-2222-22-2222-22-22222-3-0-|
   ....    ....    ....     ....    ....    ....    .....

e|-------------------------------------------------------------------|
B|-------------------------------------------------------------------|
G|-------------------------------------------------------------------|
D|-------------------------------------------------------------------|
A|-87------87------87------87------87------87------87------7-8-7-5-4-|
E|-65-5555-65-5555-65-5555-65-5555-65-5555-65-5555-65-5555-5-6-5-3-2-|
      ....    ....    ....    ....    ....    ....    ....

e|------------------------------------------------------------|
B|------------------------------------------------------------|
G|------------------------------------------------------------|
D|------------------------------------------------------------|
A|------44------44------44------44------44------44-------5-2--|
E|-2222-22-2222-22-2222-22-2222-22-2222-22-2222-22-22222-3-0--|
   ....    ....    ....    ....    ....    ....    .....

e|-----------------------------------------------------------------|
B|-----------------------------------------------------------------|
G|-----------------------------------------------------------------|
D|-----------------------------------------------------------------|
A|-87------87------87------87------87------87------87------87------|
E|-65-5555-65-5555-65-5555-65-5555-65-5555-65-5555-65-5555-65-5555-|
      ....    ....    ....    ....    ....    ....    ....    ....

e|---------------------------------------------------------------|
B|---------------------------------------------------------------|
G|---------------------------------------------------------------|
D|-54------54------54------54------76------76------76------7-----|
A|-32-2222-32-2222-32-2222-32-2222-54-4444-54-4444-54-4444-5-----|
E|-----------------------------------------------------------9\--|
      ....    ....    ....    ....    ....    ....    ....


e|-----------------------------------------------------------------------|
B|-----------------------------------------------------------------------|
G|-----------------------------------------------------------------------|
D|----------------5----------------7-----------------4-------------------|
A|-2--------------3----------------5-----------------2-------------------|
E|-0---------------------------------------------------------------------|

e|----------------------------------------------------------|
B|----------------------------------------------------------|
G|----------------------------------------------------------|
D|----------------5-----------------------------------------|
A|-2--------------3----------------3-----------------5-3-5--|
E|-0-------------------------------11111111111111111-3-1-3--|
                                    ................ . . .

e|-----------------------------------------------------------------------|
B|-----------------------------------------------------------------------|
G|-----------------------------------------------------------------------|
D|----------------5----------------7-----------------4-------------------|
A|-2--------------3----------------5-----------------2-------------------|
E|-0---------------------------------------------------------------------|

e|-------------------------------------------------------------|
B|-------------------------------------------------------------|
G|-------------------------------------------------------------|
D|----------------5--------------------------------------------|End solo
A|-2--------------3----------------3-----3---------------------|
E|-0-------------------------------1111111---------------------|
                                    .....
e|---------------------------|
B|---------------------------|
G|---------------------------|
D|--9-----------7-6-5--3-----|
A|--7-8-7-5-7-5-5-4-3--1-----|
E|----6-5-3-5-3--------------|
      . . . . . . . .

5th verse: We get to slipping away
6th verse: Shock, blind, run and

e|--------------------------------|
B|--------------------------------|
G|--------------------------------|
D|-------------------------9\7-10-|x3
A|-------------------------7\5-8--|
E|-0-00000-0-00000-0-00000--------|
   . ..... . ..... . .....

5th verse cont'd: and you get the shakedown
6th verse cont'd: you get the meltdown

e|------------------------------------|
B|------------------------------------|
G|------------------------------------|
D|--------------------------------3---|
A|-5---------------8------------3-----|
E|-3-33333-3-33333-6-66666-6--3-------|
   . ..... . ..... . ..... .  . .

Pre chorus: You and me............Eternity.

e|----------------------------------------------------------------|
B|----------------------------------------------------------------|
G|----------------------------------------------------------------|
D|-------4p2p0---------------------------4p2p0-------2-4-5--------|x2
A|-4-4-4-------4p2p0-4-4-4--5-5-5--4-4-4-------4p2p0-0-2-3-5-6-7--|
E|-2-2-2-------------2-2-2--3-3-3--2-2-2-------------------3-4-5--|
                                                           . . .

Pre chorus repeat: You and me..........You and me.

e|----------------------------------------------------------------|
B|----------------------------------------------------------------|
G|----------------------------------------------------------------|
D|-------4p2p0---------------------------4p2p0-------2-4-5--------|
A|-4-4-4-------4p2p0-4-4-4--5-5-5--4-4-4-------4p2p0-0-2-3-5-6-7--|
E|-2-2-2-------------2-2-2--3-3-3--2-2-2-------------------3-4-5--|
                                                           . . .

Pre chorus: You and me..........You and me.

e|----------------------------------------------------------------|
B|----------------------------------------------------------------|
G|----------------------------------------------------------------|
D|-------4p2p0---------------------------4p2p0-------2-4-5--------|
A|-4-4-4-------4p2p0-4-4-4--5-5-5--4-4-4-------4p2p0-0-2-3--------|
E|-2-2-2-------------2-2-2--3-3-3--2-2-2--------------------------|


Pre chorus cont'd: Flyyyyyy!

e|----------------------------------| 
B|----------------------------------|
G|----------------------------------|
D|-5-6-7-------7-8-9----------------|
A|-3-4-5-------5-6-7----------------|
E|----------------------------------|

Chorus: Hey maybe you're a minute away....
2nd Chorus: Hey maybe you just don't care...

e|--------------------------------------------------------------------|
B|--------------------------------------------------------------------|
G|--------------------------------------------------------------------|
D|-2------22------22------22------2-4------44------44------44------4--|
A|-2------22------22------22------2-4------44------44------44------4--|
E|-0-0000-00-0000-00-0000-00-0000-0-2-2222-22-2222-22-2222-22-2222-2--|
     ....    ....    ....    ....     ....    ....    ....    ....

Chorus cont'd: And Once you're in...
2nd Chorus cont'd: Once you're gone....................The green and...

e|---------------------------------------------------------------------|
B|---------------------------------------------------------------------|
G|----------------------------------3------33------3-5------5-7------7-|
D|-5------55------55------55------5-3------33------3-5------5-7------7-|
A|-5------55------55------55------5-1-1111-11-1111-1-3-3333-3-5-5555-5-|
E|-3-3333-33-3333-33-3333-33-3333-3------------------------------------|
     ....    ....    ....    ....     ....    ....     ....     ....


End for 2nd chorus: blaaaack!

e|-------------------------|-------------------------------------------|
B|-------------------------|-------------------------------------------|
G|-------------------------|-------------------------------------------|
D|--9-----------7-6-5--3---|---------------------------2---(2)-----9\--|
A|--7-8-7-5-7-5-5-4-3--1---|---5555--7777--8-7-5-7-5-3-2---(2)-----7\--|
E|----6-5-3-5-3------------|---3333--5555--6-5-3-5-3-1-0---(0)-----7\--|
      . . . . . . . .          ....  ....  . . . . . . 
 


All the rhythm parts are there. I tried to make as comprehensible as
possible.

If anyone has the solo, questions or comments, feel free to email me.

Thanks! 
comments
We did not receive enough feedback on this tab! Please rate:
print report bad tab
1 2 3 4 5
I want to post or [tab]
guest
You may want to rate the tab now too:
select rating
Please do not post tabs as comments. Select "correction" instead!