Oops, an error
Loading. Please wait.

Cross Tab

ver1
ver1

Whole song

Interactive

More versions @911Tabs.com
1,842 views 1 this week
2 commentsread comments
1 2 3 4 5
excellent!
x 1
Autoscroll
+/-
esc
set tempo
stop
Contributor
Difficulty
intermediate
Hey! There's an official Ultimate Guitar app which is ideal
for learning songs when you're away from computer. Get the app
WARNING: You are trying to view
                                    content from Ultimate-Guitar.com
                                    in an unauthorized application,
                                    which is prohibited.

                                    Please use an official Ultimate
                                    Guitar Tabs application for iPhone,
                                    iPad or Android to access legitimate
                                    chords, guitar, bass, and drum tabs
                                    from Ultimate-Guitar.com database.

                                    Type "ultimate guitar tabs" in Apple
                                    App Store's or Android Market's
                                    search to find the application.
                         Ozielzinho - Cross
           Main riff:
   E|---------------------6-10-p-6-------6--10-p-6--15-p-10------10-----|
   B|-------------------8----------8---8-------------------11--11-------|
   G|-----------------7--------------7-----------------------12----- ---|
   D|-----------5-h-8---------------------------------------------------|
   A|---------5---------------------------------------------------------|
   E|---3-h-6-----------------------------------------------------------|

   E|-15-p-10--10-p-6-------6--10-p-6|---------------------11--15-p-11-----|
   B|-----------------8---8----------|-------------------13----------------|
   G|-------------------7------------|-----------------12-------------- ---|
   D|--------------------------------|----------10-h-13--------------------|
   A|--------------------------------|--------10---------------------------|
   E|--------------------------------|--8-h-11-----------------------------|

   E|-------11--15-p-11--20-p-15------15--20-p-15--15-p-11------11--15-p-11|
   B|-13--13--------------------16--16--------------------13--13-----------|
   G|---12------------------------17------------------------12-------------|
   D|----------------------------------------------------------------------|
   A|----------------------------------------------------------------------|
   E|----------------------------------------------------------------------|

   E|-------------------5--8-p-5-------5--8-p-5--11-p-8---------8--11-p-8--|
   B|-----------------6----------6---6------------------10---10------------|
   G|---------------5--------------5-----------------------8---------------|
   D|---------3-h-7------------------------------------------------  ------|
   A|-------3--------------------------------------------------------------|
   E|-1-h-5----------------------------------------------------------------|

   E|--8-p-5-------5--8-p-5-|---------------------10--13-p-10------10-----|
   B|--------6---6----------|-------------------11-----------11--11-------|
   G|----------5------------|-----------------10---------------10----- ---|
   D|-----------------------|-----------8-h-12----------------------------|
   A|-----------------------|---------8-----------------------------------|
   E|-----------------------|--6-h-10-------------------------------------|

   E|-13-p-10--18-p-13------13--18-p-13--13-p-10------10--13-p-10-|
   B|-----------------17--17--------------------11--11------------|
   G|-------------------17------------------------10--------------|
   D|-------------------------------------------------------------|
   A|-------------------------------------------------------------|
   E|-------------------------------------------------------------|

   E|-----------------------14--17-p-14------14--17-p-14--20-p-17------17--|
   B|---------------------15-----------15--15--------------------19--19----|
   G|-------------------14---------------14------------------------17- ----|
   D|-----------12-h-16----------------------------------------------------|
   A|---------12-----------------------------------------------------------|
   E|--10-h-14-------------------------------------------------------------|

   E|--20-p-17--17-p-14------14--17-p-14-|--------------------6--10-p-6-----|
   B|------------------15--15------------|------------------8---------------|
   G|--------------------14--------------|----------------7------------- ---|
   D|------------------------------------|----------5-h-8-------------------|
   A|------------------------------------|--------5-------------------------|
   E|------------------------------------|--3-h-6---------------------------|

   E|-------6--10-p-6--15-p-10------10--15-p-10--10-p-6-------6--10-p-6-|
   B|-8---8-------------------11--11--------------------8---8-----------|
   G|---7-----------------------12------------------------7-------------|
   D|-------------------------------------------------------------------|
   A|-------------------------------------------------------------------|
   E|-------------------------------------------------------------------|


   E|----------------------15--18-p-15------15--18-p-15--17-p-14------14---|
   B|--------------------16-----------16--16--------------------15--15-----|
   G|------------------15---------------15------------------------14--- ---|
   D|-----------13-h-17----------------------------------------------------|
   A|---------13-----------------------------------------------------------|
   E|--11-h-15-------------------------------------------------------------|

   E|--14-17-14-18-17-15-14-15~|--11-10-8----------------------------------|
   B|--------------------------|----------11-10-8-7-8-10-8-7---------------|
   G|--------------------------|-----------------------------8-7-----------|
   D|--------------------------|---------------------------------8-7-5-(5~)|
   A|--------------------------|-------------------------------------------|
   E|--------------------------|-------------------------------------------|

   Then the solo part:

   E|--13-B-(15~)-----------------------------------------------------|
   B|--13-B-(15~)-11----------11-8----8-------------------------------|
   G|---------------12-(12~)-------10---10-8-10-8---8-----------------|
   D|---------------------------------------------10--10-8------------|
   A|------------------------------------------------------10-9-8-----|
   E|-------------------------------------------------------------11--|

   E|------------------------------------------------------8-----11-8------|
   B|-----------------------------------8------11-8----8-11-11-8-----11-8--|
   G|---------------8------10-8----8-10---10-8------10---------------------|
   D|--10-8----8-10---10-8------10-------------------------------   -------|
   A|-------10-------------------------------------------------------------|
   E|----------------------------------------------------------------------|

   E|-----------|-13-B-(15~)----------------------------13-------------|
   B|-----------|-13-B-(15~)-11--------11--13--13-B-(15)--13-B-(15)-11-|
   G|-10-8-(8~)-|--------------12-(12~)--12----------------------------|
   D|-----------|------------------------------------------------------|
   A|-----------|------------------------------------------------------|
   E|-----------|------------------------------------------------------|

   E|-13-B-(15)-13-B-(15)-13-(13~)-|---------------------------------------|
   B|------------------------------|-------------------------15-16--15-16--|
   G|------------------------------|-----------------14-15-17-----17-------|
   D|------------------------------|---------13-15-17----------------- ----|
   A|------------------------------|-13-15-17------------------------------|
   E|------------------------------|---------------------------------------|

   E|---------------------------------|-------------------------------------|
   B|-18-13-B-(15)--13-15-16-13-(13~)-|-------------------------15-16--15---|
   G|-------------15------------------|-----------------14-15-17-----17-----|
   D|---------------------------------|---------13-15-17--------------------| ->
   A|---------------------------------|-13-15-17----------------------------|
   E|---------------------------------|-------------------------------------|

   E|---------------------------15--18--17-(17~)---20-B-22-(22~)-|
   B|-16-18-18-B-20-(18)-18-B-20---------------------------------|
   G|------------------------------------------------------------|
   D|------------------------------------------------------------|
   A|------------------------------------------------------------|
   E|------------------------------------------------------------|

   E|-11-p-10------10-11-p-10--13-p-10------10-13-p-10--8-p-5-------5-8-p-5|
   B|--------11--11-------------------11--11------------------6---6--------|
   G|----------10-----------------------10----------------------5----------|
   D|----------------------------------------------------------------------|
   A|----------------------------------------------------------------------|
   E|----------------------------------------------------------------------|

   E|-11-p-8---------8-11-p-8--10-p-6-------6-10-p-6--15-p-10------10--|
   B|--------10---10------------------8---8------------------11--11----|
   G|-----------8-----------------------7----------------------12------|
   D|-------------------------------------------------------------- ---|
   A|------------------------------------------------------------------|
   E|------------------------------------------------------------------|

   E|-15-p-10--13-p-10------10-13-p-10--17-p-13------13-17-p-13-|
   B|-----------------10--10-------------------15--15-----------|
   G|-------------------10-----------------------14-------------|
   D|-----------------------------------------------------------|
   A|-----------------------------------------------------------|
   E|-----------------------------------------------------------|

   E|-11-10-8-11-10-8--------------------------------------------------|
   B|-----------------11-10-8-11-10-8----------------------------------|
   G|---------------------------------10-8-7-10-8-7---------------- ---|
   D|-----------------------------------------------10-8-7-10-8-7------|
   A|------------------------------------------------------------------|
   E|------------------------------------------------------------------|

   E|----------------------------------|-10-8-6----6-------|10-8-6----6--|
   B|----------------------------------|--------10---10-8-6|-------10----|
   G|----------------------------------|-------------------|-------------|
   D|---------------------------7-8-10-|-------------------|------- -----|
   A|-10-8-6-10-8-6--------------------|-------------------|-------------|
   E|---------------8-A.H(8~~)8--------|-------------------|-------------|

   E|--------|-11-10-8---8-------|-11-10-8---8-------|-8-6-5---5-------|
   B|-10-8-6-|---------11-11-10-8|---------11-11-10-8|-------8---8-6-5-|
   G|--------|-------------------|-------------------|-----------------|
   D|--------|-------------------|-------------------|-----------------|
   A|--------|-------------------|-------------------|-----------------|
   E|--------|-------------------|-------------------|-----------------|

   E|-8-6-5---5-------|10-8-6----6--------|10-8-6----6--------|
   B|-------8---8-6-5-|-------10---10-8-6-|-------10---10-8-6-|
   G|-----------------|-------------------|-------------------|
   D|-----------------|-------------------|-------------------|
   A|-----------------|-------------------|-------------------|
   E|-----------------|-------------------|-------------------|
    |...................| <--play this part 4 times
   E|-11-10-8---8-------|-8-5--0--11-8---0--14-11---0--17-14---0--20B(22~)-|
   B|---------11-11-10-8|----7--------10---------13---------16-------------|
   G|-------------------|--------------------------------------------------|
   D|-------------------|--------------------------------------------------|
   A|-------------------|--------------------------------------------------|
   E|-------------------|--------------------------------------------------|

Main riff at this part once again:

   E|---------------------6-10-p-6-------6--10-p-6--15-p-10------10-----|
   B|-------------------8----------8---8-------------------11--11-------|
   G|-----------------7--------------7-----------------------12----- ---|
   D|-----------5-h-8---------------------------------------------------|
   A|---------5---------------------------------------------------------|
   E|---3-h-6-----------------------------------------------------------|

   E|-15-p-10--10-p-6-------6--10-p-6|---------------------11--15-p-11-----|
   B|-----------------8---8----------|-------------------13----------------|
   G|-------------------7------------|-----------------12-------------- ---|
   D|--------------------------------|----------10-h-13--------------------|
   A|--------------------------------|--------10---------------------------|
   E|--------------------------------|--8-h-11-----------------------------|

   E|-------11--15-p-11--20-p-15------15--20-p-15--15-p-11------11--15-p-11|
   B|-13--13--------------------16--16--------------------13--13-----------|
   G|---12------------------------17------------------------12-------------|
   D|----------------------------------------------------------------------|
   A|----------------------------------------------------------------------|
   E|----------------------------------------------------------------------|

   E|-------------------5--8-p-5-------5--8-p-5--11-p-8---------8--11-p-8--|
   B|-----------------6----------6---6------------------10---10------------|
   G|---------------5--------------5-----------------------8---------------|
   D|---------3-h-7------------------------------------------------  ------|
   A|-------3--------------------------------------------------------------|
   E|-1-h-5----------------------------------------------------------------|

   E|--8-p-5-------5--8-p-5-|---------------------10--13-p-10------10-----|
   B|--------6---6----------|-------------------11-----------11--11-------|
   G|----------5------------|-----------------10---------------10----- ---|
   D|-----------------------|-----------8-h-12----------------------------|
   A|-----------------------|---------8-----------------------------------|
   E|-----------------------|--6-h-10-------------------------------------|

   E|-13-p-10--18-p-13------13--18-p-13--13-p-10------10--13-p-10-|
   B|-----------------17--17--------------------11--11------------|
   G|-------------------17------------------------10--------------|
   D|-------------------------------------------------------------|
   A|-------------------------------------------------------------|
   E|-------------------------------------------------------------|

   E|-----------------------14--17-p-14------14--17-p-14--20-p-17------17--|
   B|---------------------15-----------15--15--------------------19--19----|
   G|-------------------14---------------14------------------------17- ----|
   D|-----------12-h-16----------------------------------------------------|
   A|---------12-----------------------------------------------------------|
   E|--10-h-14-------------------------------------------------------------|

   E|--20-p-17--17-p-14------14--17-p-14-|--------------------6--10-p-6-----|
   B|------------------15--15------------|------------------8---------------|
   G|--------------------14--------------|----------------7------------- ---|
   D|------------------------------------|----------5-h-8-------------------|
   A|------------------------------------|--------5-------------------------|
   E|------------------------------------|--3-h-6---------------------------|

   E|-------6--10-p-6--15-p-10------10--15-p-10--10-p-6-------6--10-p-6-|
   B|-8---8-------------------11--11--------------------8---8-----------|
   G|---7-----------------------12------------------------7-------------|
   D|-------------------------------------------------------------------|
   A|-------------------------------------------------------------------|
   E|-------------------------------------------------------------------|


   E|----------------------15--18-p-15------15--18-p-15--17-p-14------14---|
   B|--------------------16-----------16--16--------------------15--15-----|
   G|------------------15---------------15------------------------14--- ---|
   D|-----------13-h-17----------------------------------------------------|
   A|---------13-----------------------------------------------------------|
   E|--11-h-15-------------------------------------------------------------|

   E|--14-17-14-18-17-15-14-15~|--11-10-8----------------------------------|
   B|--------------------------|----------11-10-8-7-8-10-8-7---------------|
   G|--------------------------|-----------------------------8-7-----------|
   D|--------------------------|---------------------------------8-7-5-(5~)|
   A|--------------------------|-------------------------------------------|
   E|--------------------------|-------------------------------------------|

   E|----------------------------------------------------------------------|
   B|-------------------------------------------------15-17-18-------------|
   G|-------------------------14-15-17--------14-15-17--------14-15-17- ---|
   D|-----------------13-15-17--------13-15-17-----------------------------|
   A|---------13-15-17-----------------------------------------------------|
   E|-13-15-17-------------------------------------------------------------|

   E|---------15-17-18-18-17-15-18-17-15------------------------------------|
   B|-15-17-18--------------------------18-17-15-18-17-15--------------- ---|
   G|----------------------------------------------------17-15-14-17-15-14--|
   D|-----------------------------------------------------------------------|
   A|-----------------------------------------------------------------------|
   E|-----------------------------------------------------------------------|

   E|---------------------------------------------------------------------|
   B|---------------------------------------------------------------------|
   G|----------------------------------------------------------------- ---|
   D|-17-15-13-17-15-13---------------------------------------13-15-17----|
   A|------------------17-15-13-17-15-13--------------13-15-17------------|
   E|-----------------------------------17-15-13-15-17--------------------|

   E|----------------------------------------------------------------|
   B|-----------------------------------------15-16-18-18-B-20-(18)--|
   G|-----------------14-15-17--------14-15-17-----------------------|
   D|---------13-15-17--------13-15-17-------------------------------|
   A|-13-15-17-------------------------------------------------------|
   E|----------------------------------------------------------------|

   E|----------15--18--20t18p15-22t18p15-20t18p15-20t18p15-20t18p15-|
   B|-18-B-(20)-----------------------------------------------------|
   G|---------------------------------------------------------------|
   D|---------------------------------------------------------------|
   A|---------------------------------------------------------------|
   E|---------------------------------------------------------------|
                                 |...................................| x 3
   E|-22t18p15-20t18p15--18t17p13-20t17p13-18t17p13-18t17p13-18t17p13-|
   B|-----------------------------------------------------------------|
   G|-----------------------------------------------------------------|
   D|-----------------------------------------------------------------|
   A|-----------------------------------------------------------------|
   E|-----------------------------------------------------------------|

   E|-20t17p13-18t17p13|--------------15--20-p-15------15-20-p-15-20-p-15-|
   B|------------------|------------16-----------16--16-------------------|
   G|------------------|----------17---------------17---------------------|
   D|------------------|--------17----------------------------------------|
   A|------------------|-15-h-18------------------------------------------|
   E|------------------|--------------------------------------------------|

   E|-20-p-15------15-20-p-15-----18-p-13------13--18-p-13-18-p-13-|
   B|--------16--16----------16----------17--17--------------------|
   G|----------17--------------17----------17----------------------|
   D|--------------------------------------------------------------|
   A|--------------------------------------------------------------|
   E|--------------------------------------------------------------|

   E|-18-p-13------13--18-p-13------18-17-13-18-17-13------------------|
   B|--------17--17-----------17---------------------18-16-13-18-16-13-|
   G|----------17---------------17-------------------------------------|
   D|------------------------------------------------------------------|
   A|------------------------------------------------------------------|
   E|------------------------------------------------------------------|

   E|-----------------------------------------------------------|
   B|-----------------------------------------------------------|
   G|-15-14-0(12)-15-14-0(12)-----------------------------------|
   D|------------------------15-13-10-15-13-10------------------|
   A|-----------------------------------------15-13-10-15-13-10-|
   E|-----------------------------------------------------------|

   E|--------------15-20-p-15------15--20-p-15-20-p-15-20-p-15------15-|
   B|------------16----------16--16---------------------------16--16---|
   G|----------17--------------17-------------------------------17-----|
   D|--------17--------------------------------------------------------|
   A|-15-h-18----------------------------------------------------------|
   E|------------------------------------------------------------------|

   E|-20-p-15-----18-p-13------13--18-p-13-18-p-13-18-p-13------13-|
   B|--------16----------17--17---------------------------17--17---|
   G|----------17----------17-------------------------------17-----|
   D|--------------------------------------------------------------|
   A|--------------------------------------------------------------|
   E|--------------------------------------------------------------|

   E|-18-p-13-----18-17-15-18-17-15-----------------------------------|
   B|--------17--------------------18-17-15-18-17-15------------------|
   G|----------17-----------------------------------17-15-14-17-15-14-|
   D|-----------------------------------------------------------------|
   A|-----------------------------------------------------------------|
   E|-----------------------------------------------------------------|

   E|-----------------------------------------|
   B|-----------------------------------------|
   G|-----------------------------------------|
   D|-17-15-13-17-15-13-----------------------|
   A|------------------17-15-13-17-15-13------|
   E|-----------------------------------17-15-|

Last solo :

   E|--------------------------------------------------10-11-12-11-10-------|
   B|------------------------------------11-11-12-13-14--------------14-13--|
   G|-------------------------------10-12-----------------------------------|
   D|-----------------8-8-10-8-10-12--------------------------------- ------|
   A|-------------8-10------------------------------------------------------|
   E|-6-6-8-6-8-10----------------------------------------------------------|
                    |.....|Palm mute if you like =)
   E|---------------------------------------|-----------------------------|
   B|-12-11-----------------10-h-11-10------|-----------------------------|
   G|-------12-(12~)---12-------------10~~--|-----------------8-10-b-(12)-|
   D|----------------12--12-----------------|-------------8-10------------|
   A|---------------------------------------|-6-6-8-6-8-10----------------|
   E|---------------------------------------|-----------------------------|

   E|-8-------------------------------------------------|------------------|
   B|---11-8----11-8------------------------------------|------------------|
   G|--------10------10-8---8-B-10-(8)------------------|-------------- ---|
   D|---------------------10----------8-----------------|------------------|
   A|-----------------------------------8--6-----6-(6~)-|-8-10-12-8-10-12--|
   E|-----------------------------------------8---------|------------------|

   E|------------------------------------------------10-11-13-11-10-13-11-10-|
   B|-------------------------------10-11-13-10-11-13------------------------|
   G|----------------9-10-12-9-10-12-----------------------------------------|
   D|-8-10-12-8-10-12--------------------------------------------------- ----|
   A|------------------------------------------------------------------------|
   E|------------------------------------------------------------------------|

   E|---------------------------------------------------------------------|
   B|13-11-10-13-11-10------------------------------------------ ---------|
   G|-----------------12-10-8-12-10-8-------------------------------------|
   D|--------------------------------12-10-8-12-10-8-------------8-10-12--|
   A|-----------------------------------------------12-10-8-10-12---------|
   E|---------------------------------------------------------------------|

   E|-----------------------------------------------------------------|
   B|-------------------------------------11-8-10-(10~)--13-B-15(15~)-|
   G|-8-(8~)-7-----7--10-B-12-(12~)--10-8-----------------------------|
   D|-----------10----------------------------------------------------|
   A|-----------------------------------------------------------------|
   E|-----------------------------------------------------------------|

Main riff for the last time :

   E|---------------------6-10-p-6-------6--10-p-6--15-p-10------10-----|
   B|-------------------8----------8---8-------------------11--11-------|
   G|-----------------7--------------7-----------------------12----- ---|
   D|-----------5-h-8---------------------------------------------------|
   A|---------5---------------------------------------------------------|
   E|---3-h-6-----------------------------------------------------------|

   E|-15-p-10--10-p-6-------6--10-p-6|---------------------11--15-p-11-----|
   B|-----------------8---8----------|-------------------13----------------|
   G|-------------------7------------|-----------------12-------------- ---|
   D|--------------------------------|----------10-h-13--------------------|
   A|--------------------------------|--------10---------------------------|
   E|--------------------------------|--8-h-11-----------------------------|

   E|-------11--15-p-11--20-p-15------15--20-p-15--15-p-11------11--15-p-11|
   B|-13--13--------------------16--16--------------------13--13-----------|
   G|---12------------------------17------------------------12-------------|
   D|----------------------------------------------------------------------|
   A|----------------------------------------------------------------------|
   E|----------------------------------------------------------------------|

   E|-------------------5--8-p-5-------5--8-p-5--11-p-8---------8--11-p-8--|
   B|-----------------6----------6---6------------------10---10------------|
   G|---------------5--------------5-----------------------8---------------|
   D|---------3-h-7------------------------------------------------  ------|
   A|-------3--------------------------------------------------------------|
   E|-1-h-5----------------------------------------------------------------|

   E|--8-p-5-------5--8-p-5-|---------------------10--13-p-10------10-----|
   B|--------6---6----------|-------------------11-----------11--11-------|
   G|----------5------------|-----------------10---------------10----- ---|
   D|-----------------------|-----------8-h-12----------------------------|
   A|-----------------------|---------8-----------------------------------|
   E|-----------------------|--6-h-10-------------------------------------|

   E|-13-p-10--18-p-13------13--18-p-13--13-p-10------10--13-p-10-|
   B|-----------------17--17--------------------11--11------------|
   G|-------------------17------------------------10--------------|
   D|-------------------------------------------------------------|
   A|-------------------------------------------------------------|
   E|-------------------------------------------------------------|

   E|-----------------------14--17-p-14------14--17-p-14--20-p-17------17--|
   B|---------------------15-----------15--15--------------------19--19----|
   G|-------------------14---------------14------------------------17- ----|
   D|-----------12-h-16----------------------------------------------------|
   A|---------12-----------------------------------------------------------|
   E|--10-h-14-------------------------------------------------------------|

   E|--20-p-17--17-p-14------14--17-p-14-|--------------------6--10-p-6-----|
   B|------------------15--15------------|------------------8---------------|
   G|--------------------14--------------|----------------7------------- ---|
   D|------------------------------------|----------5-h-8-------------------|
   A|------------------------------------|--------5-------------------------|
   E|------------------------------------|--3-h-6---------------------------|

   E|-------6--10-p-6--15-p-10------10--15-p-10--10-p-6-------6--10-p-6-|
   B|-8---8-------------------11--11--------------------8---8-----------|
   G|---7-----------------------12------------------------7-------------|
   D|-------------------------------------------------------------------|
   A|-------------------------------------------------------------------|
   E|-------------------------------------------------------------------|


   E|----------------------15--18-p-15------15--18-p-15--17-p-14------14---|
   B|--------------------16-----------16--16--------------------15--15-----|
   G|------------------15---------------15------------------------14--- ---|
   D|-----------13-h-17----------------------------------------------------|
   A|---------13-----------------------------------------------------------|
   E|--11-h-15-------------------------------------------------------------|

   E|--14-17-14-18-17-15-14-15~|--11-10-8----------------------------------|
   B|--------------------------|----------11-10-8-7-8-10-8-7---------------|
   G|--------------------------|-----------------------------8-7-----7~----|
   D|--------------------------|---------------------------------8-7-5~----|
   A|--------------------------|-------------------------------------------|
   E|--------------------------|-------------------------------------------|

Tablature legend :
h = hammer on
p = pull off
P.M = palm mute
A.H.= pick harmony
~ = vibration
/ and \ are slides
t = tapping(with pick or finger wich one you like)
(_) let ring
B = bend
___________________________________________________


I do not take credit for the tabs.This is Ozielzinhos own work.I had this on guitar pro
now I tab it to my friend...other peopple can use it too =) so don't thank me but you
rate.I made this song at 3 am. so there might be mistakes.If you see em tell me my 
msn olli_idiot95@hotmail.com

Have fun on learning!

IF THERE COMES MANY OF THESE TABS I WILL DELETE THE EARLIER ONES
comments
We did not receive enough feedback on this tab! Please rate:
print report bad tab
1 2 3 4 5
2 comments total.
0 reply
squierulez wrote on October 27 2009, 05:15 pm

I spent 5 hoursat night on this tab :D:D i didin't copy it...I had it in my mind but this is Ozielzinhos work

0 reply
Jack Bevan wrote on May 23 2010, 10:18 am

what would be an easier way to play the main riff. Sweep picking, alternate picking or econonomy picking?

I want to post or [tab]
guest
You may want to rate the tab now too:
select rating
Please do not post tabs as comments. Select "correction" instead!